Oops, an error
Loading. Please wait.

Better Off This Way Tab

ver4
ver4

Whole song

Interactive

More versions @911Tabs.com
1,044 views 3 this week
no commentswrite comment
1 2 3 4 5
please rate
Autoscroll
+/-
esc
set tempo
stop
Contributor
Difficulty
Tuning
novice
B F# B E G# C#
Hey! There's an official Ultimate Guitar app which is ideal
for learning songs when you're away from computer. Get the app
WARNING: You are trying to view
                                    content from Ultimate-Guitar.com
                                    in an unauthorized application,
                                    which is prohibited.

                                    Please use an official Ultimate
                                    Guitar Tabs application for iPhone,
                                    iPad or Android to access legitimate
                                    chords, guitar, bass, and drum tabs
                                    from Ultimate-Guitar.com database.

                                    Type "ultimate guitar tabs" in Apple
                                    App Store's or Android Market's
                                    search to find the application.
lead guitar

Intro

c#|-------------------------------------------------|
G#|-------------------------------------------------|
 E|-------------------------------------------------|
 B|--2-----2----------------------------------------|
F#|--2-----2-----2--2--2--2--2--2--5--5--5--0--0--0-|
 B|--2-----2-----2--2--2--2--2--2--5--5--5--0--0--0-|
                 .  .  .  .  .  .  .  .  .  .  .  .
c#|-------------------------------------------------|
G#|-------------------------------------------------|
 E|-------------------------------------------------|
 B|--2-----2----------------------------------------|
F#|--2-----2-----2--2--2--2--2--2--5--5--5--0--0--0-|
 B|--2-----2-----2--2--2--2--2--2--5--5--5--0--0--0-|
                 .  .  .  .  .  .  .  .  .  .  .  .
c#|-------------------------------------------------|
G#|-------------------------------------------------|
 E|-------------------------------------------------|
 B|--5-----5----------------------------------------|
F#|--3-----3-----3--3--3--3--3--3--5--5--5--0--0--0-|
 B|--2-----2-----2--2--2--2--2--2--5--5--5--0--0--0-|
                 .  .  .  .  .  .  .  .  .  .  .  .

c#|-------------------------------------------------|
G#|-------------------------------------------------|
 E|-------------------------------------------------|
 B|--5-----5----------------------------------------|
F#|--3-----3-----3--3--3--3--3--3--5--5--5--0--0--0-|
 B|--2-----2-----2--2--2--2--2--2--5--5--5--0--0--0-|
                 .  .  .  .  .  .  .  .  .  .  .  .
Verse
c#|-------------------------------------------------|
G#|-------------------------------------------------|
 E|-16----16----12-12-12-12-14-14-14-14-11-11-11-11-|
 B|-14----14----12-12-12-12-12-12-12-12-12-12-12-12-|
F#|-------------------------------------------------|
 B|-------------------------------------------------|
c#|-------------------------------------------------|
G#|-------------------------------------------------|
 E|-16----16----12-12-12-12-14-14-14-14-11-11-11-11-|
 B|-14----14----12-12-12-12-12-12-12-12-12-12-12-12-|
F#|-------------------------------------------------|
 B|-------------------------------------------------|

c#|-------------------------------------------------|
G#|-------------------------------------------------|
 E|--9--9--9--9-11-11-11-11-12-12-12-12-14-14-14-14-|
 B|-10-10-10-10-10-10-10-10-12-12-12-12-12-12-12-12-|
F#|-------------------------------------------------|
 B|-------------------------------------------------|

c#|-------------------------------------------------|
G#|-------------------------------------------------|
 E|--9--9--9--9-11-11-11-11-12-12-12----------------|
 B|-10-10-10-10-10-10-10-10-12-12-12-12-12-12-12-12-|
F#|-------------------------------------------------|
 B|-------------------------------------------------|


Chorus 

c#|-------------------------------------------------|
G#|-------------------------------------------------|
 E|-------------------------------------------------|
 B|-10-10-10-10-10-10-10-10--5--5--5--5--5--5--5--5-|
F#|-10-10-10-10-10-10-10-10--5--5--5--5--5--5--5--5-|
 B|-10-10-10-10-10-10-10-10--5--5--5--5--5--5--5--5-|

c#|-------------------------------------------------|
G#|-------------------------------------------------|
 E|-------------------------------------------------|
 B|--0--0--0--0--0--0--0--0--0--0--0--0--0--0--0--0-|
F#|--0--0--0--0--0--0--0--0--0--0--0--0--0--0--0--0-|
 B|--0--0--0--0--0--0--0--0--0--0--0--0--0--0--0--0-|

c#|-------------------------------------------------|
G#|-------------------------------------------------|
 E|-------------------------------------------------|
 B|-10-10-10-10-10-10-10-10--5--5--5--5--5--5--5--5-|
F#|-10-10-10-10-10-10-10-10--5--5--5--5--5--5--5--5-|
 B|-10-10-10-10-10-10-10-10--5--5--5--5--5--5--5--5-|

c#|-------------------------------------------------|
G#|-------------------------------------------------|
 E|-------------------------------------------------|
 B|--0--0--0--0--0--0--0--0--0--0--0--0--0--0--0--0-|
F#|--0--0--0--0--0--0--0--0--0--0--0--0--0--0--0--0-|
 B|--0--0--0--0--0--0--0--0--0--0--0--0--0--0--0--0-|

c#|-------------------------------------------------|
G#|-------------------------------------------------|
 E|-------------------------------------------------|
 B|-10-10-10-10-10-10-10-10--5--5--5--5--5--5--5--5-|
F#|-10-10-10-10-10-10-10-10--5--5--5--5--5--5--5--5-|
 B|-10-10-10-10-10-10-10-10--5--5--5--5--5--5--5--5-|

c#|-------------------------------------------------|
G#|-------------------------------------------------|
 E|-------------------------------------------------|
 B|--0--0--0--0--0--0--0--0--0--0--0--0--0--0--0--0-|
F#|--0--0--0--0--0--0--0--0--0--0--0--0--0--0--0--0-|
 B|--0--0--0--0--0--0--0--0--0--0--0--0--0--0--0--0-|

c#|-------------------------------------------------|
G#|-------------------------------------------------|
 E|-------------------------------------------------|
 B|-10-10-10-10-10-10-10-10--5--5--5--5--5--5--5--5-|
F#|-10-10-10-10-10-10-10-10--5--5--5--5--5--5--5--5-|
 B|-10-10-10-10-10-10-10-10--5--5--5--5--5--5--5--5-|

c#|-------------------------------------------------|
G#|-------------------------------------------------|
 E|-------------------------------------------------|
 B|--0--0--0--0--0--0--0--0--0--0--0--0--0--0--0--0-|
F#|--0--0--0--0--0--0--0--0--0--0--0--0--0--0--0--0-|
 B|--0--0--0--0--0--0--0--0--0--0--0--0--0--0--0--0-|


Post chorus 

c#|-------------------------------------------------|
G#|-------------------------------------------------|
 E|----12----12-12-------------12----12-12----------|
 B|-----x-----x--x--------------x-----x--x----------|
F#|----10----10-10-------------10----10-10----------|
 B|-------------------------------------------------|

c#|-------------------------------------------------|
G#|-------------------------------------------------|
 E|----11----11-11-------------11----11-11-16-16-16-|
 B|-----x-----x--x--------------x-----x--x--x--x--x-|
F#|-----9-----9--9--------------9-----9--9-14-14-14-|
 B|-------------------------------------------------|

c#|-------------------------------------------------|
G#|-------------------------------------------------|
 E|----12----12-12-------------12----12-12----------|
 B|-----x-----x--x--------------x-----x--x----------|
F#|----10----10-10-------------10----10-10----------|
 B|-------------------------------------------------|

c#|-------------------------------------------------|
G#|-------------------------------------------------|
 E|----11----11-11-------------11-11-11-11-11-11-11-|
 B|-----x-----x--x--------------x--x--x--x--x--x--x-|
F#|-----9-----9--9--------------9--9--9--9--9--9--9-|
 B|-------------------------------------------------|

Verse

c#|-------------------------------------------------|
G#|-------------------------------------------------|
 E|-16----16----12-12-12-12-14-14-14-14-11-11-11-11-|
 B|-14----14----12-12-12-12-12-12-12-12-12-12-12-12-|
F#|-------------------------------------------------|
 B|-------------------------------------------------|
c#|-------------------------------------------------|
G#|-------------------------------------------------|
 E|-16----16----12-12-12-12-14-14-14-14-11-11-11-11-|
 B|-14----14----12-12-12-12-12-12-12-12-12-12-12-12-|
F#|-------------------------------------------------|
 B|-------------------------------------------------|

c#|-------------------------------------------------|
G#|-------------------------------------------------|
 E|--9--9--9--9-11-11-11-11-12-12-12-12-14-14-14-14-|
 B|-10-10-10-10-10-10-10-10-12-12-12-12-12-12-12-12-|
F#|-------------------------------------------------|
 B|-------------------------------------------------|

c#|-------------------------------------------------|
G#|-------------------------------------------------|
 E|--9--9--9--9-11-11-11-11-12-12-12----------------|
 B|-10-10-10-10-10-10-10-10-12-12-12-12-12-12-12-12-|
F#|-------------------------------------------------|
 B|-------------------------------------------------|


Breakdown

c#|-------------------------------------------------|
G#|-------------------------------------------------|
 E|-16----16----12-12-12-12-14-14-14-14-11-11-11-11-|
 B|-14----14----12-12-12-12-12-12-12-12-12-12-12-12-|
F#|-------------------------------------------------|
 B|-------------------------------------------------|

c#|-------------------------------------------------|
G#|-------------------------------------------------|
 E|-16----16----12-12-12-12-14-14-14-14-11-11-11-11-|
 B|-14----14----12-12-12-12-12-12-12-12-12-12-12-12-|
F#|-------------------------------------------------|
 B|-------------------------------------------------|

c#|-------------------------------------------------|
G#|-------------------------------------------------|
 E|--9--9--9--9-11-11-11-11-12-12-12-12-14-14-14-14-|
 B|-10-10-10-10-10-10-10-10-12-12-12-12-12-12-12-12-|
F#|-------------------------------------------------|
 B|-------------------------------------------------|

c#|-------------------------------------------------|
G#|-------------------------------------------------|
 E|--9--9--9--9-11-11-11-11-12-12-12----------------|
 B|-10-10-10-10-10-10-10-10-12-12-12-12-12-12-12-12-|
F#|-------------------------------------------------|
 B|-------------------------------------------------|


Chorus 

c#|-------------------------------------------------|
G#|-------------------------------------------------|
 E|-------------------------------------------------|
 B|-10-10-10-10-10-10-10-10--5--5--5--5--5--5--5--5-|
F#|-10-10-10-10-10-10-10-10--5--5--5--5--5--5--5--5-|
 B|-10-10-10-10-10-10-10-10--5--5--5--5--5--5--5--5-|

c#|-------------------------------------------------|
G#|-------------------------------------------------|
 E|-------------------------------------------------|
 B|--0--0--0--0--0--0--0--0--0--0--0--0--0--0--0--0-|
F#|--0--0--0--0--0--0--0--0--0--0--0--0--0--0--0--0-|
 B|--0--0--0--0--0--0--0--0--0--0--0--0--0--0--0--0-|

c#|-------------------------------------------------|
G#|-------------------------------------------------|
 E|-------------------------------------------------|
 B|-10-10-10-10-10-10-10-10--5--5--5--5--5--5--5--5-|
F#|-10-10-10-10-10-10-10-10--5--5--5--5--5--5--5--5-|
 B|-10-10-10-10-10-10-10-10--5--5--5--5--5--5--5--5-|

c#|-------------------------------------------------|
G#|-------------------------------------------------|
 E|-------------------------------------------------|
 B|--0--0--0--0--0--0--0--0--0--0--0--0--0--0--0--0-|
F#|--0--0--0--0--0--0--0--0--0--0--0--0--0--0--0--0-|
 B|--0--0--0--0--0--0--0--0--0--0--0--0--0--0--0--0-|

c#|-------------------------------------------------|
G#|-------------------------------------------------|
 E|-------------------------------------------------|
 B|-10-10-10-10-10-10-10-10--5--5--5--5--5--5--5--5-|
F#|-10-10-10-10-10-10-10-10--5--5--5--5--5--5--5--5-|
 B|-10-10-10-10-10-10-10-10--5--5--5--5--5--5--5--5-|

c#|-------------------------------------------------|
G#|-------------------------------------------------|
 E|-------------------------------------------------|
 B|--0--0--0--0--0--0--0--0--0--0--0--0--0--0--0--0-|
F#|--0--0--0--0--0--0--0--0--0--0--0--0--0--0--0--0-|
 B|--0--0--0--0--0--0--0--0--0--0--0--0--0--0--0--0-|

c#|-------------------------------------------------|
G#|-------------------------------------------------|
 E|-------------------------------------------------|
 B|-10-10-10-10-10-10-10-10--5--5--5--5--5--5--5--5-|
F#|-10-10-10-10-10-10-10-10--5--5--5--5--5--5--5--5-|
 B|-10-10-10-10-10-10-10-10--5--5--5--5--5--5--5--5-|

c#|-------------------------------------------------|
G#|-------------------------------------------------|
 E|-------------------------------------------------|
 B|--0--0--0--0--0--0--0--0--0--0--0--0--0--0--0--0-|
F#|--0--0--0--0--0--0--0--0--0--0--0--0--0--0--0--0-|
 B|--0--0--0--0--0--0--0--0--0--0--0--0--0--0--0--0-|

Post chorus

c#|-------------------------------------------------|
G#|-------------------------------------------------|
 E|----12----12-12-------------12----12-12----------|
 B|-----x-----x--x--------------x-----x--x----------|
F#|----10----10-10-------------10----10-10----------|
 B|-------------------------------------------------|

c#|-------------------------------------------------|
G#|-------------------------------------------------|
 E|----11----11-11-------------11----11-11-16-16-16-|
 B|-----x-----x--x--------------x-----x--x--x--x--x-|
F#|-----9-----9--9--------------9-----9--9-14-14-14-|
 B|-------------------------------------------------|

c#|-------------------------------------------------|
G#|-------------------------------------------------|
 E|----12----12-12-------------12----12-12----------|
 B|-----x-----x--x--------------x-----x--x----------|
F#|----10----10-10-------------10----10-10----------|
 B|-------------------------------------------------|

c#|-------------------------------------------------|
G#|-------------------------------------------------|
 E|----11----11-11-------------11----11-11-16-16-16-|
 B|-----x-----x--x--------------x-----x--x--x--x--x-|
F#|-----9-----9--9--------------9-----9--9-14-14-14-|
 B|-------------------------------------------------|

Interlude 

c#|-------------------------------------------------|
G#|-------------------------------------------------|
 E|-16----16----16-16-16-16-16----16----16-16-16-16-|
 B|--x-----x-----x--x--x--x--x-----x-----x--x--x--x-|
F#|-14----14----14-14-14-14-14----14----14-14-14-14-|
 B|-------------------------------------------------|

c#|-------------------------------------------------|
G#|-------------------------------------------------|
 E|-12-12-12-14-14-14-16-16-16-11-11-11-11/12-12-12-|
 B|--x--x--x--x--x--x--x--x--x--x--x--x--x--x--x--x-|
F#|-10-10-10-12-12-12-14-14-14--9--9--9--9/10-10-10-|
 B|-------------------------------------------------|

c#|-------------------------------------------------|
G#|-------------------------------------------------|
 E|-16----16----16-16-16-16-16----16----16-16-16-16-|
 B|--x-----x-----x--x--x--x--x-----x-----x--x--x--x-|
F#|-14----14----14-14-14-14-14----14----14-14-14-14-|
 B|-------------------------------------------------|

c#|-------------------------------------------------|
G#|-------------------------------------------------|
 E|-19-19-19-17-17-17-16-16-16-11-11-11-11/12-12-12-|
 B|--x--x--x--x--x--x--x--x--x--x--x--x--x--x--x--x-|
F#|-17-17-17-15-15-15-14-14-14--9--9--9--9/10-10-10-|
 B|-------------------------------------------------|

c#|-------------------------------------------------|
G#|-------------------------------------------------|
 E|-16----16----16-16-16-16-16----16----16-16-16-16-|
 B|--x-----x-----x--x--x--x--x-----x-----x--x--x--x-|
F#|-14----14----14-14-14-14-14----14----14-14-14-14-|
 B|-------------------------------------------------|

c#|-------------------------------------------------|
G#|-------------------------------------------------|
 E|-12-12-12-14-14-14-16-16-16-11-11-11-11/12-12-12-|
 B|--x--x--x--x--x--x--x--x--x--x--x--x--x--x--x--x-|
F#|-10-10-10-12-12-12-14-14-14--9--9--9--9/10-10-10-|
 B|-------------------------------------------------|

c#|-------------------------------------------------|
G#|-------------------------------------------------|
 E|-16----16----16-16-16-16-16----16----16-16-16-16-|
 B|--x-----x-----x--x--x--x--x-----x-----x--x--x--x-|
F#|-14----14----14-14-14-14-14----14----14-14-14-14-|
 B|-------------------------------------------------|

c#|-------------------------------------------------|
G#|-------------------------------------------------|
 E|-19-19-19-17-17-17-16-16-16-11-11-11-11/12-12-12-|
 B|--x--x--x--x--x--x--x--x--x--x--x--x--x--x--x--x-|
F#|-17-17-17-15-15-15-14-14-14--9--9--9--9/10-10-10-|
 B|-------------------------------------------------|

Bridge

   GTR I
c#|-------------------------------------------------|
G#|-------------------------------------------------|
 E|-12----------------------------------------------|
 B|--x----------------------------------------------|
F#|-10----------------------------------------------|
 B|-------------------------------------------------|

   GTR I
c#|-------------------------------------------------|
G#|-------------------------------------------------|
 E|-11----------------------(5)---------------------|
 B|--x-------------------------------(4)------(5)---|
F#|--9----------------------------------------------|
 B|-------------------------------------------------|

   GTR I
c#|-------------------------------------------------|
G#|-------------------------------------------------|
 E|----12----12-12-------------12----12-12----------|
 B|-----x-----x--x--------------x-----x--x----------|
F#|----10----10-10-------------10----10-10----------|
 B|-------------------------------------------------|

c#|-------------------------------------------------|
G#|-------------------------------------------------|
 E|----11----11-11-------------11----11-11-16-16-16-|
 B|-----x-----x--x--------------x-----x--x--x--x--x-|
F#|-----9-----9--9--------------9-----9--9-14-14-14-|
 B|-------------------------------------------------|

Chorus 2

c#|-------------------------------------------------|
G#|-------------------------------------------------|
 E|-------------------------------------------------|
 B|-10-10-10-10-10-10-10-10--5--5--5--5--5--5--5--5-|
F#|-10-10-10-10-10-10-10-10--5--5--5--5--5--5--5--5-|
 B|-10-10-10-10-10-10-10-10--5--5--5--5--5--5--5--5-|

c#|-------------------------------------------------|
G#|-------------------------------------------------|
 E|-------------------------------------------------|
 B|--0--0--0--0--0--0--0--0--0--0--0--0--0--0--0--0-|
F#|--0--0--0--0--0--0--0--0--0--0--0--0--0--0--0--0-|
 B|--0--0--0--0--0--0--0--0--0--0--0--0--0--0--0--0-|

c#|-------------------------------------------------|
G#|-------------------------------------------------|
 E|-------------------------------------------------|
 B|-10-10-10-10-10-10-10-10--5--5--5--5--5--5--5--5-|
F#|-10-10-10-10-10-10-10-10--5--5--5--5--5--5--5--5-|
 B|-10-10-10-10-10-10-10-10--5--5--5--5--5--5--5--5-|

c#|-------------------------------------------------|
G#|-------------------------------------------------|
 E|-------------------------------------------------|
 B|--0--0--0--0--0--0--0--0--0--0--0--0--0--0--0--0-|
F#|--0--0--0--0--0--0--0--0--0--0--0--0--0--0--0--0-|
 B|--0--0--0--0--0--0--0--0--0--0--0--0--0--0--0--0-|
  |
c#|-------------------------------------------------|
G#|-------------------------------------------------|
 E|-------------------------(5)---------------------|
 B|----------------------------------(4)------(5)---|
F#|-------------------------------------------------|
 B|-------------------------------------------------|

c#|-------------------------------------------------|
G#|-------------------------------------------------|
 E|-------------------------------------------------|
 B|-10-10-10-10-10-10-10-10--5--5--5--5--5--5--5--5-|
F#|-10-10-10-10-10-10-10-10--5--5--5--5--5--5--5--5-|
 B|-10-10-10-10-10-10-10-10--5--5--5--5--5--5--5--5-|

c#|-------------------------------------------------|
G#|-------------------------------------------------|
 E|-------------------------------------------------|
 B|--0--0--0--0--0--0--0--0--0--0--0--0--0--0--0--0-|
F#|--0--0--0--0--0--0--0--0--0--0--0--0--0--0--0--0-|
 B|--0--0--0--0--0--0--0--0--0--0--0--0--0--0--0--0-|

c#|-------------------------------------------------|
G#|-------------------------------------------------|
 E|-------------------------------------------------|
 B|-10-10-10-10-10-10-10-10--5--5--5--5--5--5--5--5-|
F#|-10-10-10-10-10-10-10-10--5--5--5--5--5--5--5--5-|
 B|-10-10-10-10-10-10-10-10--5--5--5--5--5--5--5--5-|

c#|-------------------------------------------------|
G#|-------------------------------------------------|
 E|-------------------------------------------------|
 B|--0--0--0--0--0--0--0--0--0--0--0--0--0--0--0--0-|
F#|--0--0--0--0--0--0--0--0--0--0--0--0--0--0--0--0-|
 B|--0--0--0--0--0--0--0--0--0--0--0--0--0--0--0--0-|
  
c#|-------------------------------------------------|
G#|-------------------------------------------------|
 E|-------------------------(5)---------------------|
 B|----------------------------------(4)------(5)---|
F#|-------------------------------------------------|
 B|-------------------------------------------------|

Outro

c#|-------------------------------------------------|
G#|-------------------------------------------------|
 E|----12----12-12-------------12----12-12----------|
 B|-----x-----x--x--------------x-----x--x----------|
F#|----10----10-10-------------10----10-10----------|
 B|-------------------------------------------------|

c#|-------------------------------------------------|
G#|-------------------------------------------------|
 E|----11----11-11-------------11----11-11-16-16-16-|
 B|-----x-----x--x--------------x-----x--x--x--x--x-|
F#|-----9-----9--9--------------9-----9--9-14-14-14-|
 B|-------------------------------------------------|

c#|-------------------------------------------------|
G#|-------------------------------------------------|
 E|----12----12-12-------------12----12-12----------|
 B|-----x-----x--x--------------x-----x--x----------|
F#|----10----10-10-------------10----10-10----------|
 B|-------------------------------------------------|

c#|-------------------------------------------------|
G#|-------------------------------------------------|
 E|----11----11-11----------(5)---------------------|
 B|-----x-----x--x-------------------(4)------(5)---|
F#|-----9-----9--9----------------------------------|
 B|-------------------------------------------------|
comments
We did not receive enough feedback on this tab! Please rate:
print report bad tab
1 2 3 4 5
I want to post or [tab]
guest
You may want to rate the tab now too:
select rating
Please do not post tabs as comments. Select "correction" instead!