Oops, an error
Loading. Please wait.

Colder Than My Heart If You Can Imagine Tab

ver3
ver3

Intro

Whole song

Interactive

More versions @911Tabs.com
3,438 views 21 this week
no commentswrite comment
1 2 3 4 5
accurate
x 5
add to favorites launch autoscroll
font size
0
reset
Autoscroll
+/-
esc
set tempo
stop
Contributor
Difficulty
Tuning
intermediate
C G C F A D
WARNING: You are trying to view
                                    content from Ultimate-Guitar.com
                                    in an unauthorized application,
                                    which is prohibited.

                                    Please use an official Ultimate
                                    Guitar Tabs application for iPhone,
                                    iPad or Android to access legitimate
                                    chords, guitar, bass, and drum tabs
                                    from Ultimate-Guitar.com database.

                                    Type "ultimate guitar tabs" in Apple
                                    App Store's or Android Market's
                                    search to find the application.
Tabbed by: Joshua Garcia (joshuag523@aol.com)

Tabs for the song: Colder Than My Heart If You Can Imagine by A Day To Remember
Please rate and let me know if you have any corrections. Thank you.


Tuning: Drop C (C G C F A D)


Intro
Acoustic:
D||------------|------------|-------------|------------|
A||------------|------------|-------------|------------|
F||------------|------------|-------------|------------| x2
C||-----3~-----|-----7~-----|-----10~-----|-----7~-----|
G||-----5~-----|-----8~-----|-----x-------|-----x------|
C||------------|------------|-----8~------|-----3~-----|



Pre-Verse
Guitar 1:
D||---------|
A||---------|
F||---------|
C||--5-3-2--|
G||--5-3-2--|
C||--5-3-2--|
     . . .

D||---------------------------------------------------------------|
A||---------------------------------------------------------------|
F||--------------------------------------------10--101010101010---|
C||--0--777777--0--10-10-10-10-10---8--888888--x---x-x-x-x-x-x----|
G||--0--555555--0--8--8--7--7-h8----8--888888--8---8-8-8-8-8-8----|
C||--0----------0-------------------8--888888---------------------|


D||---------------------------------------------------------------|
A||---------------------------------------------------------------|
F||---------------------------------------------------------------| x2
C||--0--777777--0--10-10-10-10-10---8--888888--10--101010101010---|
G||--0--555555--0--8--8--7--7-h8----8--888888--10--101010101010---|
C||--0----------0-------------------8--888888--10--101010101010---|


Guitar 2:
D||----------------------------------------------------------------------|
A||----------------------------------------------------------------------|
F||--------2-------2-------5-2h5p2-----------2-------5~------2h3p2-------|
C||--0-0-3---0-0-3---0-0-3-----------0---0-3---0-0-3------0--------2-0---|
G||----------------------------------------------------------------------|
C||----------------------------------------------------------------------|
     . . .   . . .   . . .           .   . .   . . .      .


D||---------------------------------------------------------------------|
A||---------------------------------------------------------------------|
F||--------2-------2-------5-2h5p2-------------2h3p2--------------------| x2
C||--0-0-3---0-0-3---0-0-3-----------0---0-3-0--------0---0-2-0-2h4p2---|
G||---------------------------------------------------------------------|
C||---------------------------------------------------------------------|
     . . .   . . .   . . .               .   .            .   .


Verse
Guitar 1:
D||---------------------------------------------------------------------|
A||---------------------------------------------------------------------|
F||-----------10~---------------------------10--------------------------| x4
C||-----------x-----------------------------x-------5---5---------------|
G||-----------8~------0-0-0-000-0-----------8-------5---5---------------|
C||--0--0--00---------0-0-0-000-0--8--8--88------0--5---5--5-5-5-5-5-5--|
           ..         . . . ... .        ..      .         . . . . . .


Guitar 2:
D||------------------------------------------------------------------------|
A||------------------------------------------------------------------------|
F||-----------10~---------------------------10-----------------------------| x4
C||-----------x-----------------------------x-------5----------------------|
G||-----------12~-----0-0-0-000-0-----------12------5---12\10/12\10/12\10--|
C||--0--0--00---------0-0-0-000-0--8--8--88------0--5----------------------|
           ..         . . . ... .        ..      .


Pre-Chorus
Guitar 1:
D||----------|----------------|
A||----------|----------------|
F||----------|----------------|
C||----8~----|----5~-------5--|
G||----8~----|----5~-------5--|
C||----8~----|----5~-------5--|


Guitar 2:
D||-------------|--------------|
A||-------------|--------------|
F||--12-/-14~---|---14~--------|
C||--x----x-----|---x------x---|
G||--10-/-12~---|---12~----x---|
C||-------------|----------x---|



Chorus
Guitar 1/2:
D||---------------------------------------------------------------------------------------|
A||---------------------------------------------------------------------------------------|
F||---------------------------------------------------------------------------------------| x2
C||--0--00--000--000--000-3--33--333--333--333-5--55--555--555--555-8--88--888--888--888--|
G||--0--00--000--000--000-3--33--333--333--333-5--55--555--555--555-8--88--888--888--888--|
C||--0--00--000--000--000-3--33--333--333--333-5--55--555--555--555-8--88--888--888--888--|


D||-------|
A||-------|
F||-------|
C||---0---|
G||---0---|
C||---0---|
      .


Pre-Verse
Guitar 1:
D||---------|
A||---------|
F||---------|
C||--5-3-2--|
G||--5-3-2--|
C||--5-3-2--|
     . . .

D||---------------------------------------------------------------|
A||---------------------------------------------------------------|
F||--------------------------------------------10--101010101010---|
C||--0--777777--0--10-10-10-10-10---8--888888--x---x-x-x-x-x-x----|
G||--0--555555--0--8--8--7--7-h8----8--888888--8---8-8-8-8-8-8----|
C||--0----------0-------------------8--888888---------------------|


D||---------------------------------------------------------------|
A||---------------------------------------------------------------|
F||---------------------------------------------------------------|
C||--0--777777--0--10-10-10-10-10---8--888888--10--101010101010---|
G||--0--555555--0--8--8--7--7-h8----8--888888--10--101010101010---|
C||--0----------0-------------------8--888888--10--101010101010---|


Guitar 2:
D||----------------------------------------------------------------------|
A||----------------------------------------------------------------------|
F||--------2-------2-------5-2h5p2-----------2-------5~------2h3p2-------|
C||--0-0-3---0-0-3---0-0-3-----------0---0-3---0-0-3------0--------2-0---|
G||----------------------------------------------------------------------|
C||----------------------------------------------------------------------|
     . . .   . . .   . . .           .   . .   . . .      .


D||---------------------------------------------------------------------|
A||---------------------------------------------------------------------|
F||--------2-------2-------5-2h5p2-------------2h3p2--------------------|
C||--0-0-3---0-0-3---0-0-3-----------0---0-3-0--------0---0-2-0-2h4p2---|
G||---------------------------------------------------------------------|
C||---------------------------------------------------------------------|
     . . .   . . .   . . .               .   .            .   .


Verse
Guitar 1:
D||---------------------------------------------------------------------|
A||---------------------------------------------------------------------|
F||-----------10~---------------------------10--------------------------| x4
C||-----------x-----------------------------x-------5---5---------------|
G||-----------8~------0-0-0-000-0-----------8-------5---5---------------|
C||--0--0--00---------0-0-0-000-0--8--8--88------0--5---5--5-5-5-5-5-5--|
           ..         . . . ... .        ..      .         . . . . . .


Guitar 2:
D||------------------------------------------------------------------------|
A||------------------------------------------------------------------------|
F||-----------10~---------------------------10-----------------------------| x4
C||-----------x-----------------------------x-------5----------------------|
G||-----------12~-----0-0-0-000-0-----------12------5---12\10/12\10/12\10--|
C||--0--0--00---------0-0-0-000-0--8--8--88------0--5----------------------|
           ..         . . . ... .        ..      .


Pre-Chorus
Guitar 1:
D||----------|--------------------|
A||----------|--------------------|
F||----------|--------------------|
C||----8~----|----5~-------x-x-x--|
G||----8~----|----5~-------x-x-x--|
C||----8~----|----5~-------x-x-x--|


Guitar 2:
D||-------------|-----------------|
A||-------------|-----------------|
F||--12-/-14~---|---14~-----------|
C||--x----x-----|---x------x-x-x--|
G||--10-/-12~---|---12~----x-x-x--|
C||-------------|----------x-x-x--|



Chorus
Guitar 1/2:
D||---------------------------------------------------------------------------------------|
A||---------------------------------------------------------------------------------------|
F||---------------------------------------------------------------------------------------| x2
C||--0--00--000--000--000-3--33--333--333--333-5--55--555--555--555-8--88--888--888--888--|
G||--0--00--000--000--000-3--33--333--333--333-5--55--555--555--555-8--88--888--888--888--|
C||--0--00--000--000--000-3--33--333--333--333-5--55--555--555--555-8--88--888--888--888--|


D||-------|
A||-------|
F||-------|
C||---0---|
G||---0---|
C||---0---|
      .


Breakdown
Guitar 1/2:
D||---------------|
A||---------------|
F||---------------| x4
C||---0-0-0-0-0---|
G||---0-0-0-0-0---|
C||---0-0-0-0-0---|
      . . . . .


Bridge
Guitar 1:
D||-------------------------------------------------------------------|
A||-------------------------------------------------------------------|
F||-------------------------------------------------------------------|
C||--0-0-0-0-0-0-0-0-0-0-0-0-0-0-0-0-8-8-8-8-8-8-8-885-5-5-5-5-5-5-5--|
G||--0-0-0-0-0-0-0-0-0-0-0-0-0-0-0-0-8-8-8-8-8-8-8-885-5-5-5-5-5-5-5--|
C||--0-0-0-0-0-0-0-0-0-0-0-0-0-0-0-0-8-8-8-8-8-8-8-885-5-5-5-5-5-5-5--|
     . . . . . . . . . . . . . . . . . . . . . . . ... . . . .   .

D||-----------------------------------------------------------------|
A||-----------------------------------------------------------------|
F||-----------------------------------------------------------------|
C||--0-0-0-0-0-0-0-0-0-0-0-0-0-0-0-0-8-8-8-8-8-8-8-885-5-5-5-5-55---|
G||--0-0-0-0-0-0-0-0-0-0-0-0-0-0-0-0-8-8-8-8-8-8-8-885-5-5-5-5-55---|
C||--0-0-0-0-0-0-0-0-0-0-0-0-0-0-0-0-8-8-8-8-8-8-8-885-5-5-5-5-55---|
     . . . . . . . . . . . . . . . . . . . . . . . ... . . . .


Guitar 2:
D||---------------------------------------------------------|
A||---------------------------------------------------------|
F||--10-10-10-10-10-10-10-10-10-9-14-14-14-14-12-12-12-12---|
C||--x--x--x--x--x--x--x--x--x--x-x--x--x--x--x--x--x--x----|
G||--8--8--8--8--8--8--8--8--8--7-12-12-12-12-10-10-10-10---|
C||---------------------------------------------------------|


D||--------------------------------------------|
A||--------------------------------------------|
F||--10-10-10-10-10-10-10-10-5-5-5-5-5-5-5-5---|
C||--x--x--x--x--x--x--x--x--x-x-x-x-x-x-x-x---|
G||--8--8--8--8--8--8--8--8--3-3-3-3-3-3-3-3---|
C||--------------------------------------------|


D||---------------------------------------------------------|
A||---------------------------------------------------------|
F||--10-10-10-10-10-10-10-10-10-9-14-14-14-14-12-12-12-12---|
C||--x--x--x--x--x--x--x--x--x--x-x--x--x--x--x--x--x--x----|
G||--8--8--8--8--8--8--8--8--8--7-12-12-12-12-10-10-10-10---|
C||---------------------------------------------------------|


D||----------------------------------------------------|
A||----------------------------------------------------|
F||--10-10-10-10-10-10-10-10-12-12-12-12-12-12-12-12---|
C||--x--x--x--x--x--x--x--x--x--x--x--x--x--x--x--x----|
G||--8--8--8--8--8--8--8--8--10-10-10-10-10-10-10-10---|
C||----------------------------------------------------|


Guitar 1:
D||-------------------------------------------------------------------|
A||-------------------------------------------------------------------|
F||-------------------------------------------------------------------| x2
C||--0-0-0-0-0-0-0-0-0-0-0-0-0-0-0-0-8-8-8-8-8-8-8-8-5-5-5-5-5-5-5-5--|
G||--0-0-0-0-0-0-0-0-0-0-0-0-0-0-0-0-8-8-8-8-8-8-8-8-5-5-5-5-5-5-5-5--|
C||--0-0-0-0-0-0-0-0-0-0-0-0-0-0-0-0-8-8-8-8-8-8-8-8-5-5-5-5-5-5-5-5--|
     . .   . .   .   . .   . .   .   . .   . .   .   . .   . .   .

Guitar 2:
D||------------8-----------8----------|
A||--5-6-8-5-6---5-6-8-5-6---5-6-8-5--|
F||-----------------------------------| x4
C||-----------------------------------|
G||-----------------------------------|
C||-----------------------------------|



Interlude
Acoustic:
D||--------|
A||--------|
F||--------|
C||---3~---|
G||---5~---|
C||--------|



Chorus
Guitar 1/2:
D||----------------------------------------------------|
A||----------------------------------------------------|
F||----------------------------------------------------|
C||--333333333333333355555555555555558888888888888888--|
G||--333333333333333355555555555555558888888888888888--|
C||--333333333333333355555555555555558888888888888888--|


D||--------------------------------------------------------------------|
A||--------------------------------------------------------------------|
F||--------------------------------------------------------------------|
C||--0000000000000000333333333333333355555555555555558888888888888888--|
G||--0000000000000000333333333333333355555555555555558888888888888888--|
C||--0000000000000000333333333333333355555555555555558888888888888888--|


D||--------|
A||--------|
F||--------|
C||---0~---|
G||---0~---|
C||---0~---|




Tablature Legend
----------------
 h   hammer-on
 p   pull-off
 b   bend
 pb  pre-bend
 r   release bend
 ~   hold / vibrato
 .   palm mute
 /   slide up
 \   slide down
 *   pinch harmonic
 '   natural harmonic
 x   mute note
 T   tap
comments
print report bad tab
I want to post or [tab]
guest
You may want to rate the tab now too:
select rating
Please do not post tabs as comments. Select "correction" instead!