Oops, an error
Loading. Please wait.

Danger In Starting A Fire Tab

ver2
ver2

Whole song

Interactive

More versions @911Tabs.com
70,447 views 27 this week
7 commentsread comments
1 2 3 4 5
excellent!
x 12
Autoscroll
+/-
esc
set tempo
stop
Contributor
Difficulty
Tuning
novice
C G C F A D
Hey! There's an official Ultimate Guitar app which is ideal
for learning songs when you're away from computer. Get the app
WARNING: You are trying to view
                                    content from Ultimate-Guitar.com
                                    in an unauthorized application,
                                    which is prohibited.

                                    Please use an official Ultimate
                                    Guitar Tabs application for iPhone,
                                    iPad or Android to access legitimate
                                    chords, guitar, bass, and drum tabs
                                    from Ultimate-Guitar.com database.

                                    Type "ultimate guitar tabs" in Apple
                                    App Store's or Android Market's
                                    search to find the application.
#----------------------------------PLEASE NOTE---------------------------------#
#This file is the author's own work and represents their interpretation of the #
#song. You may only use this file for private study, scholarship, or research. #
#------------------------------------------------------------------------------#

THE DANGER IN STARTING A FIRE
As recorded by A Day To Remember
(From the 2007 Album FOR THOSE WHO HAVE HEART)

Transcribed by Jonathanonfire
        

Words and Music by A Day To Remember
Arranged by A Day To Remember

Gtr I (C G C F A D) - 'Gtr I (Left Channel)'
Gtr II (C G C F A D) - 'Gtr II (Right Channel)'

 Intro
  Pop-Mosh Q=185
  N.C.                                                                 G5
 4/4
  Gtr I
  PM|   PM     PM|     PM            PM|   PM     PM|     PM
  E E E E E  E E E   E E E  E H      E E E E E  E E E   E E E  E E E E  E
|------------------|---------------|------------------|-------------------||
|-----8---8-10-----|-8---8-10------|-----8---8-10-----|-8---8-10----------||
|---7------------7-|---------------|---7------------7-|----------------10-||
|-0-----0------0---|---0-----------|-0-----0------0---|---0------x-x-x--x-||
|------------------|---------------|------------------|----------x-x-x--8-||
|------------------|---------------|------------------|----------x-x-x----||
|
| Gtr II
| W                  W               W                  H        E E E  E
|------------------|---------------|------------------|-------------------||
|------------------|---------------|------------------|-------------------||
|------------------|---------------|------------------|-------------------||
|------------------|---------------|------------------|----------x-x-x--5-||
|------------------|---------------|------------------|----------x-x-x--5-||
|------------------|---------------|------------------|----------x-x-x--5-||


 "So now you'll know.."
  G5                                                     Bb5
   +E   E  Q   E  E  E  E    E    a   E  E  E   a  E E E  E
|-------------------------|---------------------------------|
|-------------------------|---------------------------------|
|-(10)-10-10--10-10-10-10-|-10--(10)s12-12-12-(12)s9-9-9-10-|
|--(x)--x--x---x--x--x--x-|--x---(x)--x--x--x--(x)-x-x-x--x-|
|--(8)--8--8---8--8--8--8-|--8---(8)s10-10-10-(10)s7-7-7--8-|
|-------------------------|---------------------------------|
|
|  +E   E  Q   E  E  E  E   +E        E  Q         E E E  E
|-------------------------|---------------------------------|
|-------------------------|---------------------------------|
|-------------------------|---------------------------------|
|--(5)--5--5---5--5--5--5-|-(5)-------5--5---------5-5-5--8-|
|--(5)--5--5---5--5--5--5-|-(5)-------5--5---------5-5-5--8-|
|--(5)--5--5---5--5--5--5-|-(5)-------5--5---------5-5-5--8-|


                                                         D5
   +E   E  Q   E  E  E  E    E    a   E  E  E   a  E E E E
|-------------------------|--------------------------------|
|-------------------------|--------------------------------|
|-(10)-10-10--10-10-10-10-|-10--(10)s12-12-12-(12)s9-9-9-9-|
|--(x)--x--x---x--x--x--x-|--x---(x)--x--x--x--(x)-x-x-x-x-|
|--(8)--8--8---8--8--8--8-|--8---(8)s10-10-10-(10)s7-7-7-7-|
|-------------------------|--------------------------------|
|
|  +E   E  Q   E  E  E  E   +E        E  Q         E E E E
|-------------------------|--------------------------------|
|-------------------------|--------------------------------|
|-------------------------|--------------------------------|
|--(8)--8--8---8--8--8--8-|-(8)-------8--8---------8-8-8-0-|
|--(8)--8--8---8--8--8--8-|-(8)-------8--8---------8-8-8-0-|
|--(8)--8--8---8--8--8--8-|-(8)-------8--8---------8-8-8-0-|


                                                    F5
  +E   a   E  Q   E  E  E  E    +E   E  Q   E  E  E  E
|----------------------------|-------------------------|
|----------------------------|-------------------------|
|-(9)-(9)s10-10--10-10-10-10-|-(10)-10-10--10-10-10-10-|
|-(x)-(x)--x--x---x--x--x--x-|--(x)--x--x---x--x--x--x-|
|-(7)-(7)s=8--8---8--8--8--8-|--(8)--8--8---8--8--8--8-|
|----------------------------|-------------------------|
|
| +E       E  Q   E  E  E  E    +E   E  Q   E  E  E  E
|----------------------------|-------------------------|
|----------------------------|-------------------------|
|----------------------------|-------------------------|
|-(0)------0--0---0--0--0--0-|--(0)--0--0---0--0--0--3-|
|-(0)------0--0---0--0--0--0-|--(0)--0--0---0--0--0--3-|
|-(0)------0--0---0--0--0--0-|--(0)--0--0---0--0--0--3-|


   +E   E  Q   E  E  E E    E  E E  E E E  E  E
|------------------------|----------------------|
|---------13--13-13-13---|----------------------|
|-(10)-10-10--10-10-10---|------------7-9-10-12-|
|--(x)--x--x---x--x--x---|-----7-8-10-----------|
|--(8)--8--8---8--8--8-8-|-10-------------------|
|------------------------|----------------------|
|
|  +E   E  Q   E  E  E E   +E  E Q    E E  E  E
|------------------------|----------------------|
|------------------------|----------------------|
|------------------------|----------------------|
|--(3)--3--3---3--3--3-3-|-(3)-3-3----3-3--3--3-|
|--(3)--3--3---3--3--3-3-|-(3)-3-3----3-3--3--3-|
|--(3)--3--3---3--3--3-3-|-(3)-3-3----3-3--3--3-|


  G5
   E  E  E  E  E  E  E  E    E  E  E  E  E  E  E  E
|-------------------------|-------------------------|
|-13-13-13-13-------------|-11-11-11-11-10-10-10-10-|
|--x--x--x--x-10-10-10-10-|--x--x--x--x--x--x--x--x-|
|-10-10-10-10--x--x--x--x-|--8--8--8--8--7--7--7--7-|
|--------------8--8--8--8-|-------------------------|
|-------------------------|-------------------------|
|
|  E  E  E  E  E  E  E  E    E  E  E  E  E  E  E  E
|-------------------------|-------------------------|
|-------------------------|-------------------------|
|-------------------------|-------------------------|
|--5--5--5--5--5--5--5--5-|--5--5--5--5--5--5--5--5-|
|--5--5--5--5--5--5--5--5-|--5--5--5--5--5--5--5--5-|
|--5--5--5--5--5--5--5--5-|--5--5--5--5--5--5--5--5-|


  Bb5                                            D5
   E  E  E  E  E  E  E  E    E  E  E  E  E  E  E  E
|-------------------------|-------------------------|
|-13-13-13-13-------------|-11-11-11-11-10-10-10-13-|
|--x--x--x--x-10-10-10-10-|--x--x--x--x--x--x--x--x-|
|-10-10-10-10--x--x--x--x-|--8--8--8--8--7--7--7-10-|
|--------------8--8--8--8-|-------------------------|
|-------------------------|-------------------------|
|
|  E  E  E  E  E  E  E  E    E  E  E  E  E  E  E  E
|-------------------------|-------------------------|
|-------------------------|-------------------------|
|-------------------------|-------------------------|
|--8--8--8--8--8--8--8--8-|--8--8--8--8--8--8--8--0-|
|--8--8--8--8--8--8--8--8-|--8--8--8--8--8--8--8--0-|
|--8--8--8--8--8--8--8--8-|--8--8--8--8--8--8--8--0-|


                                                    F5
   +E   E  E  E  E  E  E  E    E   E  E  E  E  E  E  E
|---------------------------|--------------------------|
|-(13)-13-13-13-------------|-11--11-11-11-10-10-10-13-|
|--(x)--x--x--x-10-10-10-10-|--x---x--x--x--x--x--x--x-|
|-(10)-10-10-10--x--x--x--x-|--8---8--8--8--7--7--7-10-|
|----------------8--8--8--8-|--------------------------|
|---------------------------|--------------------------|
|
|  +E   E  Q     E  E  E  E   +E   E  Q     E  E  E  E
|---------------------------|--------------------------|
|---------------------------|--------------------------|
|---------------------------|--------------------------|
|--(0)--0--0-----0--0--0--0-|-(0)--0--0-----0--0--0--3-|
|--(0)--0--0-----0--0--0--0-|-(0)--0--0-----0--0--0--3-|
|--(0)--0--0-----0--0--0--0-|-(0)--0--0-----0--0--0--3-|


   +E   E  E  E  E  E  E  E    E   E  E  E  E  E  E  E
|---------------------------|--------------------------||
|-(13)-13-13-13-------------|-11--11-11-11-10-10-10-10-||
|--(x)--x--x--x-10-10-10-10-|--x---x--x--x--x--x--x--x-||
|-(10)-10-10-10--x--x--x--x-|--8---8--8--8--7--7--7--7-||
|----------------8--8--8--8-|--------------------------||
|---------------------------|--------------------------||
|
|  +E   E  Q     E  E  E  E   +E   E  Q     E  E  E  E
|---------------------------|--------------------------||
|---------------------------|--------------------------||
|---------------------------|--------------------------||
|--(3)--3--3-----3--3--3--3-|-(3)--3--3-----3--3--3--3-||
|--(3)--3--3-----3--3--3--3-|-(3)--3--3-----3--3--3--3-||
|--(3)--3--3-----3--3--3--3-|-(3)--3--3-----3--3--3--3-||


   "Save your breath.."
    N.C.
    E E E E E E E E   E E E E E Q   E
||------------------|-----------------|
||o-----------------|-----------------|
||--7-7-7-7-7-7-7-7-|-7-7-7-7-7-5---7-|
||--x-x-x-x-x-x-x-x-|-x-x-x-x-x-x---x-|
||o-5-5-5-5-5-5-5-5-|-5-5-5-5-5-3---5-|
||------------------|-----------------|
|
|   E E E E E E E E   E E E E E Q   E
||------------------|-----------------|
||o-----------------|-----------------|
||--7-7-7-7-7-7-7-7-|-7-7-7-7-7-5--10-|
||--x-x-x-x-x-x-x-x-|-x-x-x-x-x-x---x-|
||o-5-5-5-5-5-5-5-5-|-5-5-5-5-5-3---8-|
||------------------|-----------------|


   +E   E  E  E  E  E  E  E    E  E  E  E  E  E  E  E
|---------------------------|--------------------------|
|---------------------------|--------------------------|
|--(7)--7--7--7--7--7--7--7-|--7--7--7--7--7--7--7--7--|
|--(x)--x--x--x--x--x--x--x-|--x--x--x--x--x--x--x--x--|
|--(5)--5--5--5--5--5--5--5-|--5--5--5--5--5--5--5--5--|
|---------------------------|--------------------------|
|
|  +E   E  E  E  E  E  E  E    E  E  E  E  E  E  E  E
|---------------------------|--------------------------|
|---------------------------|--------------------------|
|-(10)-10-10-10-10-10-10-10-|-10-10-10-10-10-10-10-10--|
|--(x)--x--x--x--x--x--x--x-|--x--x--x--x--x--x--x--x--|
|--(8)--8--8--8--8--8--8--8-|--8--8--8--8--8--8--8--8--|
|---------------------------|--------------------------|


  D5  N.D5N.C.  D5          N.D5N.C.
  Gtrs I, II
  PM|   PM      PM--------|   PM
  E E E E E  Q  E   +E  S S E E E  Q.
|-----------------|---------------------|
|-----------------|---------------------|
|-----------------|---------------------|
|-----------------|---------------------|
|-0-0-8-0-7-----0-|-(0)-0-0-8-0-7-------|
|-0-0---0---10--0-|-(0)-0-0---0---10----|


  D5  N.D5N.C.  D5          N.D5N.C.
  PM|   PM      PM--------|   PM
  E E E E E  Q  E   +E  S S E E E  Q.
|-----------------|-----------------------||
|-----------------|----------------------o||
|-----------------|-----------------------||
|-----------------|-----------------------||
|-0-0-8-0-7-----0-|-(0)-0-0-8-0-7--------o||
|-0-0---0---10--0-|-(0)-0-0---0---10------||


  D5  N.CD5N.C.   D5        N.CD5N.C.
  Gtr I
  PM|    PM       PM------|    PM
  E E  E E  E  Q  E   +E  E  E E  E  Q.
|-------------------|---------------------|
|-------------------|---------------------|
|-------------------|---------------------|
|-------------------|---------------------|
|-0-0--8-0--7-----0-|-(0)-0--8-0--7-------|
|-0-0----0----10--0-|-(0)-0----0----10----|
|
| Gtr II
| PM|    PM       PM------|    PM
| E E  E E  E  Q  E   +E  E  E E  E  Q.
|-------------------|---------------------|
|-------------------|---------------------|
|-------------------|---------------------|
|-------------------|---------------------|
|-0-0-12-0-10-----0-|-(0)-0-12-0-10-------|
|-0-0----0----14--0-|-(0)-0----0----14----|


  D5  N.CD5N.C.       D5     N.C.
  PM|    PM           PM
  E E  E E  E  Q.     E Q.     Q         +Q
|-------------------|-------------------------||
|-------------------|-------------------------||
|-------------------|-------------------------||
|-------------------|-------------------------||
|-0-0--8-0--7-------|-0------[10]b10.5--(10)--||
|-0-0----0----10----|-0-----------------------||
|
| PM|    PM           PM
| E E  E E  E  Q.     E Q.     Q         +Q
|-------------------|-------------------------||
|-------------------|-------------------------||
|-------------------|-------------------------||
|-------------------|-------------------------||
|-0-0-12-0-10-------|-0------[10]b10.5--(10)--||
|-0-0----0----14----|-0-----------------------||


   "I will never falter.."
    D5  N.CD5N.C.  D5          N.CD5N.C.
    PM|    PM      PM--------|    PM
    E E  E E  E  E E S S   E E  E E  E  Q.
||-----------------------|-------------------|
||o----------------------|-------------------|
||-----------------------|-------------------|
||-----------------------|-------------------|
||o-0-0--8-0--7----0-0-0-|-0-0--8-0--7-------|
||--0-0----0----10-0-0-0-|-0-0----0----10----|
|
|   PM|    PM      PM--------|    PM
|   E E  E E  E  E E S S   E E  E E  E  Q.
||-----------------------|-------------------|
||o----------------------|-------------------|
||-----------------------|-------------------|
||-----------------------|-------------------|
||o-0-0-12-0-10----0-0-0-|-0-0-12-0-10-------|
||--0-0----0----14-0-0-0-|-0-0----0----14----|


  D5  N.CD5N.C.  D5          N.CD5N.C.
  PM|    PM      PM--------|    PM
  E E  E E  E  E E S S   E E  E E  E  Q.
|----------------------|---------------------||
|----------------------|--------------------o||
|----------------------|---------------------||
|----------------------|---------------------||
|-0-0--8-0--7----0-0-0-|-0-0--8-0--7--------o||
|-0-0----0----10-0-0-0-|-0-0----0----10------||
|
| PM|    PM      PM--------|    PM
| E E  E E  E  E E S S   E E  E E  E  Q.
|----------------------|---------------------||
|----------------------|--------------------o||
|----------------------|---------------------||
|----------------------|---------------------||
|-0-0-12-0-10----0-0-0-|-0-0-12-0-10--------o||
|-0-0----0----14-0-0-0-|-0-0----0----14------||


 Breakdown
  D5
  Gtrs I, II
  PM-------------------|          PM--------------------------------|
  E E E Q  E E E   E E E H    E   E E E Q  E E E   E E E Q  S S E S S
|----------------|--------------|----------------|----------------------|
|----------------|--------------|----------------|----------------------|
|----------------|--------------|----------------|----------------------|
|----------------|--------------|----------------|----------------------|
|-0-0-0----0---0-|---0-0--------|-0-0-0----0---0-|---0-0----0-0-0-0-0---|
|-0-0-0----0---0-|---0-0--------|-0-0-0----0---0-|---0-0----0-0-0-0-0---|


  PM-------------------|          PM-------------------|
  E E E Q  E E E   E E E H    E   E E E Q  E E E   E E E H    E
|----------------|--------------|----------------|--------------|
|----------------|--------------|----------------|--------------|
|----------------|--------------|----------------|--------------|
|----------------|--------------|----------------|--------------|
|-0-0-0----0---0-|---0-0--------|-0-0-0----0---0-|---0-0--------|
|-0-0-0----0---0-|---0-0--------|-0-0-0----0---0-|---0-0--------|


  PM-------------------|
  E E E Q  E E E   E E E H    E
|----------------|--------------|
|----------------|--------------|
|----------------|--------------|
|----------------|--------------|
|-0-0-0----0---0-|---0-0--------|
|-0-0-0----0---0-|---0-0--------|


    PM----------------------------------------------------|
    E E Q.   Q  E   +E  E H.        E E Q.   Q  E   +E  E H.
||----------------|---------------|---------------|--------------||
||o---------------|---------------|---------------|-------------o||
||----------------|---------------|---------------|--------------||
||----------------|---------------|---------------|--------------||
||o-0-0-0----0--0-|-(0)-0-0-------|-0-0-0----0--0-|-(0)-0-0-----o||
||--0-0-0----0--0-|-(0)-0-0-------|-0-0-0----0--0-|-(0)-0-0------||


  PM-------------------|
  E E E Q  E E E   E E E H    E
|----------------|--------------||
|----------------|--------------||
|----------------|--------------||
|----------------|--------------||
|-0-0-0----0---0-|---0-0--------||
|-0-0-0----0---0-|---0-0--------||


 Bridge
  Bbsus2
  Gtr I
   PM|   PM     PM|        PM     PM|
   E E E E E  E E E     E  E E  E E E E  E
|-------------------|----------------------|
|------8---8-10-----|---8----8-10-----8-10-|
|----7------------7-|---------------7------|
|--0-----0------0---|------0------0--------|
|-------------------|----------------------|
|-------------------|----------------------|
|
| Gtr II
|  W                   +W
|-------------------|----------------------|
|-------------------|----------------------|
|-10----------------|-(10)-----------------|
|-10----------------|-(10)-----------------|
|--8----------------|--(8)-----------------|
|--8----------------|--(8)-----------------|


                                          G5
    PM-|   PM     PM|        PM
    E  E E E E  E E E     E  E E  E E E E  E
|---------------------|----------------------|
|--------8---8-10-----|---8----8-10----------|
|------7------------7-|-------------------10-|
|---0------0------0---|------0------x-x-x--x-|
|---------------------|-------------x-x-x--8-|
|---------------------|-------------x-x-x----|
|
|  +W                    +H         E E E  E
|---------------------|----------------------|
|---------------------|----------------------|
|-(10)----------------|-(10)-----------------|
|-(10)----------------|-(10)--------x-x-x--5-|
|--(8)----------------|--(8)--------x-x-x--5-|
|--(8)----------------|--(8)--------x-x-x--5-|


 "So now you'll know.."
  G5                                                     Bb5
   +E   E  Q   E  E  E  E    E    a   E  E  E   a  E E E  E
|-------------------------|---------------------------------|
|-------------------------|---------------------------------|
|-(10)-10-10--10-10-10-10-|-10--(10)s12-12-12-(12)s9-9-9-10-|
|--(x)--x--x---x--x--x--x-|--x---(x)--x--x--x--(x)-x-x-x--x-|
|--(8)--8--8---8--8--8--8-|--8---(8)s10-10-10-(10)s7-7-7--8-|
|-------------------------|---------------------------------|
|
|  +E   E  Q   E  E  E  E   +E        E  Q         E E E  E
|-------------------------|---------------------------------|
|-------------------------|---------------------------------|
|-------------------------|---------------------------------|
|--(5)--5--5---5--5--5--5-|-(5)-------5--5---------5-5-5--8-|
|--(5)--5--5---5--5--5--5-|-(5)-------5--5---------5-5-5--8-|
|--(5)--5--5---5--5--5--5-|-(5)-------5--5---------5-5-5--8-|


                                                         D5
   +E   E  Q   E  E  E  E    E    a   E  E  E   a  E E E E
|-------------------------|--------------------------------|
|-------------------------|--------------------------------|
|-(10)-10-10--10-10-10-10-|-10--(10)s12-12-12-(12)s9-9-9-9-|
|--(x)--x--x---x--x--x--x-|--x---(x)--x--x--x--(x)-x-x-x-x-|
|--(8)--8--8---8--8--8--8-|--8---(8)s10-10-10-(10)s7-7-7-7-|
|-------------------------|--------------------------------|
|
|  +E   E  Q   E  E  E  E   +E        E  Q         E E E E
|-------------------------|--------------------------------|
|-------------------------|--------------------------------|
|-------------------------|--------------------------------|
|--(8)--8--8---8--8--8--8-|-(8)-------8--8---------8-8-8-0-|
|--(8)--8--8---8--8--8--8-|-(8)-------8--8---------8-8-8-0-|
|--(8)--8--8---8--8--8--8-|-(8)-------8--8---------8-8-8-0-|


                                                    F5
  +E   a   E  Q   E  E  E  E    +E   E  Q   E  E  E  E
|----------------------------|-------------------------|
|----------------------------|-------------------------|
|-(9)-(9)s10-10--10-10-10-10-|-(10)-10-10--10-10-10-10-|
|-(x)-(x)--x--x---x--x--x--x-|--(x)--x--x---x--x--x--x-|
|-(7)-(7)s=8--8---8--8--8--8-|--(8)--8--8---8--8--8--8-|
|----------------------------|-------------------------|
|
| +E       E  Q   E  E  E  E    +E   E  Q   E  E  E  E
|----------------------------|-------------------------|
|----------------------------|-------------------------|
|----------------------------|-------------------------|
|-(0)------0--0---0--0--0--0-|--(0)--0--0---0--0--0--3-|
|-(0)------0--0---0--0--0--0-|--(0)--0--0---0--0--0--3-|
|-(0)------0--0---0--0--0--0-|--(0)--0--0---0--0--0--3-|


   +E   E  Q   E  E  E E    E  E E  E E E  E  E
|------------------------|----------------------|
|---------13--13-13-13---|----------------------|
|-(10)-10-10--10-10-10---|------------7-9-10-12-|
|--(x)--x--x---x--x--x---|-----7-8-10-----------|
|--(8)--8--8---8--8--8-8-|-10-------------------|
|------------------------|----------------------|
|
|  +E   E  Q   E  E  E E   +E  E Q    E E  E  E
|------------------------|----------------------|
|------------------------|----------------------|
|------------------------|----------------------|
|--(3)--3--3---3--3--3-3-|-(3)-3-3----3-3--3--3-|
|--(3)--3--3---3--3--3-3-|-(3)-3-3----3-3--3--3-|
|--(3)--3--3---3--3--3-3-|-(3)-3-3----3-3--3--3-|


  G5
   E  E  E  E  E  E  E  E    E  E  E  E  E  E  E  E
|-------------------------|-------------------------|
|-13-13-13-13-------------|-11-11-11-11-10-10-10-10-|
|--x--x--x--x-10-10-10-10-|--x--x--x--x--x--x--x--x-|
|-10-10-10-10--x--x--x--x-|--8--8--8--8--7--7--7--7-|
|--------------8--8--8--8-|-------------------------|
|-------------------------|-------------------------|
|
|  E  E  E  E  E  E  E  E    E  E  E  E  E  E  E  E
|-------------------------|-------------------------|
|-------------------------|-------------------------|
|-------------------------|-------------------------|
|--5--5--5--5--5--5--5--5-|--5--5--5--5--5--5--5--5-|
|--5--5--5--5--5--5--5--5-|--5--5--5--5--5--5--5--5-|
|--5--5--5--5--5--5--5--5-|--5--5--5--5--5--5--5--5-|


  Bb5                                            D5
   E  E  E  E  E  E  E  E    E  E  E  E  E  E  E  E
|-------------------------|-------------------------|
|-13-13-13-13-------------|-11-11-11-11-10-10-10-13-|
|--x--x--x--x-10-10-10-10-|--x--x--x--x--x--x--x--x-|
|-10-10-10-10--x--x--x--x-|--8--8--8--8--7--7--7-10-|
|--------------8--8--8--8-|-------------------------|
|-------------------------|-------------------------|
|
|  E  E  E  E  E  E  E  E    E  E  E  E  E  E  E  E
|-------------------------|-------------------------|
|-------------------------|-------------------------|
|-------------------------|-------------------------|
|--8--8--8--8--8--8--8--8-|--8--8--8--8--8--8--8--0-|
|--8--8--8--8--8--8--8--8-|--8--8--8--8--8--8--8--0-|
|--8--8--8--8--8--8--8--8-|--8--8--8--8--8--8--8--0-|


                                                    F5
   +E   E  E  E  E  E  E  E    E   E  E  E  E  E  E  E
|---------------------------|--------------------------|
|-(13)-13-13-13-------------|-11--11-11-11-10-10-10-13-|
|--(x)--x--x--x-10-10-10-10-|--x---x--x--x--x--x--x--x-|
|-(10)-10-10-10--x--x--x--x-|--8---8--8--8--7--7--7-10-|
|----------------8--8--8--8-|--------------------------|
|---------------------------|--------------------------|
|
|  +E   E  Q     E  E  E  E   +E   E  Q     E  E  E  E
|---------------------------|--------------------------|
|---------------------------|--------------------------|
|---------------------------|--------------------------|
|--(0)--0--0-----0--0--0--0-|-(0)--0--0-----0--0--0--3-|
|--(0)--0--0-----0--0--0--0-|-(0)--0--0-----0--0--0--3-|
|--(0)--0--0-----0--0--0--0-|-(0)--0--0-----0--0--0--3-|


   +E   E  E  E  E  E  E  E    E   E  E  E  E  E  E  E
|---------------------------|--------------------------||
|-(13)-13-13-13-------------|-11--11-11-11-10-10-10-10-||
|--(x)--x--x--x-10-10-10-10-|--x---x--x--x--x--x--x--x-||
|-(10)-10-10-10--x--x--x--x-|--8---8--8--8--7--7--7--7-||
|----------------8--8--8--8-|--------------------------||
|---------------------------|--------------------------||
|
|  +E   E  Q     E  E  E  E   +E   E  Q     E  E  E  E
|---------------------------|--------------------------||
|---------------------------|--------------------------||
|---------------------------|--------------------------||
|--(3)--3--3-----3--3--3--3-|-(3)--3--3-----3--3--3--3-||
|--(3)--3--3-----3--3--3--3-|-(3)--3--3-----3--3--3--3-||
|--(3)--3--3-----3--3--3--3-|-(3)--3--3-----3--3--3--3-||


   "Let's set things straight.."
    N.C.
    E E E E E E E E   E E E E E Q   E
||------------------|-----------------|
||o-----------------|-----------------|
||--7-7-7-7-7-7-7-7-|-7-7-7-7-7-5---7-|
||--x-x-x-x-x-x-x-x-|-x-x-x-x-x-x---x-|
||o-5-5-5-5-5-5-5-5-|-5-5-5-5-5-3---5-|
||------------------|-----------------|
|
|   E E E E E E E E   E E E E E Q   E
||------------------|-----------------|
||o-----------------|-----------------|
||--7-7-7-7-7-7-7-7-|-7-7-7-7-7-5--10-|
||--x-x-x-x-x-x-x-x-|-x-x-x-x-x-x---x-|
||o-5-5-5-5-5-5-5-5-|-5-5-5-5-5-3---8-|
||------------------|-----------------|


   +E   E  E  E  E  E  E  E    E  E  E  E  E  E  E  E
|---------------------------|--------------------------|
|---------------------------|--------------------------|
|--(7)--7--7--7--7--7--7--7-|--7--7--7--7--7--7--7--7--|
|--(x)--x--x--x--x--x--x--x-|--x--x--x--x--x--x--x--x--|
|--(5)--5--5--5--5--5--5--5-|--5--5--5--5--5--5--5--5--|
|---------------------------|--------------------------|
|
|  +E   E  E  E  E  E  E  E    E  E  E  E  E  E  E  E
|---------------------------|--------------------------|
|---------------------------|--------------------------|
|-(10)-10-10-10-10-10-10-10-|-10-10-10-10-10-10-10-10--|
|--(x)--x--x--x--x--x--x--x-|--x--x--x--x--x--x--x--x--|
|--(8)--8--8--8--8--8--8--8-|--8--8--8--8--8--8--8--8--|
|---------------------------|--------------------------|


  D5  N.D5N.C.  D5          N.D5N.C.
  Gtrs I, II
  PM|   PM      PM--------|   PM
  E E E E E  Q  E   +E  S S E E E  Q.
|-----------------|---------------------|
|-----------------|---------------------|
|-----------------|---------------------|
|-----------------|---------------------|
|-0-0-8-0-7-----0-|-(0)-0-0-8-0-7-------|
|-0-0---0---10--0-|-(0)-0-0---0---10----|


  D5  N.D5N.C.  D5          N.D5N.C.
  PM|   PM      PM--------|   PM
  E E E E E  Q  E   +E  S S E E E  Q.
|-----------------|-----------------------||
|-----------------|----------------------o||
|-----------------|-----------------------||
|-----------------|-----------------------||
|-0-0-8-0-7-----0-|-(0)-0-0-8-0-7--------o||
|-0-0---0---10--0-|-(0)-0-0---0---10------||


  D5
  PM-------------------|
  E E E Q  E E E   E E E H    E
|----------------|--------------||
|----------------|--------------||
|----------------|--------------||
|----------------|--------------||
|-0-0-0----0---0-|---0-0--------||
|-0-0-0----0---0-|---0-0--------||


   Breakdown
    D5
    PM----------------------------------------------------|
    E E Q.   Q  E   +E  E H.        E E Q.   Q  E   +E  E H.
||----------------|---------------|---------------|--------------||
||o---------------|---------------|---------------|-------------o||
||----------------|---------------|---------------|--------------||
||----------------|---------------|---------------|--------------||
||o-0-0-0----0--0-|-(0)-0-0-------|-0-0-0----0--0-|-(0)-0-0-----o||
||--0-0-0----0--0-|-(0)-0-0-------|-0-0-0----0--0-|-(0)-0-0------||


  PM-------------------|
  E E E Q  E E E   E E E H    E
|----------------|--------------||
|----------------|--------------||
|----------------|--------------||
|----------------|--------------||
|-0-0-0----0---0-|---0-0--------||
|-0-0-0----0---0-|---0-0--------||


 Bridge
  Slower Q=145
  Bbsus2
   W           +W            +W            +W
|-----------|-------------|-------------|---------||
|-----------|-------------|-------------|---------||
|-10--------|-(10)--------|-(10)--------|-(10)----||
|-10--------|-(10)--------|-(10)--------|-(10)----||
|--8--------|--(8)--------|--(8)--------|--(8)----||
|--8--------|--(8)--------|--(8)--------|--(8)----||


   Outro Breakdown
    D5    N.CD5
                     5/4
    PM--|    PM|           PM------------------
    E E E  E E E Q    Q.   E S S Q  S S S S E
||------------------|-------------------------|
||o-------14--------|-------------------------|
||--------17--------|-------------------------|
||------------------|-------------------------|
||o-0-0-0----0-0----|------0-0-0-0--0-0-0-0-0-|
||--0-0-0----0-0----|------0-0-0-0--0-0-0-0-0-|


        N.CD5
 4/4               5/4
 -----|    PM|           PM---------------|
  E E E  E E E Q    Q.   E S S Q  S S S S E
|-----------------|--------------------------||
|-------14--------|-------------------------o||
|-------17--------|--------------------------||
|-----------------|--------------------------||
|-0-0-0----0-0----|------0-0-0-0--0-0-0-0-0-o||
|-0-0-0----0-0----|------0-0-0-0--0-0-0-0-0--||


  D5    N.CD5
 4/4               5/4
  PM--|    PM|
  E E E  E E E Q    W        Q
|-----------------|-------------*|
|-------14--------|-------------*|
|-------17--------|-------------*|
|-----------------|-------------*|
|-0-0-0----0-0----|-------------*|
|-0-0-0----0-0----|-------------*|



Duration Legend
---------------
W - whole; H - half; Q - quarter; E - 8th; S - 16th; T - 32nd; X - 64th; a - acciaccatura
+ - note tied to previous; . - note dotted; .. - note double dotted
Uncapitalized letters represent notes that are staccato (1/2 duration)
Irregular groupings are notated above the duration line
Duration letters will always appear directly above the note/fret number it represents the
duration for.  Duration letters with no fret number below them represent rests.  Multi-
bar rests are notated in the form Wxn, where n is the number of bars to rest for.  Low
melody durations appear below the staff

Tablature Legend
----------------
 h   - hammer-on
 p   - pull-off
 b   - bend
 pb  - pre-bend
 r   - bend release (if no number after the r, then release immediately)
 /\  - slide into or out of (from/to "nowhere")
 s   - legato slide
 S   - shift slide
 - natural harmonic
[n]  - artificial harmonic
n(n) - tapped harmonic
 ~   - vibrato
 tr  - trill
 T   - tap
 TP  - trem. picking
 PM  - palm muting
\n/  - tremolo bar dip; n = amount to dip
 \n  - tremolo bar down
 n/  - tremolo bar up
/n\  - tremolo bar inverted dip
 =   - hold bend; also acts as connecting device for hammers/pulls
 <> - volume swell (louder/softer)
 x   - on rhythm slash represents muted slash
 o   - on rhythm slash represents single note slash

Misc Legend
-----------
 |  - bar
||  - double bar
||o - repeat start
o|| - repeat end
*|  - double bar (ending)
 :  - bar (freetime)
 $  - Segno
 &  - Coda
Tempo markers -  = BPM(8/16=s8/s16), where s8 = swing 8ths, s16 = swing 16ths


** Generated using Power Tab Editor by Brad Larsen: The Official Power Tab Web Site
comments
print report bad tab
7 comments total. Showing first comments.
0 reply
mrgoldylocks wrote on June 7 2008, 02:47 pm

This tab is great except the 10 isn't a bend it's a pinch harmonic.

+2 reply
jonathanonfire wrote on June 9 2008, 01:04 am

if you look at the tab legend and then back to the 10, you'll realize that it's a bended pinch harmonic

0 reply
STD_To_Remember wrote on May 7 2009, 07:10 pm

but i think this:
|-------------------------|---------------------------------|
|-------------------------|---------------------------------|
|-(10)-10-10--10-10-10-10-|-10--(10)s12-12-12-(12)s9-9-9-10-|
|--(x)--x--x---x--x--x--x-|--x---(x)--x--x--x--(x)-x-x-x--x-|
|--(8)--8--8---8--8--8--8-|--8---(8)s10-10-10-(10)s7-7-7--8-|
|-------------------------|---------------------------------|

should be:
|---------------------------------------------|
|---------------------------------------------|
|-7-7-7777-7-77--553/101010-10101010----------|
|-x-x-xxxx-x-xx--xxx/x-x-x--x-x-x-x-----------|
|-5-5-5555-5-55--333/8-8-8--8-8-8-8-----------|
|---------------------------------------------|

*i'm not much of a fancy tabber.

I want to post or [tab]
guest
You may want to rate the tab now too:
select rating
Please do not post tabs as comments. Select "correction" instead!