Oops, an error
Loading. Please wait.

Holdin It Down For The Underground Tab

ver2
ver2

Intro

Whole song

Interactive

More versions @911Tabs.com
924 views 3 this week
4 commentsread comments
1 2 3 4 5
worth learning
x 2
Autoscroll
+/-
esc
set tempo
stop
Contributor
Difficulty
Tuning
novice
C G C F A D
Hey! There's an official Ultimate Guitar app which is ideal
for learning songs when you're away from computer. Get the app
WARNING: You are trying to view
                                    content from Ultimate-Guitar.com
                                    in an unauthorized application,
                                    which is prohibited.

                                    Please use an official Ultimate
                                    Guitar Tabs application for iPhone,
                                    iPad or Android to access legitimate
                                    chords, guitar, bass, and drum tabs
                                    from Ultimate-Guitar.com database.

                                    Type "ultimate guitar tabs" in Apple
                                    App Store's or Android Market's
                                    search to find the application.
Holdin' It Down For The Underground
A Day To Remember
Homesick (2009)

Holdin' It Down For The Underground:  written by Jeremy McKinnon, Neil
Westfall, Tom Denney, Joshua Woodward, and Alex Shellnut

*Thanks to Mitch for help with the breakdown*

GTR I - Drop C Tuning (d,A,F,C,G,C)
GTR II - Drop C Tuning (d,A,F,C,G,C)
GTR III - Drop C Tuning (d,A,F,C,G,C)


Intro

  GTR I
d|--------------5-----------------------5----------|
A|-------------------------------------------------|
F|--3-----3-----------------3-----3----------------|
C|-------------------------------------------------|
G|-------------------------------------------------|
C|-------------------------------------------------|
 |
 |GTR II
d|-------------------------------------------------|
A|-------------------------------------------------|
F|-------------------------------------------------|
C|-------------------------------------------------|
G|-------------------------------------------------|
C|-------------------------------------------------|

  GTR I
d|--------------5-----------------------5----------|
A|-------------------------------------------------|
F|-------------------------------------------------|
C|--5-----5-----------------5-----5----------------|
G|-------------------------------------------------|
C|-------------------------------------------------|
 |
 |GTR II
d|-------------------------------------------------|
A|-------------------------------------------------|
F|-------------------------------------------------|
C|-------------------------------------------------|
G|-------------------------------------------------|
C|-------------------------------------------------|

  GTR I
d|--------------5-----------------------5----------|
A|-------------------------------------------------|
F|-------------------------------------------------|
C|-------------------------------------------------|
G|--5-----5-----------------5-----5----------------|
C|-------------------------------------------------|
 |
 |GTR II
d|-------------------------------------------------|
A|-------------------------------------------------|
F|-------------------------------------------------|
C|-------------------------------------------------|
G|-------------------------------------------------|
C|-------------------------------------------------|

  GTR I
d|--------------5-----------------------5----------|
A|-------------------------------------------------|
F|-------------------------------------------------|
C|-------------------------------------------------|
G|--5-----5-----------------5-----5----------------|
C|-------------------------------------------------|
 |
 |GTR II
d|-------------------------------------------------|
A|-------------------------------------------------|
F|-------------------------------------------------|
C|-------------------------------------------------|
G|-------------------------------------------------|
C|-------------------------------------------------|

  GTR I
d|--------------5-----------------------5----------|
A|-------------------------------------------------|
F|--3-----3-----------------3-----3----------------|
C|-------------------------------------------------|
G|-------------------------------------------------|
C|-------------------------------------------------|
 |
 |GTR II
d|-------------------------------------------------|
A|-------------------------------------------------|
F|-------------------------------------------------|
C|-------------------------------------------------|
G|-------------------------------------------------|
C|-------------------------------------------------|

  GTR I
d|--------------5-----------------------5----------|
A|-------------------------------------------------|
F|-------------------------------------------------|
C|--5-----5-----------------5-----5----------------|
G|-------------------------------------------------|
C|-------------------------------------------------|
 |
 |GTR II
d|-------------------------------------------------|
A|-------------------------------------------------|
F|-------------------------------------------------|
C|-------------------------------------------------|
G|-------------------------------------------------|
C|-------------------------------------------------|

  GTR I
d|--5----------------------------------------------|
A|--3----------------------------------------------|
F|--0----------------------------------------------|
C|--x----------------------------------------------|
G|--5----------------------------------------------|
C|--x----------------------------------------------|
 |
 |GTR II
d|-------------------------------------------------|
A|-------------------------------------------------|
F|-------------------------------------------------|
C|-------------------------------------------------|
G|-------------------------------------------------|
C|-------------------------------------------------|

Intro 2

  GTR I
d|--------------5-----------------------5----------|
A|-------------------------------------------------|
F|--3-----3-----------------3-----3----------------|
C|-------------------------------------------------|
G|-------------------------------------------------|
C|-------------------------------------------------|
 |
 |GTR II
d|-------------------------------------------------|
A|-------------------------------------------------|
F|-------------------------------------------------|
C|--8-----8-----8-----8-----8-----8-----8-----8----|
G|--8-----8-----8-----8-----8-----8-----8-----8----|
C|--8-----8-----8-----8-----8-----8-----8-----8----|

  GTR I
d|--------------5-----------------------5----------|
A|-------------------------------------------------|
F|-------------------------------------------------|
C|--5-----5-----------------5-----5----------------|
G|-------------------------------------------------|
C|-------------------------------------------------|
 |
 |GTR II
d|-------------------------------------------------|
A|-------------------------------------------------|
F|-------------------------------------------------|
C|--5-----5-----5-----5-----5-----5-----5-----5----|
G|--5-----5-----5-----5-----5-----5-----5-----5----|
C|--5-----5-----5-----5-----5-----5-----5-----5----|

  GTR I
d|--------------5-----------------------5----------|
A|-------------------------------------------------|
F|-------------------------------------------------|
C|-------------------------------------------------|
G|--5-----5-----------------5-----5----------------|
C|-------------------------------------------------|
 |
 |GTR II
d|-------------------------------------------------|
A|-------------------------------------------------|
F|-------------------------------------------------|
C|--0-----0-----0-----0-----0-----0-----0-----0----|
G|--0-----0-----0-----0-----0-----0-----0-----0----|
C|--0-----0-----0-----0-----0-----0-----0-----0----|

  GTR I
d|--------------5-----------------------5----------|
A|-------------------------------------------------|
F|-------------------------------------------------|
C|-------------------------------------------------|
G|--5-----5-----------------5-----5----------------|
C|-------------------------------------------------|
 |
 |GTR II
d|-------------------------------------------------|
A|-------------------------------------------------|
F|-------------------------------------------------|
C|--0-----0-----0-----0-----0-----0-----0-----0----|
G|--0-----0-----0-----0-----0-----0-----0-----0----|
C|--0-----0-----0-----0-----0-----0-----0-----0----|

  GTR I
d|--------------5-----------------------5----------|
A|-------------------------------------------------|
F|--3-----3-----------------3-----3----------------|
C|-------------------------------------------------|
G|-------------------------------------------------|
C|-------------------------------------------------|
 |
 |GTR II
d|-------------------------------------------------|
A|-------------------------------------------------|
F|-------------------------------------------------|
C|--8-----8-----8-----8-----8-----8-----8-----8----|
G|--8-----8-----8-----8-----8-----8-----8-----8----|
C|--8-----8-----8-----8-----8-----8-----8-----8----|

  GTR I
d|--------------5-----------------------5----------|
A|-------------------------------------------------|
F|-------------------------------------------------|
C|--5-----5-----------------5-----5----------------|
G|-------------------------------------------------|
C|-------------------------------------------------|
 |
 |GTR II
d|-------------------------------------------------|
A|-------------------------------------------------|
F|-------------------------------------------------|
C|--5-----5-----5-----5-----5-----5-----5-----5----|
G|--5-----5-----5-----5-----5-----5-----5-----5----|
C|--5-----5-----5-----5-----5-----5-----5-----5----|

  GTR I
d|--------------5-----------------------5----------|
A|-------------------------------------------------|
F|-------------------------------------------------|
C|-------------------------------------------------|
G|--5-----5-----------------5-----5----------------|
C|-------------------------------------------------|
 |
 |GTR II
d|-------------------------------------------------|
A|-------------------------------------------------|
F|-------------------------------------------------|
C|--0-----0-----0-----0-----0-----0-----0-----0----|
G|--0-----0-----0-----0-----0-----0-----0-----0----|
C|--0-----0-----0-----0-----0-----0-----0-----0----|

  GTR I
d|--------------5-----------------------5----------|
A|-------------------------------------------------|
F|-------------------------------------------------|
C|-------------------------------------------------|
G|--5-----5-----------------5-----5----------------|
C|-------------------------------------------------|
 |
 |GTR II
d|-------------------------------------------------|
A|-------------------------------------------------|
F|-------------------------------------------------|
C|--0-----0-----0-----0-----0-----0-----0-----0----|
G|--0-----0-----0-----0-----0-----0-----0-----0----|
C|--0-----0-----0-----0-----0-----0-----0-----0----|

  GTR I
d|-------------------------------------------------|
A|-------------------------------------------------|
F|-10----10----10----10----10----10----10----10----|
C|--x-----x-----x-----x-----x-----x-----x-----x----|
G|--8-----8-----8-----8-----8-----8-----8-----8----|
C|-------------------------------------------------|
 |
 |GTR II
d|-------------------------------------------------|
A|-------------------------------------------------|
F|-17----17----17----17----17----17----17----17----|
C|--x-----x-----x-----x-----x-----x-----x-----x----|
G|-15----15----15----15----15----15----15----15----|
C|-------------------------------------------------|

  GTR I
d|-------------------------------------------------|
A|-------------------------------------------------|
F|-10-----9-----9-----9-----9---/10----10----10----|
C|--x-----x-----x-----x-----x-----x-----x-----x----|
G|--8-----7-----7-----7-----7----/8-----8-----8----|
C|-------------------------------------------------|
 |
 |GTR II
d|-------------------------------------------------|
A|-------------------------------------------------|
F|-17----12----12----12----12---/14----14----14----|
C|--x-----x-----x-----x-----x-----x-----x-----x----|
G|-15----10----10----10----10---/12----12----12----|
C|-------------------------------------------------|

Verse

  GTR I
d|-------------------------------------------------|
A|-------------------------------------------------|
F|-------------------------------------------------|
C|-------------------------------------------------|
G|--0-----0-----0-----0----------------------------|
C|--0-----0-----0-----0----------------------------|
 |  .     .     .     .
 |GTR II
d|-------------------------------------------------|
A|-------------------------------------------------|
F|-------------------------------------------------|
C|-------------------------------------------------|
G|--0-----0-----0-----0----------------------------|
C|--0-----0-----0-----0----------------------------|
 |  .     .     .     .
 |GTR III
d|-------------------------------------------------|
A|-------------------------------------------------|
F|-------------------------------------------------|
C|-------------------------------------------------|
G|--0-----0-----0-----0-----0-----0-----0-----0----|
C|--0-----0-----0-----0-----0-----0-----0-----0----|
    .     .     .     .     .     .     .     .

  GTR I
d|-------------------------------------------------|
A|-------------------------------------------------|
F|-------------------------------------------------|
C|-------------------------------------------------|
G|--0--0--0-----0--0--0----------------------------|
C|--0--0--0-----0--0--0----------------------------|
 |  .  .  .     .  .  .
 |GTR II
d|-------------------------------------------------|
A|-------------------------------------------------|
F|-------------------------------------------------|
C|-------------------------------------------------|
G|--0--0--0-----0--0--0----------------------------|
C|--0--0--0-----0--0--0----------------------------|
 |  .  .  .     .  .  .
 |GTR III
d|-------------------------------------------------|
A|-------------------------------------------------|
F|-------------------------------------------------|
C|-------------------------------------------------|
G|--0-----0-----0-----0-----0-----0-----0-----0----|
C|--0-----0-----0-----0-----0-----0-----0-----0----|
    .     .     .     .     .     .     .     .

  GTR I
d|-------------------------------------------------|
A|-------------------------------------------------|
F|-------------------------------------------------|
C|-------------------------------------------------|
G|--0-----0-----0-----0----------------------------|
C|--0-----0-----0-----0----------------------------|
 |  .     .     .     .
 |GTR II
d|-------------------------------------------------|
A|-------------------------------------------------|
F|-------------------------------------------------|
C|-------------------------------------------------|
G|--0-----0-----0-----0----------------------------|
C|--0-----0-----0-----0----------------------------|
 |  .     .     .     .
 |GTR III
d|-------------------------------------------------|
A|-------------------------------------------------|
F|-------------------------------------------------|
C|-------------------------------------------------|
G|--0-----0-----0-----0-----0-----0-----0-----0----|
C|--0-----0-----0-----0-----0-----0-----0-----0----|
    .     .     .     .     .     .     .     .

  GTR I
d|-------------------------------------------------|
A|-------------------------------------------------|
F|-------------------------------------------------|
C|-------------------------------------------------|
G|--0--0--0-----0--0--0----------------------------|
C|--0--0--0-----0--0--0----------------------------|
 |  .  .  .     .  .  .
 |GTR II
d|-------------------------------------------------|
A|-------------------------------------------------|
F|-------------------------------------------------|
C|-------------------------------------------------|
G|--0--0--0-----0--0--0----------------------------|
C|--0--0--0-----0--0--0----------------------------|
 |  .  .  .     .  .  .
 |GTR III
d|-------------------------------------------------|
A|-------------------------------------------------|
F|-------------------------------------------------|
C|-------------------------------------------------|
G|--0-----0-----0-----0-----0-----0-----0-----0----|
C|--0-----0-----0-----0-----0-----0-----0-----0----|
    .     .     .     .     .     .     .     .

  GTR I
d|-------------------------------------------------|
A|-------------------------------------------------|
F|-------------------------------------------------|
C|-------------------------------------------------|
G|--0-----0-----0-----0----------------------------|
C|--0-----0-----0-----0----------------------------|
 |  .     .     .     .
 |GTR II
d|-------------------------------------------------|
A|-------------------------------------------------|
F|-------------------------------------------------|
C|-------------------------------------------------|
G|--0-----0-----0-----0----------------------------|
C|--0-----0-----0-----0----------------------------|
 |  .     .     .     .
 |GTR III
d|-------------------------------------------------|
A|-------------------------------------------------|
F|-------------------------------------------------|
C|-------------------------------------------------|
G|--0-----0-----0-----0-----0-----0-----0-----0----|
C|--0-----0-----0-----0-----0-----0-----0-----0----|
    .     .     .     .     .     .     .     .

  GTR I
d|-------------------------------------------------|
A|-------------------------------------------------|
F|-------------------------------------------------|
C|-------------------------------------------------|
G|--0--0--0-----0--0--0----------------------------|
C|--0--0--0-----0--0--0----------------------------|
 |  .  .  .     .  .  .
 |GTR II
d|-------------------------------------------------|
A|-------------------------------------------------|
F|-------------------------------------------------|
C|-------------------------------------------------|
G|--0--0--0-----0--0--0----------------------------|
C|--0--0--0-----0--0--0----------------------------|
 |  .  .  .     .  .  .
 |GTR III
d|-------------------------------------------------|
A|-------------------------------------------------|
F|-------------------------------------------------|
C|-------------------------------------------------|
G|--0-----0-----0-----0-----0-----0-----0-----0----|
C|--0-----0-----0-----0-----0-----0-----0-----0----|
    .     .     .     .     .     .     .     .

  GTR I
d|-------------------------------------------------|
A|-------------------------------------------------|
F|-------------------------------------------------|
C|-------------------------------------------------|
G|--0-----0-----0-----0----------------------------|
C|--0-----0-----0-----0----------------------------|
 |  .     .     .     .
 |GTR II
d|-------------------------------------------------|
A|-------------------------------------------------|
F|-------------------------------------------------|
C|-------------------------------------------------|
G|--0-----0-----0-----0----------------------------|
C|--0-----0-----0-----0----------------------------|
 |  .     .     .     .
 |GTR III
d|-------------------------------------------------|
A|-------------------------------------------------|
F|-------------------------------------------------|
C|-------------------------------------------------|
G|--0-----0-----0-----0-----0-----0-----0-----0----|
C|--0-----0-----0-----0-----0-----0-----0-----0----|
    .     .     .     .     .     .     .     .

  GTR I
d|--------------------------------------------8----|
A|-------10-----------------------------8----------|
F|--------------9-----7-----------7----------------|
C|-------------------------------------------------|
G|-------------------------------------------------|
C|-------------------------------------------------|
 |                       
 |GTR II
d|-------------------------------------------------|
A|-------------------------------------------10----|
F|-------10-----------------------------7----------|
C|-------------10-----8-----------8----------------|
G|-------------------------------------------------|
C|-------------------------------------------------|
 |                     
 |GTR III
d|-------------------------------------------------|
A|-------------------------------------------------|
F|-------------------------------------------------|
C|-------------------------------------------------|
G|--------5-----5-----5-----------8-----8-----8----|
C|--------5-----5-----5-----------8-----8-----8----|

  GTR I
d|-------------------------------------------------|
A|-------------------------------------------------|
F|-------------------------------------------------|
C|-------------------------------------------------|
G|--0-----0-----0-----0-----0-----0-----0-----0----|
C|--0-----0-----0-----0-----0-----0-----0-----0----|
 |  .     .     .     .     .     .     .     .
 |GTR II
d|-------------------------------------------------|
A|-------------------------------------------------|
F|-------------------------------------------------|
C|-------------------------------------------------|
G|--0-----0-----0-----0-----0-----0-----0-----0----|
C|--0-----0-----0-----0-----0-----0-----0-----0----|
 |  .     .     .     .     .     .     .     .
 |GTR III
d|-------------------------------------------------|
A|-------------------------------------------------|
F|-------------------------------------------------|
C|-------------------------------------------------|
G|--0-----0-----0-----0-----0-----0-----0-----0----|
C|--0-----0-----0-----0-----0-----0-----0-----0----|
    .     .     .     .     .     .     .     .

  GTR I
d|-------------------------------------------------|
A|-------------------------------------------------|
F|-------------------------------------------------|
C|-------------------------------------------------|
G|--0-----0-----0-----0-----0--0--0-----0--0--0----|
C|--0-----0-----0-----0-----0--0--0-----0--0--0----|
 |  .     .     .     .     .  .  .     .  .  .
 |GTR II
d|-------------------------------------------------|
A|-------------------------------------------------|
F|-------------------------------------------------|
C|-------------------------------------------------|
G|--0-----0-----0-----0-----0--0--0-----0--0--0----|
C|--0-----0-----0-----0-----0--0--0-----0--0--0----|
 |  .     .     .     .     .  .  .     .  .  .
 |GTR III
d|-------------------------------------------------|
A|-------------------------------------------------|
F|-------------------------------------------------|
C|-------------------------------------------------|
G|--0-----0-----0-----0-----0--0--0-----0--0--0----|
C|--0-----0-----0-----0-----0--0--0-----0--0--0----|
    .     .     .     .     .  .  .     .  .  .

  GTR I
d|-------------------------------------------------|
A|-------------------------------------------------|
F|-------------------------------------------------|
C|-------------------------------------------------|
G|--0-----0-----0-----0-----0-----0-----0-----0----|
C|--0-----0-----0-----0-----0-----0-----0-----0----|
 |  .     .     .     .     .     .     .     .
 |GTR II
d|-------------------------------------------------|
A|-------------------------------------------------|
F|-------------------------------------------------|
C|-------------------------------------------------|
G|--0-----0-----0-----0-----0-----0-----0-----0----|
C|--0-----0-----0-----0-----0-----0-----0-----0----|
 |  .     .     .     .     .     .     .     .
 |GTR III
d|-------------------------------------------------|
A|-------------------------------------------------|
F|-------------------------------------------------|
C|-------------------------------------------------|
G|--0-----0-----0-----0-----0-----0-----0-----0----|
C|--0-----0-----0-----0-----0-----0-----0-----0----|
    .     .     .     .     .     .     .     .

  GTR I
d|--------------------------------------------8----|
A|-------10-----------------------------8----------|
F|--------------9-----7-----------7----------------|
C|-------------------------------------------------|
G|-------------------------------------------------|
C|-------------------------------------------------|
 |                       
 |GTR II
d|-------------------------------------------------|
A|-------------------------------------------10----|
F|-------10-----------------------------7----------|
C|-------------10-----8-----------8----------------|
G|-------------------------------------------------|
C|-------------------------------------------------|
 |                     
 |GTR III
d|-------------------------------------------------|
A|-------------------------------------------------|
F|-------------------------------------------------|
C|-------------------------------------------------|
G|--------5-----5-----5-----------8-----8-----8----|
C|--------5-----5-----5-----------8-----8-----8----|

  GTR I
d|-------------------------------------------------|
A|-------------------------------------------------|
F|-------------------------------------------------|
C|-------------------------------------------------|
G|--0-----0-----0-----0-----0-----0-----0-----0----|
C|--0-----0-----0-----0-----0-----0-----0-----0----|
 |  .     .     .     .     .     .     .     .
 |GTR II
d|-------------------------------------------------|
A|-------------------------------------------------|
F|-------------------------------------------------|
C|-------------------------------------------------|
G|--0-----0-----0-----0-----0-----0-----0-----0----|
C|--0-----0-----0-----0-----0-----0-----0-----0----|
 |  .     .     .     .     .     .     .     .
 |GTR III
d|-------------------------------------------------|
A|-------------------------------------------------|
F|-------------------------------------------------|
C|-------------------------------------------------|
G|--0-----0-----0-----0-----0-----0-----0-----0----|
C|--0-----0-----0-----0-----0-----0-----0-----0----|
    .     .     .     .     .     .     .     .

  GTR I
d|-------------------------------------------------|
A|-------------------------------------------------|
F|-------------------------------------------------|
C|-------------------------------------------------|
G|--0-----0-----0-----0-----0--0--0-----0--0--0----|
C|--0-----0-----0-----0-----0--0--0-----0--0--0----|
 |  .     .     .     .     .  .  .     .  .  .
 |GTR II
d|-------------------------------------------------|
A|-------------------------------------------------|
F|-------------------------------------------------|
C|-------------------------------------------------|
G|--0-----0-----0-----0-----0--0--0-----0--0--0----|
C|--0-----0-----0-----0-----0--0--0-----0--0--0----|
 |  .     .     .     .     .  .  .     .  .  .
 |GTR III
d|-------------------------------------------------|
A|-------------------------------------------------|
F|-------------------------------------------------|
C|-------------------------------------------------|
G|--0-----0-----0-----0-----0--0--0-----0--0--0----|
C|--0-----0-----0-----0-----0--0--0-----0--0--0----|
    .     .     .     .     .  .  .     .  .  .

  GTR I
d|-------------------------------------------------|
A|-------------------------------------------------|
F|-------------------------------------------------|
C|-------------------------------------------------|
G|--0-----0-----0-----0-----0-----0-----0-----0----|
C|--0-----0-----0-----0-----0-----0-----0-----0----|
 |  .     .     .     .     .     .     .     .
 |GTR II
d|-------------------------------------------------|
A|-------------------------------------------------|
F|-------------------------------------------------|
C|-------------------------------------------------|
G|--0-----0-----0-----0-----0-----0-----0-----0----|
C|--0-----0-----0-----0-----0-----0-----0-----0----|
 |  .     .     .     .     .     .     .     .
 |GTR III
d|-------------------------------------------------|
A|-------------------------------------------------|
F|-------------------------------------------------|
C|-------------------------------------------------|
G|--0-----0-----0-----0-----0-----0-----0-----0----|
C|--0-----0-----0-----0-----0-----0-----0-----0----|
    .     .     .     .     .     .     .     .

  GTR I
d|-------------------------------------------------|
A|-10----------------------------------------------|
F|--------9-----7----------------------------------|
C|-------------------10----------------------------|
G|-------------------------------------------------|
C|-------------------------------------------------|
 |                       
 |GTR II
d|-------------------------------------------------|
A|-------------------------------------------------|
F|-10----------------------------------------------|
C|-------10-----8-----7----------------------------|
G|-------------------------------------------------|
C|-------------------------------------------------|
 |                     
 |GTR III
d|-------------------------------------------------|
A|-------------------------------------------------|
F|-------------------------------------------------|
C|-------------------------------------------------|
G|--5-----5-----5-----5----------------------------|
C|--5-----5-----5-----5----------------------------|

Chorus

  GTR I
d|-------------------------------------------------|
A|-------------------------------------------------|
F|-------------------------------------------------|
C|--8-----8-----8-----8-----8-----8-----8-----8----|
G|--8-----8-----8-----8-----8-----8-----8-----8----|
C|--8-----8-----8-----8-----8-----8-----8-----8----|
 |
 |GTR II
d|-------------------------------------------------|
A|-------------------------------------------------|
F|-------------------------------------------------|
C|--8-----8-----8-----8-----8-----8-----8-----8----|
G|--8-----8-----8-----8-----8-----8-----8-----8----|
C|--8-----8-----8-----8-----8-----8-----8-----8----|
 |                     
 |GTR III
d|--------------5-----------------------5----------|
A|-------------------------------------------------|
F|--3-----3-----------------3-----3----------------|
C|-------------------------------------------------|
G|-------------------------------------------------|
C|-------------------------------------------------|

  GTR I
d|-------------------------------------------------|
A|-------------------------------------------------|
F|-------------------------------------------------|
C|--5-----5-----5-----5-----5-----5-----5-----5----|
G|--5-----5-----5-----5-----5-----5-----5-----5----|
C|--5-----5-----5-----5-----5-----5-----5-----5----|
 |
 |GTR II
d|-------------------------------------------------|
A|-------------------------------------------------|
F|-------------------------------------------------|
C|--5-----5-----5-----5-----5-----5-----5-----5----|
G|--5-----5-----5-----5-----5-----5-----5-----5----|
C|--5-----5-----5-----5-----5-----5-----5-----5----|
 |
 |GTR III
d|--------------5-----------------------5----------|
A|-------------------------------------------------|
F|-------------------------------------------------|
C|--5-----5-----------------5-----5----------------|
G|-------------------------------------------------|
C|-------------------------------------------------|

  GTR I
d|-------------------------------------------------|
A|-------------------------------------------------|
F|-------------------------------------------------|
C|--0-----0-----0-----0-----0-----0-----0-----0----|
G|--0-----0-----0-----0-----0-----0-----0-----0----|
C|--0-----0-----0-----0-----0-----0-----0-----0----|
 |
 |GTR II
d|-------------------------------------------------|
A|-------------------------------------------------|
F|-------------------------------------------------|
C|--0-----0-----0-----0-----0-----0-----0-----0----|
G|--0-----0-----0-----0-----0-----0-----0-----0----|
C|--0-----0-----0-----0-----0-----0-----0-----0----|
 |
 |GTR III
d|--------------5-----------------------5----------|
A|-------------------------------------------------|
F|-------------------------------------------------|
C|-------------------------------------------------|
G|--5-----5-----------------5-----5----------------|
C|-------------------------------------------------|

  GTR I
d|-------------------------------------------------|
A|-------------------------------------------------|
F|-------------------------------------------------|
C|--3-----3-----3-----3-----3-----3-----3-----3----|
G|--3-----3-----3-----3-----3-----3-----3-----3----|
C|--3-----3-----3-----3-----3-----3-----3-----3----|
 |
 |GTR II
d|-------------------------------------------------|
A|-------------------------------------------------|
F|-------------------------------------------------|
C|--3-----3-----3-----3-----3-----3-----3-----3----|
G|--3-----3-----3-----3-----3-----3-----3-----3----|
C|--3-----3-----3-----3-----3-----3-----3-----3----|
 |
 |GTR III
d|--------------5-----------------------5----------|
A|-------------------------------------------------|
F|-------------------------------------------------|
C|-------------------------------------------------|
G|--5-----5-----------------5-----5----------------|
C|-------------------------------------------------|

  GTR I
d|-------------------------------------------------|
A|-------------------------------------------------|
F|-------------------------------------------------|
C|--8-----8-----8-----8-----8-----8-----8-----8----|
G|--8-----8-----8-----8-----8-----8-----8-----8----|
C|--8-----8-----8-----8-----8-----8-----8-----8----|
 |
 |GTR II
d|-------------------------------------------------|
A|-------------------------------------------------|
F|-------------------------------------------------|
C|--8-----8-----8-----8-----8-----8-----8-----8----|
G|--8-----8-----8-----8-----8-----8-----8-----8----|
C|--8-----8-----8-----8-----8-----8-----8-----8----|
 |                     
 |GTR III
d|--------------5-----------------------5----------|
A|-------------------------------------------------|
F|--3-----3-----------------3-----3----------------|
C|-------------------------------------------------|
G|-------------------------------------------------|
C|-------------------------------------------------|

  GTR I
d|-------------------------------------------------|
A|-------------------------------------------------|
F|-------------------------------------------------|
C|--5-----5-----5-----5-----5-----5-----5-----5----|
G|--5-----5-----5-----5-----5-----5-----5-----5----|
C|--5-----5-----5-----5-----5-----5-----5-----5----|
 |
 |GTR II
d|-------------------------------------------------|
A|-------------------------------------------------|
F|-------------------------------------------------|
C|--5-----5-----5-----5-----5-----5-----5-----5----|
G|--5-----5-----5-----5-----5-----5-----5-----5----|
C|--5-----5-----5-----5-----5-----5-----5-----5----|
 |
 |GTR III
d|--------------5-----------------------5----------|
A|-------------------------------------------------|
F|-------------------------------------------------|
C|--5-----5-----------------5-----5----------------|
G|-------------------------------------------------|
C|-------------------------------------------------|

  GTR I
d|-------------------------------------------------|
A|-------------------------------------------------|
F|-------------------------------------------------|
C|--0-----0-----0-----0-----0-----0-----0-----0----|
G|--0-----0-----0-----0-----0-----0-----0-----0----|
C|--0-----0-----0-----0-----0-----0-----0-----0----|
 |
 |GTR II
d|-------------------------------------------------|
A|-------------------------------------------------|
F|-------------------------------------------------|
C|--0-----0-----0-----0-----0-----0-----0-----0----|
G|--0-----0-----0-----0-----0-----0-----0-----0----|
C|--0-----0-----0-----0-----0-----0-----0-----0----|
 |
 |GTR III
d|--------------5-----------------------5----------|
A|-------------------------------------------------|
F|-------------------------------------------------|
C|-------------------------------------------------|
G|--5-----5-----------------5-----5----------------|
C|-------------------------------------------------|

  GTR I
d|-------------------------------------------------|
A|-------------------------------------------------|
F|-------------------------------------------------|
C|--3-----3-----3-----3-----3-----3-----3-----3----|
G|--3-----3-----3-----3-----3-----3-----3-----3----|
C|--3-----3-----3-----3-----3-----3-----3-----3----|
 |
 |GTR II
d|-------------------------------------------------|
A|-------------------------------------------------|
F|-------------------------------------------------|
C|--3-----3-----3-----3-----3-----3-----3-----3----|
G|--3-----3-----3-----3-----3-----3-----3-----3----|
C|--3-----3-----3-----3-----3-----3-----3-----3----|
 |
 |GTR III
d|--------------5-----------------------5----------|
A|-------------------------------------------------|
F|-------------------------------------------------|
C|-------------------------------------------------|
G|--5-----5-----------------5-----5----------------|
C|-------------------------------------------------|

  GTR I
d|-------------------------------------------------|
A|-------------------------------------------------|
F|-10----10----10----10----10----10----10----10----|
C|--x-----x-----x-----x-----x-----x-----x-----x----|
G|--8-----8-----8-----8-----8-----8-----8-----8----|
C|-------------------------------------------------|
 |
 |GTR II
d|-------------------------------------------------|
A|-------------------------------------------------|
F|-------------------------------------------------|
C|--8-----8-----8-----8-----8-----8-----8-----8----|
G|--8-----8-----8-----8-----8-----8-----8-----8----|
C|--8-----8-----8-----8-----8-----8-----8-----8----|
 |                     
 |GTR III
d|--------------5-----------------------5----------|
A|-------------------------------------------------|
F|--3-----3-----------------3-----3----------------|
C|-------------------------------------------------|
G|-------------------------------------------------|
C|-------------------------------------------------|

  GTR I
d|-------------------------------------------------|
A|-------------------------------------------------|
F|-10-----9-----9-----9-----9-----9-----9-----9----|
C|--x-----x-----x-----x-----x-----x-----x-----x----|
G|--8-----7-----7-----7-----7-----7-----7-----7----|
C|-------------------------------------------------|
 |
 |GTR II
d|-------------------------------------------------|
A|-------------------------------------------------|
F|-------------------------------------------------|
C|--5-----5-----5-----5-----5-----5-----5-----5----|
G|--5-----5-----5-----5-----5-----5-----5-----5----|
C|--5-----5-----5-----5-----5-----5-----5-----5----|
 |
 |GTR III
d|--------------5-----------------------5----------|
A|-------------------------------------------------|
F|-------------------------------------------------|
C|--5-----5-----------------5-----5----------------|
G|-------------------------------------------------|
C|-------------------------------------------------|

  GTR I
d|-------------------------------------------------|
A|-------------------------------------------------|
F|--9-----7-----7-----7-----7-----7-----7-----7----|
C|--x-----x-----x-----x-----x-----x-----x-----x----|
G|--7-----5-----5-----5-----5-----5-----5-----5----|
C|-------------------------------------------------|
 |
 |GTR II
d|-------------------------------------------------|
A|-------------------------------------------------|
F|-------------------------------------------------|
C|--0-----0-----0-----0-----0-----0-----0-----0----|
G|--0-----0-----0-----0-----0-----0-----0-----0----|
C|--0-----0-----0-----0-----0-----0-----0-----0----|
 |
 |GTR III
d|--------------5-----------------------5----------|
A|-------------------------------------------------|
F|-------------------------------------------------|
C|-------------------------------------------------|
G|--5-----5-----------------5-----5----------------|
C|-------------------------------------------------|

  GTR I
d|-------------------------------------------------|
A|-------------------------------------------------|
F|--7-----5-----5-----5-----5-----5-----5-----5----|
C|--x-----x-----x-----x-----x-----x-----x-----x----|
G|--5-----3-----3-----3-----3-----3-----3-----3----|
C|-------------------------------------------------|
 |
 |GTR II
d|-------------------------------------------------|
A|-------------------------------------------------|
F|-------------------------------------------------|
C|--3-----3-----3-----3-----3-----3-----3-----3----|
G|--3-----3-----3-----3-----3-----3-----3-----3----|
C|--3-----3-----3-----3-----3-----3-----3-----3----|
 |
 |GTR III
d|--------------5-----------------------5----------|
A|-------------------------------------------------|
F|-------------------------------------------------|
C|-------------------------------------------------|
G|--5-----5-----------------5-----5----------------|
C|-------------------------------------------------|

  GTR I
d|-------------------------------------------------|
A|-------------------------------------------------|
F|-10----10----10----10----10----10----10----10----|
C|--x-----x-----x-----x-----x-----x-----x-----x----|
G|--8-----8-----8-----8-----8-----8-----8-----8----|
C|-------------------------------------------------|
 |
 |GTR II
d|-------------------------------------------------|
A|-------------------------------------------------|
F|-------------------------------------------------|
C|--8-----8-----8-----8-----8-----8-----8-----8----|
G|--8-----8-----8-----8-----8-----8-----8-----8----|
C|--8-----8-----8-----8-----8-----8-----8-----8----|
 |                     
 |GTR III
d|--------------5-----------------------5----------|
A|-------------------------------------------------|
F|--3-----3-----------------3-----3----------------|
C|-------------------------------------------------|
G|-------------------------------------------------|
C|-------------------------------------------------|

  GTR I
d|-------------------------------------------------|
A|-------------------------------------------------|
F|-10-----9-----9-----9-----9----10----10----10----|
C|--x-----x-----x-----x-----x-----x-----x-----x----|
G|--8-----7-----7-----7-----7-----8-----8-----8----|
C|-------------------------------------------------|
 |
 |GTR II
d|-------------------------------------------------|
A|-------------------------------------------------|
F|-------------------------------------------------|
C|--5-----5-----5-----5-----5-----5-----5-----5----|
G|--5-----5-----5-----5-----5-----5-----5-----5----|
C|--5-----5-----5-----5-----5-----5-----5-----5----|
 |
 |GTR III
d|--------------5-----------------------5----------|
A|-------------------------------------------------|
F|-------------------------------------------------|
C|--5-----5-----------------5-----5----------------|
G|-------------------------------------------------|
C|-------------------------------------------------|

Verse 2

  GTR I
d|-------------------------------------------------|
A|-------------------------------------------------|
F|-------------------------------------------------|
C|-------------------------------------------------|
G|--0-----0-----0-----0-----0-----0-----0-----0----|
C|--0-----0-----0-----0-----0-----0-----0-----0----|
 |  .     .     .     .     .     .     .     .
 |GTR II
d|-------------------------------------------------|
A|-------------------------------------------------|
F|-------------------------------------------------|
C|-------------------------------------------------|
G|--0-----0-----0-----0-----0-----0-----0-----0----|
C|--0-----0-----0-----0-----0-----0-----0-----0----|
 |  .     .     .     .     .     .     .     .
 |GTR III
d|-------------------------------------------------|
A|-------------------------------------------------|
F|-------------------------------------------------|
C|-------------------------------------------------|
G|--0-----0-----0-----0-----0-----0-----0-----0----|
C|--0-----0-----0-----0-----0-----0-----0-----0----|
    .     .     .     .     .     .     .     .

  GTR I
d|-------------------------------------------------|
A|-------------------------------------------------|
F|-------------------------------------------------|
C|-------------------------------------------------|
G|--0-----0-----0-----0-----0--0--0-----0--0--0----|
C|--0-----0-----0-----0-----0--0--0-----0--0--0----|
 |  .     .     .     .     .  .  .     .  .  .
 |GTR II
d|-------------------------------------------------|
A|-------------------------------------------------|
F|-------------------------------------------------|
C|-------------------------------------------------|
G|--0-----0-----0-----0-----0--0--0-----0--0--0----|
C|--0-----0-----0-----0-----0--0--0-----0--0--0----|
 |  .     .     .     .     .  .  .     .  .  .
 |GTR III
d|-------------------------------------------------|
A|-------------------------------------------------|
F|-------------------------------------------------|
C|-------------------------------------------------|
G|--0-----0-----0-----0-----0--0--0-----0--0--0----|
C|--0-----0-----0-----0-----0--0--0-----0--0--0----|
    .     .     .     .     .  .  .     .  .  .

  GTR I
d|-------------------------------------------------|
A|-------------------------------------------------|
F|-------------------------------------------------|
C|-------------------------------------------------|
G|--0-----0-----0-----0-----0-----0-----0-----0----|
C|--0-----0-----0-----0-----0-----0-----0-----0----|
 |  .     .     .     .     .     .     .     .
 |GTR II
d|-------------------------------------------------|
A|-------------------------------------------------|
F|-------------------------------------------------|
C|-------------------------------------------------|
G|--0-----0-----0-----0-----0-----0-----0-----0----|
C|--0-----0-----0-----0-----0-----0-----0-----0----|
 |  .     .     .     .     .     .     .     .
 |GTR III
d|-------------------------------------------------|
A|-------------------------------------------------|
F|-------------------------------------------------|
C|-------------------------------------------------|
G|--0-----0-----0-----0-----0-----0-----0-----0----|
C|--0-----0-----0-----0-----0-----0-----0-----0----|
    .     .     .     .     .     .     .     .

  GTR I
d|--------------------------------------------8----|
A|-------10-----------------------------8----------|
F|--------------9-----7-----------7----------------|
C|-------------------------------------------------|
G|-------------------------------------------------|
C|-------------------------------------------------|
 |                       
 |GTR II
d|-------------------------------------------------|
A|-------------------------------------------10----|
F|-------10-----------------------------7----------|
C|-------------10-----8-----------8----------------|
G|-------------------------------------------------|
C|-------------------------------------------------|
 |                     
 |GTR III
d|-------------------------------------------------|
A|-------------------------------------------------|
F|-------------------------------------------------|
C|-------------------------------------------------|
G|--------5-----5-----5-----------8-----8-----8----|
C|--------5-----5-----5-----------8-----8-----8----|

  GTR I
d|-------------------------------------------------|
A|-------------------------------------------------|
F|-------------------------------------------------|
C|-------------------------------------------------|
G|--0-----0-----0-----0-----0-----0-----0-----0----|
C|--0-----0-----0-----0-----0-----0-----0-----0----|
 |  .     .     .     .     .     .     .     .
 |GTR II
d|-------------------------------------------------|
A|-------------------------------------------------|
F|-------------------------------------------------|
C|-------------------------------------------------|
G|--0-----0-----0-----0-----0-----0-----0-----0----|
C|--0-----0-----0-----0-----0-----0-----0-----0----|
 |  .     .     .     .     .     .     .     .
 |GTR III
d|-------------------------------------------------|
A|-------------------------------------------------|
F|-------------------------------------------------|
C|-------------------------------------------------|
G|--0-----0-----0-----0-----0-----0-----0-----0----|
C|--0-----0-----0-----0-----0-----0-----0-----0----|
    .     .     .     .     .     .     .     .

  GTR I
d|-------------------------------------------------|
A|-------------------------------------------------|
F|-------------------------------------------------|
C|-------------------------------------------------|
G|--0-----0-----0-----0-----0--0--0-----0--0--0----|
C|--0-----0-----0-----0-----0--0--0-----0--0--0----|
 |  .     .     .     .     .  .  .     .  .  .
 |GTR II
d|-------------------------------------------------|
A|-------------------------------------------------|
F|-------------------------------------------------|
C|-------------------------------------------------|
G|--0-----0-----0-----0-----0--0--0-----0--0--0----|
C|--0-----0-----0-----0-----0--0--0-----0--0--0----|
 |  .     .     .     .     .  .  .     .  .  .
 |GTR III
d|-------------------------------------------------|
A|-------------------------------------------------|
F|-------------------------------------------------|
C|-------------------------------------------------|
G|--0-----0-----0-----0-----0--0--0-----0--0--0----|
C|--0-----0-----0-----0-----0--0--0-----0--0--0----|
    .     .     .     .     .  .  .     .  .  .

  GTR I
d|-------------------------------------------------|
A|-------------------------------------------------|
F|-------------------------------------------------|
C|-------------------------------------------------|
G|--0-----0-----0-----0-----0-----0-----0-----0----|
C|--0-----0-----0-----0-----0-----0-----0-----0----|
 |  .     .     .     .     .     .     .     .
 |GTR II
d|-------------------------------------------------|
A|-------------------------------------------------|
F|-------------------------------------------------|
C|-------------------------------------------------|
G|--0-----0-----0-----0-----0-----0-----0-----0----|
C|--0-----0-----0-----0-----0-----0-----0-----0----|
 |  .     .     .     .     .     .     .     .
 |GTR III
d|-------------------------------------------------|
A|-------------------------------------------------|
F|-------------------------------------------------|
C|-------------------------------------------------|
G|--0-----0-----0-----0-----0-----0-----0-----0----|
C|--0-----0-----0-----0-----0-----0-----0-----0----|
    .     .     .     .     .     .     .     .

  GTR I
  GTR I
d|--------------------------------------------8----|
A|-------10-----------------------------8----------|
F|--------------9-----7-----------7----------------|
C|-------------------------------------------------|
G|-------------------------------------------------|
C|-------------------------------------------------|
 |                       
 |GTR II
d|-------------------------------------------------|
A|-------------------------------------------10----|
F|-------10-----------------------------7----------|
C|-------------10-----8-----------8----------------|
G|-------------------------------------------------|
C|-------------------------------------------------|
 |                     
 |GTR III
d|-------------------------------------------------|
A|-------------------------------------------------|
F|-------------------------------------------------|
C|-------------------------------------------------|
G|--------5-----5-----5-----------8-----8-----8----|
C|--------5-----5-----5-----------8-----8-----8----|

  GTR I
d|-------------------------------------------------|
A|-------------------------------------------------|
F|-------------------------------------------------|
C|-------------------------------------------------|
G|--0-----0-----0-----0----------------------------|
C|--0-----0-----0-----0----------------------------|
 |  .     .     .     .
 |GTR II
d|-------------------------------------------------|
A|-------------------------------------------------|
F|-------------------------------------------------|
C|-------------------------------------------------|
G|--0-----0-----0-----0----------------------------|
C|--0-----0-----0-----0----------------------------|
 |  .     .     .     .
 |GTR III
d|-------------------------------------------------|
A|-------------------------------------------------|
F|-------------------------------------------------|
C|-------------------------------------------------|
G|--0-----0-----0-----0----------------------------|
C|--0-----0-----0-----0----------------------------|
    .     .     .     .

  GTR I
d|-------------------------------------------------|
A|-------------------------------------------------|
F|-------------------------------------------------|
C|-------------------------------------------------|
G|--0--0--0-----0--0--0----------------------------|
C|--0--0--0-----0--0--0----------------------------|
 |  .  .  .     .  .  .
 |GTR II
d|-------------------------------------------------|
A|-------------------------------------------------|
F|-------------------------------------------------|
C|-------------------------------------------------|
G|--0--0--0-----0--0--0----------------------------|
C|--0--0--0-----0--0--0----------------------------|
 |  .  .  .     .  .  .
 |GTR III
d|-------------------------------------------------|
A|-------------------------------------------------|
F|-------------------------------------------------|
C|-------------------------------------------------|
G|--0--0--0-----0--0--0----------------------------|
C|--0--0--0-----0--0--0----------------------------|
    .  .  .     .  .  .

  GTR I
d|-------------------------------------------------|
A|-------------------------------------------------|
F|-------------------------------------------------|
C|-------------------------------------------------|
G|--0-----0-----0-----0----------------------------|
C|--0-----0-----0-----0----------------------------|
 |  .     .     .     .
 |GTR II
d|-------------------------------------------------|
A|-------------------------------------------------|
F|-------------------------------------------------|
C|-------------------------------------------------|
G|--0-----0-----0-----0----------------------------|
C|--0-----0-----0-----0----------------------------|
 |  .     .     .     .
 |GTR III
d|-------------------------------------------------|
A|-------------------------------------------------|
F|-------------------------------------------------|
C|-------------------------------------------------|
G|--0-----0-----0-----0----------------------------|
C|--0-----0-----0-----0----------------------------|
    .     .     .     .

  GTR I
d|-------------------------------------------------|
A|-------------------------------------------------|
F|-------------------------------------------------|
C|-------------------------------------------------|
G|--0--0--0-----0--0--0----------------------------|
C|--0--0--0-----0--0--0----------------------------|
 |  .  .  .     .  .  .
 |GTR II
d|-------------------------------------------------|
A|-------------------------------------------------|
F|-------------------------------------------------|
C|-------------------------------------------------|
G|--0--0--0-----0--0--0----------------------------|
C|--0--0--0-----0--0--0----------------------------|
 |  .  .  .     .  .  .
 |GTR III
d|-------------------------------------------------|
A|-------------------------------------------------|
F|-------------------------------------------------|
C|-------------------------------------------------|
G|--0--0--0-----0--0--0----------------------------|
C|--0--0--0-----0--0--0----------------------------|
    .  .  .     .  .  .

  GTR I
d|-------------------------------------------------|
A|-------------------------------------------------|
F|-------------------------------------------------|
C|-------------------------------------------------|
G|--0-----0-----0-----0----------------------------|
C|--0-----0-----0-----0----------------------------|
 |  .     .     .     .
 |GTR II
d|-------------------------------------------------|
A|-------------------------------------------------|
F|-------------------------------------------------|
C|-------------------------------------------------|
G|--0-----0-----0-----0----------------------------|
C|--0-----0-----0-----0----------------------------|
 |  .     .     .     .
 |GTR III
d|-------------------------------------------------|
A|-------------------------------------------------|
F|-------------------------------------------------|
C|-------------------------------------------------|
G|--0-----0-----0-----0----------------------------|
C|--0-----0-----0-----0----------------------------|
    .     .     .     .

  GTR I
d|-------------------------------------------------|
A|-------------------------------------------------|
F|-------------------------------------------------|
C|-------------------------------------------------|
G|--0--0--0-----0--0--0----------------------------|
C|--0--0--0-----0--0--0----------------------------|
 |  .  .  .     .  .  .
 |GTR II
d|-------------------------------------------------|
A|-------------------------------------------------|
F|-------------------------------------------------|
C|-------------------------------------------------|
G|--0--0--0-----0--0--0----------------------------|
C|--0--0--0-----0--0--0----------------------------|
 |  .  .  .     .  .  .
 |GTR III
d|-------------------------------------------------|
A|-------------------------------------------------|
F|-------------------------------------------------|
C|-------------------------------------------------|
G|--0--0--0-----0--0--0----------------------------|
C|--0--0--0-----0--0--0----------------------------|
    .  .  .     .  .  .

  GTR I
d|-------------------------------------------------|
A|-------------------------------------------------|
F|-------------------------------------------------|
C|-------------------------------------------------|
G|--0-----0-----0-----0----------------------------|
C|--0-----0-----0-----0----------------------------|
 |  .     .     .     .
 |GTR II
d|-------------------------------------------------|
A|-------------------------------------------------|
F|-------------------------------------------------|
C|-------------------------------------------------|
G|--0-----0-----0-----0----------------------------|
C|--0-----0-----0-----0----------------------------|
 |  .     .     .     .
 |GTR III
d|-------------------------------------------------|
A|-------------------------------------------------|
F|-------------------------------------------------|
C|-------------------------------------------------|
G|--0-----0-----0-----0----------------------------|
C|--0-----0-----0-----0----------------------------|
    .     .     .     .

  GTR I
d|-------------------------------------------------|
A|-10----------------------------------------------|
F|--------9-----7----------------------------------|
C|-------------------10----------------------------|
G|-------------------------------------------------|
C|-------------------------------------------------|
 |                       
 |GTR II
d|-------------------------------------------------|
A|-------------------------------------------------|
F|-10----------------------------------------------|
C|-------10-----8-----7----------------------------|
G|-------------------------------------------------|
C|-------------------------------------------------|
 |                     
 |GTR III
d|-------------------------------------------------|
A|-------------------------------------------------|
F|-------------------------------------------------|
C|-------------------------------------------------|
G|--5-----5-----5-----5----------------------------|
C|--5-----5-----5-----5----------------------------|

Chorus

  GTR I
d|-------------------------------------------------|
A|-------------------------------------------------|
F|-------------------------------------------------|
C|--8-----8-----8-----8-----8-----8-----8-----8----|
G|--8-----8-----8-----8-----8-----8-----8-----8----|
C|--8-----8-----8-----8-----8-----8-----8-----8----|
 |
 |GTR II
d|-------------------------------------------------|
A|-------------------------------------------------|
F|-------------------------------------------------|
C|--8-----8-----8-----8-----8-----8-----8-----8----|
G|--8-----8-----8-----8-----8-----8-----8-----8----|
C|--8-----8-----8-----8-----8-----8-----8-----8----|
 |                     
 |GTR III
d|--------------5-----------------------5----------|
A|-------------------------------------------------|
F|--3-----3-----------------3-----3----------------|
C|-------------------------------------------------|
G|-------------------------------------------------|
C|-------------------------------------------------|

  GTR I
d|-------------------------------------------------|
A|-------------------------------------------------|
F|-------------------------------------------------|
C|--5-----5-----5-----5-----5-----5-----5-----5----|
G|--5-----5-----5-----5-----5-----5-----5-----5----|
C|--5-----5-----5-----5-----5-----5-----5-----5----|
 |
 |GTR II
d|-------------------------------------------------|
A|-------------------------------------------------|
F|-------------------------------------------------|
C|--5-----5-----5-----5-----5-----5-----5-----5----|
G|--5-----5-----5-----5-----5-----5-----5-----5----|
C|--5-----5-----5-----5-----5-----5-----5-----5----|
 |
 |GTR III
d|--------------5-----------------------5----------|
A|-------------------------------------------------|
F|-------------------------------------------------|
C|--5-----5-----------------5-----5----------------|
G|-------------------------------------------------|
C|-------------------------------------------------|

  GTR I
d|-------------------------------------------------|
A|-------------------------------------------------|
F|-------------------------------------------------|
C|--0-----0-----0-----0-----0-----0-----0-----0----|
G|--0-----0-----0-----0-----0-----0-----0-----0----|
C|--0-----0-----0-----0-----0-----0-----0-----0----|
 |
 |GTR II
d|-------------------------------------------------|
A|-------------------------------------------------|
F|-------------------------------------------------|
C|--0-----0-----0-----0-----0-----0-----0-----0----|
G|--0-----0-----0-----0-----0-----0-----0-----0----|
C|--0-----0-----0-----0-----0-----0-----0-----0----|
 |
 |GTR III
d|--------------5-----------------------5----------|
A|-------------------------------------------------|
F|-------------------------------------------------|
C|-------------------------------------------------|
G|--5-----5-----------------5-----5----------------|
C|-------------------------------------------------|

  GTR I
d|-------------------------------------------------|
A|-------------------------------------------------|
F|-------------------------------------------------|
C|--3-----3-----3-----3-----3-----3-----3-----3----|
G|--3-----3-----3-----3-----3-----3-----3-----3----|
C|--3-----3-----3-----3-----3-----3-----3-----3----|
 |
 |GTR II
d|-------------------------------------------------|
A|-------------------------------------------------|
F|-------------------------------------------------|
C|--3-----3-----3-----3-----3-----3-----3-----3----|
G|--3-----3-----3-----3-----3-----3-----3-----3----|
C|--3-----3-----3-----3-----3-----3-----3-----3----|
 |
 |GTR III
d|--------------5-----------------------5----------|
A|-------------------------------------------------|
F|-------------------------------------------------|
C|-------------------------------------------------|
G|--5-----5-----------------5-----5----------------|
C|-------------------------------------------------|

  GTR I
d|-------------------------------------------------|
A|-------------------------------------------------|
F|-------------------------------------------------|
C|--8-----8-----8-----8-----8-----8-----8-----8----|
G|--8-----8-----8-----8-----8-----8-----8-----8----|
C|--8-----8-----8-----8-----8-----8-----8-----8----|
 |
 |GTR II
d|-------------------------------------------------|
A|-------------------------------------------------|
F|-------------------------------------------------|
C|--8-----8-----8-----8-----8-----8-----8-----8----|
G|--8-----8-----8-----8-----8-----8-----8-----8----|
C|--8-----8-----8-----8-----8-----8-----8-----8----|
 |                     
 |GTR III
d|--------------5-----------------------5----------|
A|-------------------------------------------------|
F|--3-----3-----------------3-----3----------------|
C|-------------------------------------------------|
G|-------------------------------------------------|
C|-------------------------------------------------|

  GTR I
d|-------------------------------------------------|
A|-------------------------------------------------|
F|-------------------------------------------------|
C|--5-----5-----5-----5-----5-----5-----5-----5----|
G|--5-----5-----5-----5-----5-----5-----5-----5----|
C|--5-----5-----5-----5-----5-----5-----5-----5----|
 |
 |GTR II
d|-------------------------------------------------|
A|-------------------------------------------------|
F|-------------------------------------------------|
C|--5-----5-----5-----5-----5-----5-----5-----5----|
G|--5-----5-----5-----5-----5-----5-----5-----5----|
C|--5-----5-----5-----5-----5-----5-----5-----5----|
 |
 |GTR III
d|--------------5-----------------------5----------|
A|-------------------------------------------------|
F|-------------------------------------------------|
C|--5-----5-----------------5-----5----------------|
G|-------------------------------------------------|
C|-------------------------------------------------|

  GTR I
d|-------------------------------------------------|
A|-------------------------------------------------|
F|-------------------------------------------------|
C|--0-----0-----0-----0-----0-----0-----0-----0----|
G|--0-----0-----0-----0-----0-----0-----0-----0----|
C|--0-----0-----0-----0-----0-----0-----0-----0----|
 |
 |GTR II
d|-------------------------------------------------|
A|-------------------------------------------------|
F|-------------------------------------------------|
C|--0-----0-----0-----0-----0-----0-----0-----0----|
G|--0-----0-----0-----0-----0-----0-----0-----0----|
C|--0-----0-----0-----0-----0-----0-----0-----0----|
 |
 |GTR III
d|--------------5-----------------------5----------|
A|-------------------------------------------------|
F|-------------------------------------------------|
C|-------------------------------------------------|
G|--5-----5-----------------5-----5----------------|
C|-------------------------------------------------|

  GTR I
d|-------------------------------------------------|
A|-------------------------------------------------|
F|-------------------------------------------------|
C|--3-----3-----3-----3-----3-----3-----3-----3----|
G|--3-----3-----3-----3-----3-----3-----3-----3----|
C|--3-----3-----3-----3-----3-----3-----3-----3----|
 |
 |GTR II
d|-------------------------------------------------|
A|-------------------------------------------------|
F|-------------------------------------------------|
C|--3-----3-----3-----3-----3-----3-----3-----3----|
G|--3-----3-----3-----3-----3-----3-----3-----3----|
C|--3-----3-----3-----3-----3-----3-----3-----3----|
 |
 |GTR III
d|--------------5-----------------------5----------|
A|-------------------------------------------------|
F|-------------------------------------------------|
C|-------------------------------------------------|
G|--5-----5-----------------5-----5----------------|
C|-------------------------------------------------|

  GTR I
d|-------------------------------------------------|
A|-------------------------------------------------|
F|-10----10----10----10----10----10----10----10----|
C|--x-----x-----x-----x-----x-----x-----x-----x----|
G|--8-----8-----8-----8-----8-----8-----8-----8----|
C|-------------------------------------------------|
 |
 |GTR II
d|-------------------------------------------------|
A|-------------------------------------------------|
F|-------------------------------------------------|
C|--8-----8-----8-----8-----8-----8-----8-----8----|
G|--8-----8-----8-----8-----8-----8-----8-----8----|
C|--8-----8-----8-----8-----8-----8-----8-----8----|
 |                     
 |GTR III
d|--------------5-----------------------5----------|
A|-------------------------------------------------|
F|--3-----3-----------------3-----3----------------|
C|-------------------------------------------------|
G|-------------------------------------------------|
C|-------------------------------------------------|

  GTR I
d|-------------------------------------------------|
A|-------------------------------------------------|
F|-10-----9-----9-----9-----9-----9-----9-----9----|
C|--x-----x-----x-----x-----x-----x-----x-----x----|
G|--8-----7-----7-----7-----7-----7-----7-----7----|
C|-------------------------------------------------|
 |
 |GTR II
d|-------------------------------------------------|
A|-------------------------------------------------|
F|-------------------------------------------------|
C|--5-----5-----5-----5-----5-----5-----5-----5----|
G|--5-----5-----5-----5-----5-----5-----5-----5----|
C|--5-----5-----5-----5-----5-----5-----5-----5----|
 |
 |GTR III
d|--------------5-----------------------5----------|
A|-------------------------------------------------|
F|-------------------------------------------------|
C|--5-----5-----------------5-----5----------------|
G|-------------------------------------------------|
C|-------------------------------------------------|

  GTR I
d|-------------------------------------------------|
A|-------------------------------------------------|
F|--9-----7-----7-----7-----7-----7-----7-----7----|
C|--x-----x-----x-----x-----x-----x-----x-----x----|
G|--7-----5-----5-----5-----5-----5-----5-----5----|
C|-------------------------------------------------|
 |
 |GTR II
d|-------------------------------------------------|
A|-------------------------------------------------|
F|-------------------------------------------------|
C|--0-----0-----0-----0-----0-----0-----0-----0----|
G|--0-----0-----0-----0-----0-----0-----0-----0----|
C|--0-----0-----0-----0-----0-----0-----0-----0----|
 |
 |GTR III
d|--------------5-----------------------5----------|
A|-------------------------------------------------|
F|-------------------------------------------------|
C|-------------------------------------------------|
G|--5-----5-----------------5-----5----------------|
C|-------------------------------------------------|

  GTR I
d|-------------------------------------------------|
A|-------------------------------------------------|
F|--7-----5-----5-----5-----5-----5-----5-----5----|
C|--x-----x-----x-----x-----x-----x-----x-----x----|
G|--5-----3-----3-----3-----3-----3-----3-----3----|
C|-------------------------------------------------|
 |
 |GTR II
d|-------------------------------------------------|
A|-------------------------------------------------|
F|-------------------------------------------------|
C|--3-----3-----3-----3-----3-----3-----3-----3----|
G|--3-----3-----3-----3-----3-----3-----3-----3----|
C|--3-----3-----3-----3-----3-----3-----3-----3----|
 |
 |GTR III
d|--------------5-----------------------5----------|
A|-------------------------------------------------|
F|-------------------------------------------------|
C|-------------------------------------------------|
G|--5-----5-----------------5-----5----------------|
C|-------------------------------------------------|

  GTR I
d|-------------------------------------------------|
A|-------------------------------------------------|
F|-10----10----10----10----10----10----10----10----|
C|--x-----x-----x-----x-----x-----x-----x-----x----|
G|--8-----8-----8-----8-----8-----8-----8-----8----|
C|-------------------------------------------------|
 |
 |GTR II
d|-------------------------------------------------|
A|-------------------------------------------------|
F|-------------------------------------------------|
C|--8-----8-----8-----8-----8-----8-----8-----8----|
G|--8-----8-----8-----8-----8-----8-----8-----8----|
C|--8-----8-----8-----8-----8-----8-----8-----8----|
 |                     
 |GTR III
d|--------------5-----------------------5----------|
A|-------------------------------------------------|
F|--3-----3-----------------3-----3----------------|
C|-------------------------------------------------|
G|-------------------------------------------------|
C|-------------------------------------------------|

  GTR I
d|-------------------------------------------------|
A|-------------------------------------------------|
F|-10-----9-----9-----9-----9----10----10----10----|
C|--x-----x-----x-----x-----x-----x-----x-----x----|
G|--8-----7-----7-----7-----7-----8-----8-----8----|
C|-------------------------------------------------|
 |
 |GTR II
d|-------------------------------------------------|
A|-------------------------------------------------|
F|-------------------------------------------------|
C|--5-----5-----5-----5-----5-----5-----5-----5----|
G|--5-----5-----5-----5-----5-----5-----5-----5----|
C|--5-----5-----5-----5-----5-----5-----5-----5----|
 |
 |GTR III
d|--------------5-----------------------5----------|
A|-------------------------------------------------|
F|-------------------------------------------------|
C|--5-----5-----------------5-----5----------------|
G|-------------------------------------------------|
C|-------------------------------------------------|

Bridge

  GTR I
d|-------------------------------------------------|
A|-------------------------------------------------|
F|-------------------------------------------------|
C|--0----------------------------------------------|
G|--0----------------------------------------------|
C|--0----------------------------------------------|
 |
 |GTR II
d|-------------------------------------------------|
A|-------------------------------------------------|
F|-------------------------------------------------|
C|--0----------------------------------------------|
G|--0----------------------------------------------|
C|--0----------------------------------------------|

  GTR I
d|-------------------------------------------------|
A|-------------------------------------------------|
F|-------------------------------------------------|
C|--0----------------------------------------------|
G|--0----------------------------------------------|
C|--0----------------------------------------------|
 |
 |GTR II
d|-------------------------------------------------|
A|-------------------------------------------------|
F|-------------------------------------------------|
C|-------------------------------------------------|
G|--0-----0-----1-----1-----0-----0----------------|
C|--0-----0-----1-----1-----0-----0----------------|
    .     .     .     .     .     .

  GTR I
d|-------------------------------------------------|
A|-------------------------------------------------|
F|-------------------------------------------------|
C|--------------0----------------------------------|
G|--------------0----------------------------------|
C|--------------0----------------------------------|
 |
 |GTR II
d|-------------------------------------------------|
A|-------------------------------------------------|
F|-------------------------------------------------|
C|-------------------------------------------------|
G|--------------0-----0-----1-----1-----0-----0----|
C|--------------0-----0-----1-----1-----0-----0----|
                .     .     .     .     .     .

  GTR I
d|-------------------------------------------------|
A|-------------------------------------------------|
F|-------------------------------------------------|
C|-------------------------------------------------|
G|--5--5--5--5--5--5--5--5--1--1--1--1--1--1--1--1-|
C|--5--5--5--5--5--5--5--5--1--1--1--1--1--1--1--1-|
 |  .  .  .  .  .  .  .  .  .  .  .  .  .  .  .  .
 |GTR II
d|-------------------------------------------------|
A|-------------------------------------------------|
F|-------------------------------------------------|
C|-------------------------------------------------|
G|--5--5--5--5--5--5--5--5--1--1--1--1--1--1--1--1-|
C|--5--5--5--5--5--5--5--5--1--1--1--1--1--1--1--1-|
    .  .  .  .  .  .  .  .  .  .  .  .  .  .  .  .

  GTR I
d|-------------------------------------------------|
A|-------------------------------------------------|
F|-------------------------------------------------|
C|--0----------------------------------------------|
G|--0----------------------------------------------|
C|--0----------------------------------------------|
 |
 |GTR II
d|-------------------------------------------------|
A|-------------------------------------------------|
F|-------------------------------------------------|
C|-------------------------------------------------|
G|--0-----0-----1-----1-----0-----0----------------|
C|--0-----0-----1-----1-----0-----0----------------|
    .     .     .     .     .     .

  GTR I
d|-------------------------------------------------|
A|-------------------------------------------------|
F|-------------------------------------------------|
C|-------------------------------------------------|
G|--------------0-----0-----1-----1-----0-----0----|
C|--------------0-----0-----1-----1-----0-----0----|
 |              .     .     .     .     .     .
 |GTR II
d|-------------------------------------------------|
A|-------------------------------------------------|
F|-------------------------------------------------|
C|-------------------------------------------------|
G|--------------0-----0-----1-----1-----0-----0----|
C|--------------0-----0-----1-----1-----0-----0----|
                .     .     .     .     .     .

  GTR I
d|-------------------------------------------------|
A|-------------------------------------------------|
F|-------------------------------------------------|
C|-------------------------------------------------|
G|-------------------------------------------------|
C|-------------------------------------------------|
 |
 |GTR II
d|-------------------------------------------------|
A|-------------------------------------------------|
F|-------------------------------------------------|
C|-------------------------------------------------|
G|-------------------------------------------------|
C|-------------------------------------------------|

Breakdown

  GTR I
d|-------------------------------------------------|
A|-------------------------------------------------|
F|-------------------------------------------------|
C|-------------------------------------------------|
G|--0-----0-----0-----------0-----0-----------0----|
C|--0-----0-----0-----------0-----0-----------0----|
 |  .     .     .           .     .           .
 |GTR II
d|-------------------------------------------------|
A|-------------------------------------------------|
F|-------------------------------------------------|
C|-------------------------------------------------|
G|--0-----0-----0-----------0-----0-----------0----|
C|--0-----0-----0-----------0-----0-----------0----|
    .     .     .           .     .           .

  GTR I
d|-------------------------------------------------|
A|-------------------------------------------------|
F|-------------------------------------------------|
C|-------------------------------------------------|
G|--0-----0-----0-----------0--0--0--0--0--0--0--0-|
C|--0-----0-----0-----------0--0--0--0--0--0--0--0-|
 |  .     .     .           .  .  .  .  .  .  .  .
 |GTR II
d|-------------------------------------------------|
A|-------------------------------------------------|
F|-------------------------------------------------|
C|-------------------------------------------------|
G|--0-----0-----0-----------0--0--0--0--0--0--0--0-|
C|--0-----0-----0-----------0--0--0--0--0--0--0--0-|
    .     .     .           .  .  .  .  .  .  .  .

  GTR I
d|-------------------------------------------------|
A|-------------------------------------------------|
F|-------------------------------------------------|
C|-------------------------------------------------|
G|--0-----------0--0--------0-----------0--0--0--0-|
C|--0-----------0--0--------0-----------0--0--0--0-|
 |  .           .  .        .           .  .  .  .
 |GTR II
d|-------------------------------------------------|
A|-------------------------------------------------|
F|-------------------------------------------------|
C|-------------------------------------------------|
G|--0-----------0--0--------0-----------0--0--0--0-|
C|--0-----------0--0--------0-----------0--0--0--0-|
    .           .  .        .           .  .  .  .

  GTR I
d|-------------------------------------------------|
A|-------------------------------------------------|
F|-------------------------------------------------|
C|-------------------------------------------------|
G|--------0--0--0--0--------0--0--0-----0--0--0----|
C|--------0--0--0--0--------0--0--0-----0--0--0----|
 |        .  .  .  .        .  .  .     .  .  .
 |GTR II
d|-------------------------------------------------|
A|-------------------------------------------------|
F|-------------------------------------------------|
C|-------------------------------------------------|
G|--------0--0--0--0--------0--0--0-----0--0--0----|
C|--------0--0--0--0--------0--0--0-----0--0--0----|
          .  .  .  .        .  .  .     .  .  .

  GTR I
d|-------------------------------------------------|
A|-------------------------------------------------|
F|-------------------------------------------------|
C|-------------------------------------------------|
G|--0-----0-----0-----------0-----0-----------0----|
C|--0-----0-----0-----------0-----0-----------0----|
 |  .     .     .           .     .           .
 |GTR II
d|-------------------------------------------------|
A|-------------------------------------------------|
F|-------------------------------------------------|
C|-------------------------------------------------|
G|--0-----0-----0-----------0-----0-----------0----|
C|--0-----0-----0-----------0-----0-----------0----|
    .     .     .           .     .           .

  GTR I
d|-------------------------------------------------|
A|-------------------------------------------------|
F|-------------------------------------------------|
C|-------------------------------------------------|
G|--0-----0-----0-----------0--0--0--0--0--0--0--0-|
C|--0-----0-----0-----------0--0--0--0--0--0--0--0-|
 |  .     .     .           .  .  .  .  .  .  .  .
 |GTR II
d|-------------------------------------------------|
A|-------------------------------------------------|
F|-------------------------------------------------|
C|-------------------------------------------------|
G|--0-----0-----0-----------0--0--0--0--0--0--0--0-|
C|--0-----0-----0-----------0--0--0--0--0--0--0--0-|
    .     .     .           .  .  .  .  .  .  .  .

  GTR I
d|-------------------------------------------------|
A|-------------------------------------------------|
F|-------------------------------------------------|
C|-------------------------------------------------|
G|--0-----------0--0--------0-----------0--0--0--0-|
C|--0-----------0--0--------0-----------0--0--0--0-|
 |  .           .  .        .           .  .  .  .
 |GTR II
d|-------------------------------------------------|
A|-------------------------------------------------|
F|-------------------------------------------------|
C|-------------------------------------------------|
G|--0-----------0--0--------0-----------0--0--0--0-|
C|--0-----------0--0--------0-----------0--0--0--0-|
    .           .  .        .           .  .  .  .

  GTR I
d|-------------------------------------------------|
A|-------------------------------------------------|
F|-------------------------------------------------|
C|-------------------------------------------------|
G|--------0--0--0--0--------0--0--0-----0--0--0----|
C|--------0--0--0--0--------0--0--0-----0--0--0----|
 |        .  .  .  .        .  .  .     .  .  .
 |GTR II
d|-------------------------------------------------|
A|-------------------------------------------------|
F|-------------------------------------------------|
C|-------------------------------------------------|
G|--------0--0--0--0--------0--0--0-----0--0--0----|
C|--------0--0--0--0--------0--0--0-----0--0--0----|
          .  .  .  .        .  .  .     .  .  .

  GTR I
d|-------------------------------------------------|
A|-------------------------------------------------|
F|-------------------------------------------------|
C|-------------------------------------------------|
G|--0-----0-----0-----------0-----0-----------0----|
C|--0-----0-----0-----------0-----0-----------0----|
 |  .     .     .           .     .           .
 |GTR II
d|-------------------------------------------------|
A|-------------------------------------------------|
F|-------------------------------------------------|
C|-------------------------------------------------|
G|--0-----0-----0-----------0-----0-----------0----|
C|--0-----0-----0-----------0-----0-----------0----|
    .     .     .           .     .           .

  GTR I
d|-------------------------------------------------|
A|-------------------------------------------------|
F|-------------------------------------------------|
C|-------------------------------------------------|
G|--0-----0-----0-----------0--0--0--0--0--0--0--0-|
C|--0-----0-----0-----------0--0--0--0--0--0--0--0-|
 |  .     .     .           .  .  .  .  .  .  .  .
 |GTR II
d|-------------------------------------------------|
A|-------------------------------------------------|
F|-------------------------------------------------|
C|-------------------------------------------------|
G|--0-----0-----0-----------0--0--0--0--0--0--0--0-|
C|--0-----0-----0-----------0--0--0--0--0--0--0--0-|
    .     .     .           .  .  .  .  .  .  .  .

  GTR I
d|-------------------------------------------------|
A|-------------------------------------------------|
F|-------------------------------------------------|
C|-------------------------------------------------|
G|--0-----------0--0--------0-----------0--0--0----|
C|--0-----------0--0--------0-----------0--0--0----|
 |  .           .  .        .           .  .  .   
 |GTR II
d|-------------------------------------------------|
A|-------------------------------------------------|
F|-------------------------------------------------|
C|-------------------------------------------------|
G|--0-----------0--0--------0-----------0--0--0----|
C|--0-----------0--0--------0-----------0--0--0----|
    .           .  .        .           .  .  .   

  GTR I
d|--------------------------------------------8----|
A|-------10-----------------------------8----------|
F|--------------9-----7-----------7----------------|
C|-------------------------------------------------|
G|-------------------------------------------------|
C|-------------------------------------------------|
 |                       
 |GTR II
d|-------------------------------------------------|
A|-------------------------------------------10----|
F|-------10-----------------------------7----------|
C|-------------10-----8-----------8----------------|
G|-------------------------------------------------|
C|-------------------------------------------------|
 |                     
 |GTR III
d|-------------------------------------------------|
A|-------------------------------------------------|
F|-------------------------------------------------|
C|-------------------------------------------------|
G|--------5-----5-----5-----------8-----8-----8----|
C|--------5-----5-----5-----------8-----8-----8----|

Chorus

  GTR I
d|-------------------------------------------------|
A|-------------------------------------------------|
F|-------------------------------------------------|
C|--8-----8-----8-----8-----8-----8-----8-----8----|
G|--8-----8-----8-----8-----8-----8-----8-----8----|
C|--8-----8-----8-----8-----8-----8-----8-----8----|
 |
 |GTR II
d|-------------------------------------------------|
A|-------------------------------------------------|
F|-------------------------------------------------|
C|--8-----8-----8-----8-----8-----8-----8-----8----|
G|--8-----8-----8-----8-----8-----8-----8-----8----|
C|--8-----8-----8-----8-----8-----8-----8-----8----|
 |                     
 |GTR III
d|--------------5-----------------------5----------|
A|-------------------------------------------------|
F|--3-----3-----------------3-----3----------------|
C|-------------------------------------------------|
G|-------------------------------------------------|
C|-------------------------------------------------|

  GTR I
d|-------------------------------------------------|
A|-------------------------------------------------|
F|-------------------------------------------------|
C|--5-----5-----5-----5-----5-----5-----5-----5----|
G|--5-----5-----5-----5-----5-----5-----5-----5----|
C|--5-----5-----5-----5-----5-----5-----5-----5----|
 |
 |GTR II
d|-------------------------------------------------|
A|-------------------------------------------------|
F|-------------------------------------------------|
C|--5-----5-----5-----5-----5-----5-----5-----5----|
G|--5-----5-----5-----5-----5-----5-----5-----5----|
C|--5-----5-----5-----5-----5-----5-----5-----5----|
 |
 |GTR III
d|--------------5-----------------------5----------|
A|-------------------------------------------------|
F|-------------------------------------------------|
C|--5-----5-----------------5-----5----------------|
G|-------------------------------------------------|
C|-------------------------------------------------|

  GTR I
d|-------------------------------------------------|
A|-------------------------------------------------|
F|-------------------------------------------------|
C|--0-----0-----0-----0-----0-----0-----0-----0----|
G|--0-----0-----0-----0-----0-----0-----0-----0----|
C|--0-----0-----0-----0-----0-----0-----0-----0----|
 |
 |GTR II
d|-------------------------------------------------|
A|-------------------------------------------------|
F|-------------------------------------------------|
C|--0-----0-----0-----0-----0-----0-----0-----0----|
G|--0-----0-----0-----0-----0-----0-----0-----0----|
C|--0-----0-----0-----0-----0-----0-----0-----0----|
 |
 |GTR III
d|--------------5-----------------------5----------|
A|-------------------------------------------------|
F|-------------------------------------------------|
C|-------------------------------------------------|
G|--5-----5-----------------5-----5----------------|
C|-------------------------------------------------|

  GTR I
d|-------------------------------------------------|
A|-------------------------------------------------|
F|-------------------------------------------------|
C|--3-----3-----3-----3-----3-----3-----3-----3----|
G|--3-----3-----3-----3-----3-----3-----3-----3----|
C|--3-----3-----3-----3-----3-----3-----3-----3----|
 |
 |GTR II
d|-------------------------------------------------|
A|-------------------------------------------------|
F|-------------------------------------------------|
C|--3-----3-----3-----3-----3-----3-----3-----3----|
G|--3-----3-----3-----3-----3-----3-----3-----3----|
C|--3-----3-----3-----3-----3-----3-----3-----3----|
 |
 |GTR III
d|--------------5-----------------------5----------|
A|-------------------------------------------------|
F|-------------------------------------------------|
C|-------------------------------------------------|
G|--5-----5-----------------5-----5----------------|
C|-------------------------------------------------|

  GTR I
d|-------------------------------------------------|
A|-------------------------------------------------|
F|-------------------------------------------------|
C|--8-----8-----8-----8-----8-----8-----8-----8----|
G|--8-----8-----8-----8-----8-----8-----8-----8----|
C|--8-----8-----8-----8-----8-----8-----8-----8----|
 |
 |GTR II
d|-------------------------------------------------|
A|-------------------------------------------------|
F|-------------------------------------------------|
C|--8-----8-----8-----8-----8-----8-----8-----8----|
G|--8-----8-----8-----8-----8-----8-----8-----8----|
C|--8-----8-----8-----8-----8-----8-----8-----8----|
 |                     
 |GTR III
d|--------------5-----------------------5----------|
A|-------------------------------------------------|
F|--3-----3-----------------3-----3----------------|
C|-------------------------------------------------|
G|-------------------------------------------------|
C|-------------------------------------------------|

  GTR I
d|-------------------------------------------------|
A|-------------------------------------------------|
F|-------------------------------------------------|
C|--5-----5-----5-----5-----5-----5-----5-----5----|
G|--5-----5-----5-----5-----5-----5-----5-----5----|
C|--5-----5-----5-----5-----5-----5-----5-----5----|
 |
 |GTR II
d|-------------------------------------------------|
A|-------------------------------------------------|
F|-------------------------------------------------|
C|--5-----5-----5-----5-----5-----5-----5-----5----|
G|--5-----5-----5-----5-----5-----5-----5-----5----|
C|--5-----5-----5-----5-----5-----5-----5-----5----|
 |
 |GTR III
d|--------------5-----------------------5----------|
A|-------------------------------------------------|
F|-------------------------------------------------|
C|--5-----5-----------------5-----5----------------|
G|-------------------------------------------------|
C|-------------------------------------------------|

  GTR I
d|-------------------------------------------------|
A|-------------------------------------------------|
F|-------------------------------------------------|
C|--0-----0-----0-----0-----0-----0-----0-----0----|
G|--0-----0-----0-----0-----0-----0-----0-----0----|
C|--0-----0-----0-----0-----0-----0-----0-----0----|
 |
 |GTR II
d|-------------------------------------------------|
A|-------------------------------------------------|
F|-------------------------------------------------|
C|--0-----0-----0-----0-----0-----0-----0-----0----|
G|--0-----0-----0-----0-----0-----0-----0-----0----|
C|--0-----0-----0-----0-----0-----0-----0-----0----|
 |
 |GTR III
d|--------------5-----------------------5----------|
A|-------------------------------------------------|
F|-------------------------------------------------|
C|-------------------------------------------------|
G|--5-----5-----------------5-----5----------------|
C|-------------------------------------------------|

  GTR I
d|-------------------------------------------------|
A|-------------------------------------------------|
F|-------------------------------------------------|
C|--3-----3-----3-----3-----3-----3-----3-----3----|
G|--3-----3-----3-----3-----3-----3-----3-----3----|
C|--3-----3-----3-----3-----3-----3-----3-----3----|
 |
 |GTR II
d|-------------------------------------------------|
A|-------------------------------------------------|
F|-------------------------------------------------|
C|--3-----3-----3-----3-----3-----3-----3-----3----|
G|--3-----3-----3-----3-----3-----3-----3-----3----|
C|--3-----3-----3-----3-----3-----3-----3-----3----|
 |
 |GTR III
d|--------------5-----------------------5----------|
A|-------------------------------------------------|
F|-------------------------------------------------|
C|-------------------------------------------------|
G|--5-----5-----------------5-----5----------------|
C|-------------------------------------------------|

  GTR I
d|-------------------------------------------------|
A|-------------------------------------------------|
F|-10----10----10----10----10----10----10----10----|
C|--x-----x-----x-----x-----x-----x-----x-----x----|
G|--8-----8-----8-----8-----8-----8-----8-----8----|
C|-------------------------------------------------|
 |
 |GTR II
d|-------------------------------------------------|
A|-------------------------------------------------|
F|-------------------------------------------------|
C|--8-----8-----8-----8-----8-----8-----8-----8----|
G|--8-----8-----8-----8-----8-----8-----8-----8----|
C|--8-----8-----8-----8-----8-----8-----8-----8----|
 |                     
 |GTR III
d|--------------5-----------------------5----------|
A|-------------------------------------------------|
F|--3-----3-----------------3-----3----------------|
C|-------------------------------------------------|
G|-------------------------------------------------|
C|-------------------------------------------------|

  GTR I
d|-------------------------------------------------|
A|-------------------------------------------------|
F|-10-----9-----9-----9-----9-----9-----9-----9----|
C|--x-----x-----x-----x-----x-----x-----x-----x----|
G|--8-----7-----7-----7-----7-----7-----7-----7----|
C|-------------------------------------------------|
 |
 |GTR II
d|-------------------------------------------------|
A|-------------------------------------------------|
F|-------------------------------------------------|
C|--5-----5-----5-----5-----5-----5-----5-----5----|
G|--5-----5-----5-----5-----5-----5-----5-----5----|
C|--5-----5-----5-----5-----5-----5-----5-----5----|
 |
 |GTR III
d|--------------5-----------------------5----------|
A|-------------------------------------------------|
F|-------------------------------------------------|
C|--5-----5-----------------5-----5----------------|
G|-------------------------------------------------|
C|-------------------------------------------------|

  GTR I
d|-------------------------------------------------|
A|-------------------------------------------------|
F|--9-----7-----7-----7-----7-----7-----7-----7----|
C|--x-----x-----x-----x-----x-----x-----x-----x----|
G|--7-----5-----5-----5-----5-----5-----5-----5----|
C|-------------------------------------------------|
 |
 |GTR II
d|-------------------------------------------------|
A|-------------------------------------------------|
F|-------------------------------------------------|
C|--0-----0-----0-----0-----0-----0-----0-----0----|
G|--0-----0-----0-----0-----0-----0-----0-----0----|
C|--0-----0-----0-----0-----0-----0-----0-----0----|
 |
 |GTR III
d|--------------5-----------------------5----------|
A|-------------------------------------------------|
F|-------------------------------------------------|
C|-------------------------------------------------|
G|--5-----5-----------------5-----5----------------|
C|-------------------------------------------------|

  GTR I
d|-------------------------------------------------|
A|-------------------------------------------------|
F|--7-----5-----5-----5-----5-----5-----5-----5----|
C|--x-----x-----x-----x-----x-----x-----x-----x----|
G|--5-----3-----3-----3-----3-----3-----3-----3----|
C|-------------------------------------------------|
 |
 |GTR II
d|-------------------------------------------------|
A|-------------------------------------------------|
F|-------------------------------------------------|
C|--3-----3-----3-----3-----3-----3-----3-----3----|
G|--3-----3-----3-----3-----3-----3-----3-----3----|
C|--3-----3-----3-----3-----3-----3-----3-----3----|
 |
 |GTR III
d|--------------5-----------------------5----------|
A|-------------------------------------------------|
F|-------------------------------------------------|
C|-------------------------------------------------|
G|--5-----5-----------------5-----5----------------|
C|-------------------------------------------------|

  GTR I
d|-------------------------------------------------|
A|-------------------------------------------------|
F|-10----10----10----10----10----10----10----10----|
C|--x-----x-----x-----x-----x-----x-----x-----x----|
G|--8-----8-----8-----8-----8-----8-----8-----8----|
C|-------------------------------------------------|
 |
 |GTR II
d|-------------------------------------------------|
A|-------------------------------------------------|
F|-------------------------------------------------|
C|--8-----8-----8-----8-----8-----8-----8-----8----|
G|--8-----8-----8-----8-----8-----8-----8-----8----|
C|--8-----8-----8-----8-----8-----8-----8-----8----|
 |                     
 |GTR III
d|--------------5-----------------------5----------|
A|-------------------------------------------------|
F|--3-----3-----------------3-----3----------------|
C|-------------------------------------------------|
G|-------------------------------------------------|
C|-------------------------------------------------|

  GTR I
d|-------------------------------------------------|
A|-------------------------------------------------|
F|-10-----9-----9-----9-----9----10----10----10----|
C|--x-----x-----x-----x-----x-----x-----x-----x----|
G|--8-----7-----7-----7-----7-----8-----8-----8----|
C|-------------------------------------------------|
 |
 |GTR II
d|-------------------------------------------------|
A|-------------------------------------------------|
F|-------------------------------------------------|
C|--5-----5-----5-----5-----5-----5-----5-----5----|
G|--5-----5-----5-----5-----5-----5-----5-----5----|
C|--5-----5-----5-----5-----5-----5-----5-----5----|
 |
 |GTR III
d|--------------5-----------------------5----------|
A|-------------------------------------------------|
F|-------------------------------------------------|
C|--5-----5-----------------5-----5----------------|
G|-------------------------------------------------|
C|-------------------------------------------------|

Outro

d|-------------------------------------------------|
A|-------------------------------------------------|
F|-------------------------------------------------|
C|-------------------------------------------------|
G|--0-----0-----0-----0-----0-----0-----0-----0----|
C|--0-----0-----0-----0-----0-----0-----0-----0----|
 |  .     .     .     .     .     .     .     .
 |GTR II
d|-------------------------------------------------|
A|-------------------------------------------------|
F|-------------------------------------------------|
C|-------------------------------------------------|
G|--0-----0-----0-----0-----0-----0-----0-----0----|
C|--0-----0-----0-----0-----0-----0-----0-----0----|
 |  .     .     .     .     .     .     .     .
 |GTR III
d|-------------------------------------------------|
A|-------------------------------------------------|
F|-------------------------------------------------|
C|-------------------------------------------------|
G|--0-----0-----0-----0-----0-----0-----0-----0----|
C|--0-----0-----0-----0-----0-----0-----0-----0----|
    .     .     .     .     .     .     .     .

  GTR I
d|-------------------------------------------------|
A|-------------------------------------------------|
F|-------------------------------------------------|
C|-------------------------------------------------|
G|--0-----0-----0-----0-----0--0--0-----0--0--0----|
C|--0-----0-----0-----0-----0--0--0-----0--0--0----|
 |  .     .     .     .     .  .  .     .  .  .
 |GTR II
d|-------------------------------------------------|
A|-------------------------------------------------|
F|-------------------------------------------------|
C|-------------------------------------------------|
G|--0-----0-----0-----0-----0--0--0-----0--0--0----|
C|--0-----0-----0-----0-----0--0--0-----0--0--0----|
 |  .     .     .     .     .  .  .     .  .  .
 |GTR III
d|-------------------------------------------------|
A|-------------------------------------------------|
F|-------------------------------------------------|
C|-------------------------------------------------|
G|--0-----0-----0-----0-----0--0--0-----0--0--0----|
C|--0-----0-----0-----0-----0--0--0-----0--0--0----|
    .     .     .     .     .  .  .     .  .  .

d|-------------------------------------------------|
A|-------------------------------------------------|
F|-------------------------------------------------|
C|-------------------------------------------------|
G|--0-----0-----0-----0-----0-----0-----0-----0----|
C|--0-----0-----0-----0-----0-----0-----0-----0----|
 |  .     .     .     .     .     .     .     .
 |GTR II
d|-------------------------------------------------|
A|-------------------------------------------------|
F|-------------------------------------------------|
C|-------------------------------------------------|
G|--0-----0-----0-----0-----0-----0-----0-----0----|
C|--0-----0-----0-----0-----0-----0-----0-----0----|
 |  .     .     .     .     .     .     .     .
 |GTR III
d|-------------------------------------------------|
A|-------------------------------------------------|
F|-------------------------------------------------|
C|-------------------------------------------------|
G|--0-----0-----0-----0-----0-----0-----0-----0----|
C|--0-----0-----0-----0-----0-----0-----0-----0----|
    .     .     .     .     .     .     .     .

  GTR I
d|-------------------------------------------------|
A|-------------------------------------------------|
F|-------------------------------------------------|
C|-------------------------------------------------|
G|--0-----0-----0-----0----------------------------|
C|--0-----0-----0-----0----------------------------|
 |  .     .     .     .                        
 |GTR II
d|-------------------------------------------------|
A|-------------------------------------------------|
F|-------------------------------------------------|
C|-------------------------------------------------|
G|--0-----0-----0-----0----------------------------|
C|--0-----0-----0-----0----------------------------|
 |  .     .     .     .                        
 |GTR III
d|-------------------------------------------------|
A|-------------------------------------------------|
F|-------------------------------------------------|
C|-------------------------------------------------|
G|--0-----0-----0-----0----------------------------|
C|--0-----0-----0-----0----------------------------|
    .     .     .     .                        


| /  slide up
| \  slide down
| h  hammer-on
| p  pull-off
| ~  vibrato
| +  harmonic
| x  Mute note
===============================================================================

comments
We did not receive enough feedback on this tab! Please rate:
print report bad tab
1 2 3 4 5
4 comments total. Showing first comments.
0 reply
elleild wrote on February 9 2010, 10:54 am

Not good at all, the intro is picking and the octaves are really off

0 reply
Chickenboot wrote on February 9 2010, 04:01 pm

The Intro is picking, as I tabbed it, and there are two guitars playing different octaves, I know this because I split up the song and heard both.

0 reply
elleild wrote on February 11 2010, 08:22 pm

oh well, the intro goes like this

d|-------------------------------------------------------|
A|-------10-----------10-----------10-----------10-------|
F|----10----10-----10----10-----10----10-----10----10----|
C|--8------------8---------------------------------------|
G|---------------------------10-----------10-------------|
C|-------------------------------------------------------|

d|-------------------------------------------------------|
A|-------10-----------10-----------10-----------10-------|
F|----10----10-----10----10-----10----10-----10----10----|
C|--0------------0------------0------------0-------------|
G|-------------------------------------------------------|
C|-------------------------------------------------------|

d|---------------------------------------------------------|
A|-------10-----------10-----------10-----------10-----10~-|
F|----10----10-----10----10-----10----10-----10----10--10~-|
C|--8------------8--------------------------------------0~-|
G|---------------------------10-----------10---------------|
C|---------------------------------------------------------|

I want to post or [tab]
guest
You may want to rate the tab now too:
select rating
Please do not post tabs as comments. Select "correction" instead!