Oops, an error
Loading. Please wait.

Homesick Tab

ver1
ver1

Album

Whole song

Interactive

More versions @911Tabs.com
31,793 views 56 this week
3 commentsread comments
1 2 3 4 5
accurate
x 8
Autoscroll
+/-
esc
set tempo
stop
Contributor
Difficulty
Tuning
intermediate
C G C F A D
Hey! There's an official Ultimate Guitar app which is ideal
for learning songs when you're away from computer. Get the app
WARNING: You are trying to view
                                    content from Ultimate-Guitar.com
                                    in an unauthorized application,
                                    which is prohibited.

                                    Please use an official Ultimate
                                    Guitar Tabs application for iPhone,
                                    iPad or Android to access legitimate
                                    chords, guitar, bass, and drum tabs
                                    from Ultimate-Guitar.com database.

                                    Type "ultimate guitar tabs" in Apple
                                    App Store's or Android Market's
                                    search to find the application.
I DID NOT TAB ANY OF THESE TABS! I just copied and pasted them by the highest rating and feedback.

I would like to give all the credit to:

1. The Downfall Of Us All - Unregistered
2. My Life For Hire - JessicaGonzo
3. I'm Made Of Wax, Larry, What Are You Made Of? - WackyWesty
4. NJ Legion Iced Tea - WackyWesty
5. Mr. Highway's Thinking About The End - jonathanonfire
6. Have Faith In Me - WackyWesty
7. Welcome To The Family - Morve38
8. Homesick - WackyWesty
9. Holdin' It Down For The Underground - Unregistered
10. You Already Know What You Are - Nadnerb23
11. Another Song For The Weekend - Kyle|777|
12. If It Means A Lot To You - Unregistered

*Welcome To The Family is a Guitar Pro tab


1. THE DOWNFALL OF US ALL

Drop C

Thanks to The Poison7337 for the intro and first verse
thanks to YeahRightMilk for the second verse

Intro

(:07-:21)
D|---------------------------------------------------------------------|
A|---------------------------------------------------------------------|
F|---------------------------------------------------------------------|
C|-00000000-00-00--0-0-0--00-00--99999999-99-99--55-55-55--------------|
G|-00000000-00-00--0-0-0--00-00--99999999-99-99--55-55-55----4---------|
C|-00000000-00-00--0-0-0--00-00--99999999-99-99--55-55-55-5h7----------|
   ........ .. ..  . . .  .. ..  ........ .. ..  .. .. ..


D|---------------------------------------------------------------------|
A|---------------------------------------------------------------------|
F|---------------------------------------------------------------------|
C|-00000000-00-00--0-0-0--00-00--99999999-99-99--55-55-55--5555--------|
G|-00000000-00-00--0-0-0--00-00--99999999-99-99--55-55-55--5555--------|
C|-00000000-00-00--0-0-0--00-00--99999999-99-99--55-55-55--5555--------|
   ........ .. ..  . . .  .. ..  ........ .. ..  .. .. ..  ....

Verse

()= optional, don't put a lot of emphasis on them if you use them.
(:21-:36)
D|-----------------------|
A|-(3)--(12)---(8)-------|
F|-(2)--(12)---(7)-------|  x2
C|--0----9------5--------|
G|--0----9------5--------|
C|--0----9------5--------|

Prechorus
(:37-:48)
D|----------------------------------------|
A|----------------------------------------|
F|----------------------------------------|  
C|-9-----5-----0-----2-----9-----5--------|
G|-9-x8--5-x6--0-x14-2-x2--9-x8--5-x6-----|
C|-9-----5-----0-----2-----9-----5--------|
                                 .
 
Chorus
(:48-1:05)
D|------------------------------------|
A|------------------------------------|
F|------------------------------------|  x3
C|-0-0-0-2-0-0-0-5-0-0-7-7-7-7-7-7----|
G|-0-0-0-2-0-0-0-5-0-0-7-7-7-7-7-7----|
C|-0 0-0-2-0-0-0-5-0-0-7-7-7-7-7-7----|

D|----------------------------|
A|----------------------------|
F|----------------------------|  
C|-2----5---------------------|
G|-2-x8-5-x2------------------|
C|-2----5-------------~-------|

Intro (1:07-1:21)

pickslide into the verse

Verse 2
(1:22-1:27)
D|-----------------------|
A|-(3)--(12)---(8)-------|
F|-(2)--(12)---(7)-------|  
C|--0----9------5--------|
G|--0----9------5--------|
C|--0----9------5--------|
(1:28-1:35)
D|--------------------------------------------------------------------|
A|--------------------------------------------------------------------|
F|--------------------------------------------------------------------|
C|-------4h5-----4h5-----7h4-----4h5-----4h5-----4h5-----2h4-----4h5--|
G|--------------------------------------------------------------------|
C|---0-0-----------------------------0-0------------------------------|

D|--------------------------------------------------------------------|
A|--------------------------------------------------------------------|
F|--------------------------------------------------------------------|
C|-------4h5-----4h5-----7h4-----4h5-----4h5-----4h5-----2h4-----4h5--|
G|--------------------------------------------------------------------|
C|---9-9-------------9-9--------------5-5------------5-5--------------|

Prechorus
(1:36-1:46)
D|----------------------------------------|
A|----------------------------------------|
F|----------------------------------------|  
C|-9-----5-----0-----2-----9-----5--------|
G|-9-x8--5-x6--0-x14-2-x2--9-x8--5--------|
C|-9-----5-----0-----2-----9-----5--------|

Chorus (1:47-2:04)

Breakdown                         not too sure about this
                                            | | |
(2:05-2:35)                                 v v v
D|-----------------------------------------------------------|
A|-----------------------------------------------------------|
F|-------12-11-------12-11--------12-11-----7-6-7------------|  x2
C|-0------x-x---0-----x-x---5------x-x---7--x-x-x------------|
G|-0-x4--10/9---0-x4-10/9---5-x4--10/9---7--5/4/5------------|
C|-0------------0-----------5------------7-------------------|

D|-----------------------------------------------------------|
A|-----------------------------------------------------------|
F|-------12-11-------12-11--------12-11----------------------|  x2
C|-0------x-x---0-----x-x---5------x-x---7-7-7-7---7-7-7-----|
G|-0-x4--10/9---0-x4-10/9---5-x4--10/9---7-7-7-7---7-7-7-----|
C|-0------------0-----------5------------7-7-7-7---7-7-7-----|
   .            .           .            . . . .   . . .


Bridge
2:36-2:42)
D|----------------------------------------|
A|----------------------------------------|
F|----------------------------------------|   x2
C|----------------------------------------|
G|----------------------------------------|
C|-0 0-0-2-0-0-0-5-0-0-7-7-7-7-7-7--------|

Chorus
(2:43-3:04)
D|-------------------------------------|
A|-------------------------------------|
F|-------------------------------------|
C|-0-0-0-2-0-0-0-5-0-0-7-7-7-7-7-7-----|
G|-0-0-0-2-0-0-0-5-0-0-7-7-7-7-7-7-----|
C|-0 0-0-2-0-0-0-5-0-0-7-7-7-7-7-7-----|
(3:05-3:10)
D|----------------------------|
A|----------------------------|
F|----------------------------|  
C|-2----5------2-----5~-------|
G|-2-x8-5-x8---2-x8--5~-------|
C|-2----5------2-----5~-------|

Intro(3:11-3:27)


D|---------------------------------------------------------------------|
A|---------------------------------------------------------------------|
F|---------------------------------------------------------------------|
C|-00000000-00-00--0-0-0--00-00--99999999-99-99--55-55-55--------------|
G|-00000000-00-00--0-0-0--00-00--99999999-99-99--55-55-55--------------|
C|-00000000-00-00--0-0-0--00-00--99999999-99-99--55-55-55--------------|
   ........ .. ..  . . .  .. ..  ........ .. ..  .. .. ..


D|---------------------------------------------------------------------|
A|---------------------------------------------------------------------|
F|---------------------------------------------------------------------|
C|-00000000-00-00--0-0-0--00-00--99999999-99-99--55-55-55--5555--------|
G|-00000000-00-00--0-0-0--00-00--99999999-99-99--55-55-55--5555--------|
C|-00000000-00-00--0-0-0--00-00--99999999-99-99--55-55-55--5555--------|
   ........ .. ..  . . .  .. ..  ........ .. ..  .. .. ..  ....


2. MY LIFE FOR HIRE

Tunning: Drop C


Intro
D|---------------------------------------------------------------------------|
A|--------------------------------------13131313131313111111111111101010-----| x2
F|--10101010101010-9--10101010101010-9---x-x-x-x-x-x-x-x-x-x-x-x-x-x-x-x-----|
C|---x-x-x-x-x-x-x-x---x-x-x-x-x-x-x-x--10101010101010-8-8-8-8-8-8-7-7-7-----|
G|---8-8-8-8-8-8-8-7---8-8-8-8-8-8-8-7---------------------------------------|
C|---------------------------------------------------------------------------|

Verse
D|---------------------------------------------------------------------------|
A|---------------------------------------------------------------------------|x2
F|---------------------------------------------------------------------------|
C|---------------------------------------------------------------------------|
G|-0-000-0-000-000000-8-888-5-555-55555--------------------------------------|
C|-0-000-0-000-000000-8-888-5-555-55555--------------------------------------|
PM . ... . ... ...... . ... . ... .....

D|---------------------------------------------------------------------------|
A|-------------------------------1313-13131313--1111--11111110---------------|x2
F|-1010-1010109---1010-1010109----x-x--x-x-x-x---x-x--x-x-x-x----------------|
C|--x-x--x-x-xx----x-x--x-x-xx---1010-10101010---8-8--8-8-8-7----------------|
G|--8-8--8-8-87----8-8--8-8-87-----------------------------------------------|
C|---------------------------------------------------------------------------|

Pre-Chorus
D|---------------------------------------------------------------------------|
A|---------------------------------------------------------------------------|
F|-------------------------------77777777777---1010101010101010--------------|
C|--8888888888--10101010101010---77777777777---1010101010101010--------------|
G|--8888888888--10101010101010---55555555555----8-8-8-8-8-8-8-8--------------|
C|--8888888888--10101010101010-----------------------------------------------|

D|---------------------------------------------------------------------------|
A|---------------------------------------------------------------------------|
F|---------------------------------------------------------------------------|
C|--8888888888--10101010101010---11------------------------------------------|
G|--8888888888--10101010101010---11------------------------------------------|
C|--8888888888--10101010101010---11------------------------------------------|

Chorus
D|---------------------------------------------------------------------------|
A|------------------------------13131313131313111111111111101010-------------|
F|--77777777-999999--10101010----x-x-x-x-x-x-x-x-x-x-x-x-x-x-x-x-------------|
C|--xxxxxxxx-xxxxxx--x-x-x-x----10101010101010-8-8-8-8-8-8-7-7-7-------------|
G|--55555555-777777--8-8-8-8-------------------------------------------------|
C|---------------------------------------------------------------------------|

D|---------------------------------------------------------------------------|
A|---------------------------------------------------------------------------|
F|-10101010101010--121212--141414--12121212121212--99999---------------------|
C|--x-x-x-x-x-x-x---x-x-x---x-x-x--x-x-x-x-x-x-x--xxxxx----------------------|
G|--8-8-8-8-8-8-8--101010--121212--10101010101010--77777---------------------|
C|---------------------------------------------------------------------------|

D|---------------------------------------------------------------------------|
A|---------------------------------------------------------------------------|
F|-1010-1010109--1010-1010109------------------------------------------------|
C|--x-x--x-x-xx---x-x--x-x-xx------------------------------------------------|
G|--8-8--8-8-87---8-8--8-8-87------------------------------------------------|
C|---------------------------------------------------------------------------|

Verse
D|---------------------------------------------------------------------------|
A|---------------------------------------------------------------------------|x2
F|---------------------------------------------------------------------------|
C|---------------------------------------------------------------------------|
G|-0-000-0-000-000000-8-888-5-555-55555--------------------------------------|
C|-0-000-0-000-000000-8-888-5-555-55555--------------------------------------|
PM . ... . ... ...... . ... . ... .....

D|---------------------------------------------------------------------------|
A|-------------------------------1313-13131313--1111--11111110---------------|x2
F|-1010-1010109---1010-1010109----x-x--x-x-x-x---x-x--x-x-x-x----------------|
C|--x-x--x-x-xx----x-x--x-x-xx---1010-10101010---8-8--8-8-8-7----------------|
G|--8-8--8-8-87----8-8--8-8-87-----------------------------------------------|
C|---------------------------------------------------------------------------|

Pre-Chorus
D|---------------------------------------------------------------------------|
A|---------------------------------------------------------------------------|
F|-------------------------------77777777777---1010101010101010--------------|
C|--8888888888--10101010101010---77777777777---1010101010101010--------------|
G|--8888888888--10101010101010---55555555555----8-8-8-8-8-8-8-8--------------|
C|--8888888888--10101010101010-----------------------------------------------|

D|---------------------------------------------------------------------------|
A|---------------------------------------------------------------------------|
F|---------------------------------------------------------------------------|
C|--8888888888--10101010101010---11------------------------------------------|
G|--8888888888--10101010101010---11------------------------------------------|
C|--8888888888--10101010101010---11------------------------------------------|

Chorus
D|---------------------------------------------------------------------------|
A|------------------------------13131313131313111111111111101010-------------|
F|--77777777-999999--10101010----x-x-x-x-x-x-x-x-x-x-x-x-x-x-x-x-------------|
C|--xxxxxxxx-xxxxxx--x-x-x-x----10101010101010-8-8-8-8-8-8-7-7-7-------------|
G|--55555555-777777--8-8-8-8-------------------------------------------------|
C|---------------------------------------------------------------------------|

D|---------------------------------------------------------------------------|
A|---------------------------------------------------------------------------|
F|-10101010101010--121212--141414--12121212121212--99999---------------------|
C|--x-x-x-x-x-x-x---x-x-x---x-x-x--x-x-x-x-x-x-x--xxxxx-----0~---------------|
G|--8-8-8-8-8-8-8--101010--121212--10101010101010--77777----0~---------------|
C|----------------------------------------------------------0----------------|

Brutal Breakdown (its the top two open strings just figure out the strumming pattern, its not hard)
D|----------------------------------------------------|-----------------------|
A|----------------------------------------------------|-----------------------|
F|----------------------------------------------------|-----------------------|
C|----------------------------------------------------|-8-10-11---------------|
G|-0-000000--000000000--0-000000----------------------|-8-10-11---------------|
C|-0-000000--000000000--0-000000----------------------|-8-10-11---------------|
PM . ......  .........  . ......                        After Breakdown

Chorus
D|---------------------------------------------------------------------------|
A|------------------------------13131313131313111111111111101010-------------|
F|--77777777-999999--10101010----x-x-x-x-x-x-x-x-x-x-x-x-x-x-x-x-------------|
C|--xxxxxxxx-xxxxxx--x-x-x-x----10101010101010-8-8-8-8-8-8-7-7-7-------------|
G|--55555555-777777--8-8-8-8-------------------------------------------------|
C|---------------------------------------------------------------------------|

D|---------------------------------------------------------------------------|
A|---------------------------------------------------------------------------| Play through
F|-10101010101010--121212--141414--12121212121212--99999---------------------| Chorus twice.
C|--x-x-x-x-x-x-x---x-x-x---x-x-x--x-x-x-x-x-x-x--xxxxx----------------------|
G|--8-8-8-8-8-8-8--101010--121212--10101010101010--77777---------------------|
C|---------------------------------------------------------------------------|

Outro
D|---------------------------------------------------------------------------|
A|---------------------------------------------------------------------------|
F|-------------------------------77777777777---1010101010101010--------------|
C|--8888888888--10101010101010---77777777777---1010101010101010--------------|
G|--8888888888--10101010101010---55555555555----8-8-8-8-8-8-8-8--------------|
C|--8888888888--10101010101010-----------------------------------------------|

D|---------------------------------------------------------------------------|
A|---------------------------------------------------------------------------|
F|---------------------------------------------------------------------------|
C|--8888888888--10-----------------------------------------------------------|
G|--8888888888--10-----------------------------------------------------------|
C|--8888888888--10-----------------------------------------------------------|


3. I'M MADE OF WAX, LARRY, WHAT ARE YOU MADE OF?

*UPDATE*
JUST SO PEOPLE KNOW THIS SONG IS ACTUALLY MEANT TO BE PLAYED IN DROP C!!! I TABBED IT IN
D BECAUSE I REMEMBER HOW ANNOYING IT WAS TO TUNE DROP C WHEN I WAS STARTING OUT PLAYING GUITAR!

THIS SONG DOESNT GO PASSED 0 IN D, SO I THOUGHT IT WOULD BE POINTLESS TABBING IT IN C!!!
NOT THAT I CANT TUNE IT, BECAUSE IF YOU SEE ALL OF MY OTHER ADTR TABS THEY ARE ALL IN
C!!! (sorry about the rant)

If you are already in drop C and dont want to tab it to D just play my tabs but two 
(so 5 would be 7 in drop C)higher and it will sound IDENTICAL!!! (well slightly heavier)

Just letting people know so i dont get more pissy comments!

This is my first tab! If there are any problems or if you have any corrections do
not hesitate to contact me. RATE!!! :)

This song is off their new album Homesick! Its so good!

Tabbed by: Aaron West
Email: Wacky_Westy@hotmail.com

Drop D Tuning.
Rhythm Guitar.

Key
(11)1’s Not 11’s, there are not 11’s in the song.
(X) Mutes.
(.) Palm Mutes.
(^) Bend String.
(~) Hold Note.

Intro (0:00)

e:----------------------------------------------------------------------|
b:----------------------------------------------------------------------|
g:------------------------------------3333333333333333------------------|
D:-55555555555555555-1111111111111111-3333333333333333-3333333333333333-|
A:-55555555555555555-1111111111111111-1111111111111111-3333333333333333-|
D:-55555555555555555-1111111111111111------------------3333333333333333-|

Verse 1 (0:11)

e:-----------------------------------------------------|
b:-----------------------------------------------------|
g:----------------------------------------55x55x-------|
D:-88x88x88x88x-77x77x77x77x-11x11x11x11x-55x55x-77x77-|
A:-55x55x55x55x-44x44x44x44x-11x11x11x11x-33x33x-77x77-|
D:-55x55x55x55x-44x44x44x44x-11x11x11x11x--------77x77-|

Pre Chorus 1 (0:24)

e:--------------------------------------|
b:--------------------------------------|
g:--------------------------------------|
D:-555-8888-44444444-111111111-44444444-|
A:-555-8888-44444444-111111111-44444444-|
D:-555-8888-44444444-111111111-44444444-|

e:--------------------------------------|
b:--------------------------------------|
g:--------------------------------------|
D:-555-8888-44444444-111111111-44444444-|
A:-555-8888-44444444-111111111-44444444-|
D:-555-8888-44444444-111111111-44444444-|
/:-----------------------------........-|

Chorus 1 (0:36)

e:----------------------------------------------------------------------|
b:----------------------------------------------------------------------|
g:------------------------------------3333333333333333------------------|
D:-55555555555555555-1111111111111111-3333333333333333-3333333333333333-|
A:-55555555555555555-1111111111111111-1111111111111111-3333333333333333-|
D:-55555555555555555-1111111111111111------------------3333333333333333-|

(0:47)

e:-------------2^(x6)-|
b:--------------------|
g:-33x333x333x3-------|
D:-33x333x333x3-------|
A:-11x111x111x1-------|
D:--------------------|

Verse 2 (0:51)

e:------------------------------------------------------|
b:------------------------------------------------------|
g:---------------------------33x33x33x33x-55x55x--------|
D:-88x88x88x88x-77x77x77x77x-33x33x33x33x-55x55x-77x77x-|
A:-55x55x55x55x-44x44x44x44x-11x11x11x11x-33x33x-77x77x-|
D:-55x55x55x55x-44x44x44x44x---------------------77x77x-|

Pre Chorus 2 (1:03)

e:--------------------------------------|
b:--------------------------------------|
g:--------------------------------------|
D:-555-8888-44444444-111111111-44444444-|
A:-555-8888-44444444-111111111-44444444-|
D:-555-8888-44444444-111111111-44444444-|

e:--------------------------------------|
b:--------------------------------------|
g:--------------------------------------|
D:-555-8888-44444444-111111111-44444444-|
A:-555-8888-44444444-111111111-44444444-|
D:-555-8888-44444444-111111111-44444444-|
/:-------------------.........-........-|

Chorus 2 (1:15)

e:----------------------------------------------------------------------|
b:----------------------------------------------------------------------|
g:------------------------------------3333333333333333------------------|
D:-55555555555555555-1111111111111111-3333333333333333-3333333333333333-| (x2)
A:-55555555555555555-1111111111111111-1111111111111111-3333333333333333-|
D:-55555555555555555-1111111111111111------------------3333333333333333-|

Bridge (1:39)

e:--------------------------------------------------------------|
b:--------------------------------------------------------------|
g:-----(bass-line)-----(bass-line)------------------------------|
D:-555-------------555-------------5~-----555-1111-44-|  *Cough-|(x2)
A:-555-------------555-------------5~-----555-1111-44-----------|
D:-555-------------555-------------5~-----555-1111-44-----------|
/:----------------------------------------...-....-..-----------|

Breakdown (1:53)

e:---------------------------------------|
b:---------------------------------------|
g:---------------------------------------|
D:-555-8888-444444444-555-1111-444444444-| (x2)
A:-555-8888-444444444-555-1111-444444444-|
D:-555-8888-444444444-555-1111-444444444-|

e:-----------------------------------------|
b:-----------------------------------------|
g:-----------------------------------------|
D:-----------------------------------------|
A:-----------------------------------------|
D:-555-8888-4444-00000-555-1111-4444-00000-|

e:-------------------------------------|
b:-------------------------------------|
g:-------------------------------------|
D:-55~-88~-44~-00000-55~-11~-44~-00000-|
A:-55~-88~-44~-00000-55~-11~-44~-00000-|
D:-55~-88~-44~-00000-55~-11~-44~-00000-|

Chorus 3 (2:23)

e:---------------------------------------------------------------------|
b:---------------------------------------------------------------------|
g:-----------------------------------3333333333333333------------------|
D:-3-5-35-35-355-88-1111111111111111-3333333333333333-3333333333333333-|
A:------------------1111111111111111-1111111111111111-3333333333333333-|
D:------------------1111111111111111------------------3333333333333333-|
   ^^^^^^^^^^^^^^^^^^
  (I think this is the leads part but rhythm can do it as well)

e:----------------------------------------------------------------------|
b:----------------------------------------------------------------------|
g:------------------------------------3333333333333333------------------|
D:-55555555555555555-1111111111111111-3333333333333333-3333333333333333-|
A:-55555555555555555-1111111111111111-1111111111111111-3333333333333333-|
D:-55555555555555555-1111111111111111------------------3333333333333333-|

Outro

e:--------------------|
b:--------------------|
g:--------------------|
D:-35-35-35-355-88--5-| (This parts a bit messy)
A:------------------5-|
D:------------------5-|

Intro
Verse 1
Pre Chorus 1
Chorus 1
Verse 2
Pre Chorus 2
Chorus 2
Bridge
Breakdown
Chorus 3
Outro


4. NJ LEGION ICED TEA

Another song off A Day To Remembers awesome album Homesick!

My Third Tab!

Again if theres any problems and you think you know the corrections just let me know!
:)

Tabbed by: Aaron West
Email: Wacky_Westy@hotmail.com

Drop C Tuning.
Rhythm Guitar & Lead

(Lead follows rhyhtem apart from the parts ive tab separately)

Key
(X) Mutes.
(.) Palm Mutes.
(~) Hold Note.
(/) Slide up to. Don’t count the ones under the string
    Letters.

Instead of redoing every chorus ive just put parts in which tell you to repeat certain
They should be easy to follow!

Listen carefully to the song to find out the strumming patterns.


Intro (0:00)

D:---------------------------------|
A:---------------------------------| (x1) For Rhythem Guitar
F:-6-6-6/7-7-7-7/14141414/11111111-|
C:-x-x-x-x-x-x-x-x-x-x-x--x-x-x-x--|
G:-4-4-4/5-5-5-5/12121212/9-9-9-9--| (x5) For Lead Guitar
C:---------------------------------|

D:---------------------------------|
A:---------------------------------|
F:---------------------------------|
C:-9999999-5555555-0000000-7777777-| (x2)
G:-9999999-5555555-0000000-7777777-|
C:-9999999-5555555-0000000-7777777-|


Verse (0:16)

D:--------------------------------------------------|
A:--------------------------------------------------|
F:--------------------------------------------------|
C:--------------------------------------------------|
G:-000-000-00000-12-000-12-000-000-00000-12-000-12--|
C:-000-000-00000----000----000-000-00000----000-----|
/:-...-...-.....----...----...-...-.....----...-----|

D:-----------------|
A:-----------------|
F:-----------------|
C:-9999999-5555555-|
G:-9999999-5555555-|
C:-9999999-5555555-|

D:--------------------------------------------------|
A:--------------------------------------------------|
F:--------------------------------------------------|
C:--------------------------------------------------|
G:-000-000-00000-12-000-12-000-000-00000-12-000-12--|
C:-000-000-00000----000----000-000-00000----000-----|

D:-----------------|
A:-----------------|
F:-----------------|
C:-5555555-7777777-|
G:-5555555-7777777-|
C:-5555555-7777777-|


Pre Chorus (0:35)

D:----------------------------------|
A:----------------------------------|
F:----------------------------------|
C:-99-999-9-9-9-99--77-777-7-7-7-77-|
G:-99-999-9-9-9-99--77-777-7-7-7-77-|
C:-99-999-9-9-9-99--77-777-7-7-7-77-|

[Rhythm] Im not sure about the fours? (0:42)

D:----------------------------------|
A:----------------------------------|
F:----------------------------------|
C:-4444444-4444444-5555555-7777777--|
G:-4444444-4444444-5555555-7777777--|
C:-4444444-4444444-5555555-7777777--|

[Lead]

D:----------------------|
A:-15-14----12----------|
F:-------14----14-12-11-| (x4)
C:----------------------|
G:----------------------|
C:----------------------|


Chorus (0:48)

D:---------------------------------|
A:---------------------------------| (x1) For Rhythem Guitar
F:-6-6-6/7-7-7-7/14141414/11111111-|
C:-x-x-x-x-x-x-x-x-x-x-x--x-x-x-x--|
G:-4-4-4/5-5-5-5/12121212/9-9-9-9--| (x5) For Lead Guitar
C:---------------------------------|

D:---------------------------------|
A:---------------------------------|
F:---------------------------------|
C:-9999999-5555555-0000000-7777777-| (x2)
G:-9999999-5555555-0000000-7777777-|
C:-9999999-5555555-0000000-7777777-|

|------------|
   (Repeat)

    Verse     (1:04)

  Pre Chorus  (1:23)
|------------|


Chorus 2 (1:36)

D:---------------------------------|
A:---------------------------------| (x1) For Rhythem Guitar
F:-6-6-6/7-7-7-7/14141414/11111111-|
C:-x-x-x-x-x-x-x-x-x-x-x--x-x-x-x--|
G:-4-4-4/5-5-5-5/12121212/9-9-9-9--| (x9) For Lead Guitar

D:---------------------------------|
A:---------------------------------|
F:---------------------------------|
C:-9999999-5555555-0000000-7777777-| (x8)
G:-9999999-5555555-0000000-7777777-|
C:-9999999-5555555-0000000-7777777-|


Bridge (2:05)

[Rhythm]

D:---------------------------------|
A:---------------------------------|
F:---------------------------------|
C:-2-2222222222222-5-5555555555555-|
G:-2-2222222222222-5-5555555555555-|
C:-2-2222222222222-5-5555555555555-|
/:---.............---.............-|

D:------------------------------------|
A:------------------------------------|
F:------------------------------------|
C:-9-999999-7-777777-5-55555555555-55-|
G:-9-999999-7-777777-5-55555555555-55-|
C:-9-999999-7-777777-5-55555555555-55-|
/----......---......---...........----|

This time round there are extra stums.
Ive tabbed it to what I think sounds right!
Its easier to understand if you listen to the song.

(2:19)
D:-----------------------------------|
A:-----------------------------------|
F:-----------------------------------|
C:-2-222222-2-2-2-2-2-222222-2-2-2-2-|
G:-2-222222-2-2-2-2-2-222222-2-2-2-2-|
C:-2-222222-2-2-2-2-2-222222-2-2-2-2-|
/:---...............................-|

D:-----------------------------------|
A:-----------------------------------|
F:-----------------------------------|
C:-5-555555-5-5-5-5-5-555555-5-5-5-5-|
G:-5-555555-5-5-5-5-5-555555-5-5-5-5-|
C:-5-555555-5-5-5-5-5-555555-5-5-5-5-|
/:---...............................-|

D:------------------------------------|
A:------------------------------------|
F:------------------------------------|
C:-9-999999-7-777777-5-55555555555-5~-|
G:-9-999999-7-777777-5-55555555555-5~-|
C:-9-999999-7-777777-5-55555555555-5~-|
/----......---......---...........----|

[Lead] (2:05)

D:----------------------------------|
A:----------------------------------|
F:-7-7-7/6-6-6-6-6/7-7-7-7-14141414-| (x2)
C:-x-x-x-x-x-x-x-x-x-x-x-x-x-x-x-x--|
G:-5-5-5/4-4-4-4-4/5-5-5-5-12-12-12-|
C:----------------------------------|

D:---------------------------------|
A:---------------------------------|
F:-7-7-7-7-7-7-7-7-7/6-6-6-6/7-7-7-|
C:-x-x-x-x-x-x-x-x-x-x-x-x-x-x-x-x-| (2:18)
G:-5-5-5-5-5-5-5-5-5/4-4-4-4/5-5-5-|
C:---------------------------------|

D:---------------------------------|
A:---------------------------------|
F:-9-9-9-9-9-9-9-9-9/7-7-7-7-111111|
C:-x-x-x-x-x-x-x-x-x-x-x-x-x-x-x-x-| (2:21)
G:-7-7-7-7-7-7-7-7-7/5-5-5-5-9-9-9-|
C:---------------------------------|

D:-------------------------------------|
A:-------------------------------------|
F:-1212121212121212/111111111111111----|
C:-x-x-x-x-x-x-x-x-x-x-x-x-x-x-x-x--5~-| (2:25)
G:-1010101010101010/9-9-9-9-9-9-9-9-5~-|
C:----------------------------------5~-|


Breakdown (2:31)

D:-----------------------|
A:-----------------------|
F:-----------------------|
C:-----------------------| (x4)
G:-----------------------|
C:-0-00-00--0-00-0000000-|
/:-.-..-..--.-..-.......-|


Chorus 3  (2:45)

D:---------------------------------|
A:---------------------------------| (x1) For Rhythem Guitar
F:-6-6-6/7-7-7-7/14141414/11111111-|
C:-x-x-x-x-x-x-x-x-x-x-x--x-x-x-x--|
G:-4-4-4/5-5-5-5/12121212/9-9-9-9--| (x5) For Lead Guitar
C:---------------------------------|

D:---------------------------------|
A:---------------------------------|
F:---------------------------------|
C:-9999999-5555555-0000000-7777777-| (x4)
G:-9999999-5555555-0000000-7777777-|
C:-9999999-5555555-0000000-7777777-|

[Lead] (3:01)

D:----------------------|
A:-15-14----12----------|
F:-------14----14-12-11-| (x8)
C:----------------------|
G:----------------------|
C:----------------------|


One Final Chorus (3:14)

[Rhythm]

D:--------------------------------------|
A:--------------------------------------|
F:--------------------------------------|
C:-9999999-5555555-0000000-7777-77---0~-|
G:-9999999-5555555-0000000-7777-77---0~-|
C:-9999999-5555555-0000000-7777-77---0~-|

[Lead]

D:----------------------|
A:-15-14----12----------|
F:-------14----14-12-11-| (x4) (On the last time dont play the last note)
C:----------------------|
G:----------------------|
C:----------------------|

This was pretty arkward to tab out!
Sorry I couldn't tab out the breakdown better.
It should be readable though but if not just keep
listening to the song until you've got it!

I think ive got the lead guitar right!

Hope You Enjoy Playing It!

Intro
Verse 1
Pre Chorus 1
Chorus 1
Verse 2
Pre Chorus 2
Chorus 2
Bridge
Breakdown
Chorus 3
One Final Chorus


5. MR. HIGHWAY'S THINKING ABOUT THE END

MR. HIGHWAY'S THINKING ABOUT THE END
As recorded by A Day To Remember
(From the 2009 Album HOMESICK)

Transcribed by Jonathan Roseboom


Words and Music by A Day To Remember
Arranged by Jonathan Roseboom

Gtr I (Bb F Bb Eb G C) - 'Left Channel'
Gtr II (Bb F Bb Eb G C) - 'Right Channel'
Gtr III (Bb F Bb Eb G C) - 'Clean Left'
Gtr IV (Bb F Bb Eb G C) - 'Clean Right'
Gtr V (Bb F Bb Eb G C) - 'Strings'

 Intro
  Pop Mosh Q=138
  N.C.
 4/4
  Gtr III
  E E E  E  E E E E   E E E  E  E E E E
|-----------0-------|-----------0-------|
|-----6-------6---6-|-----6-------6---6-|
|-7-7---(7)-----7---|-7-7---(7)-----7---|
|-------------------|-------------------|
|-------------------|-------------------|
|-------------------|-------------------|


  E E E  E  E E E E   E E E  E  E E E E
|-----------0-------|-----------0-------|
|-----6-------6---6-|-----6-------6---6-|
|-7-7---(7)-----7---|-7-7---(7)-----7---|
|-------------------|-------------------|
|-------------------|-------------------|
|-------------------|-------------------|


  D5
  Gtr III
  E E E   E  E E E E    E  E E  E  E   E E   E
|------------0-------|-------------0-----------|
|-----6--------6---6-|-------6---------6-----6-|
|-7-7----(7)-----7---|--7--7---(7)-------7-----|
|--------------------|-------------------------|
|--------------------|-------------------------|
|--------------------|-------------------------|
|
| Gtrs I, II
| PM--------------------------------------------
| E E Q.       E E E   +H          S S E S S E
|--------------------|-------------------------|
|--------------------|-------------------------|
|--------------------|-------------------------|
|--------------------|-------------------------|
|-0-0-0--------0-0-0-|-(0)---------0-0-0-0-0-0-|
|-0-0-0--------0-0-0-|-(0)---------0-0-0-0-0-0-|


  E E E   E  E E E E    E  E E  E  E   E E   E
|------------0-------|-------------0-----------|
|-----6--------6---6-|-------6---------6-----6-|
|-7-7----(7)-----7---|--7--7---(7)-------7-----|
|--------------------|-------------------------|
|--------------------|-------------------------|
|--------------------|-------------------------|
|
|--------------------------------------------|
| E E Q.       E E E   +H          S S E S S E
|--------------------|-------------------------|
|--------------------|-------------------------|
|--------------------|-------------------------|
|--------------------|-------------------------|
|-0-0-0--------0-0-0-|-(0)---------0-0-0-0-0-0-|
|-0-0-0--------0-0-0-|-(0)---------0-0-0-0-0-0-|


  E E E   E  E E E E    E  E E  E  E   E  E E     W                W
|------------0-------|-------------0------------|----------------|------||
|-----6--------6---6-|-------6---------6----6---|----------------|------||
|-7-7----(7)-----7---|--7--7---(7)--------7-----|----------------|------||
|--------------------|--------------------------|----------------|------||
|--------------------|--------------------------|----------------|------||
|--------------------|--------------------------|----------------|------||
|
| PM-----------------------------------|          PM--|    PM--|
| E E Q.       E E E   +H          S S E  Q   a   E E E Q  E E E   W
|--------------------|--------------------------|----------------|------||
|--------------------|--------------------------|----------------|------||
|--------------------|--------------------------|----------------|------||
|--------------------|--------------------------|----------------|------||
|-0-0-0--------0-0-0-|-(0)---------0-0-0-12s==0-|-0-0-0----0-0-0-|------||
|-0-0-0--------0-0-0-|-(0)---------0-0-0-12s==0-|-0-0-0----0-0-0-|------||
                                                               "Wake up!"

   Breakdown
                                            Faster Q=149
    D5
    Gtrs I, II
    PM------------------------------------------------------------|
    E E Q.   E E E   +H     S S E S S E  4x S S E S S E S S E S S E
||-----------------|---------------------||-------------------------||
||o----------------|--------------------o||-------------------------||
||-----------------|---------------------||-------------------------||
||-----------------|---------------------||-------------------------||
||o-0-0-0----0-0-0-|-(0)----0-0-0-0-0-0-o||-0-0-0-0-0-0-0-0-0-0-0-0-||
||--0-0-0----0-0-0-|-(0)----0-0-0-0-0-0--||-0-0-0-0-0-0-0-0-0-0-0-0-||


 "Oh how the times have.."
  D5N.C. D5N.C. D5                N.C.
  Gtr I
  PM     PM     PM--------------|
  E E  E E E  E E E   S S E S S E Q     Q
|-------------------|-------------------------|
|-------------------|-------------------------|
|-------------------|-------------------------|
|-------------------|-------------------------|
|-0-8h12-0-7h10-0-0-|-0-0-0-0-0-0-5tr8--4tr7--|
|-0------0------0-0-|-0-0-0-0-0-0-------------|
|
| Gtr II
| PM     PM     PM--------------|
| E E  E E E  E E E   S S E S S E Q     Q
|-------------------|-------------------------|
|-------------------|-------------------------|
|-------------------|-------------------------|
|-------------------|-------------------------|
|-0-5h=8-0-4h=7-0-0-|-0-0-0-0-0-0-8tr12-7tr10-|
|-0------0------0-0-|-0-0-0-0-0-0-------------|


  D5N.C. D5N.C. D5                N.C.
  PM     PM     PM--------------|
  E E  E E E  E E E   S S E S S E  S  S  S  S  S  S  S  S
|-------------------|--------------------------------------|
|-------------------|--------------------------------------|
|-------------------|--------------------------------------|
|-------------------|-------------12-12-12-12-10-10-10-10--|
|-0-8h12-0-7h10-0-0-|-0-0-0-0-0-0--------------------------|
|-0------0------0-0-|-0-0-0-0-0-0--------------------------|
|
| PM     PM     PM--------------|
| E E  E E E  E E E   S S E S S E  S  S  S  S  S  S  S  S
|-------------------|--------------------------------------|
|-------------------|--------------------------------------|
|-------------------|--------------------------------------|
|-------------------|--------------8--8--8--8--7--7--7--7--|
|-0-5h=8-0-4h=7-0-0-|-0-0-0-0-0-0--------------------------|
|-0------0------0-0-|-0-0-0-0-0-0--------------------------|


  D5N.C. D5N.C. D5                N.C.
  PM     PM     PM--------------|
  E E  E E E  E E E   S S E S S E Q     Q
|-------------------|-------------------------|
|-------------------|-------------------------|
|-------------------|-------------------------|
|-------------------|-------------------------|
|-0-8h12-0-7h10-0-0-|-0-0-0-0-0-0-5tr8--4tr7--|
|-0------0------0-0-|-0-0-0-0-0-0-------------|
|
| PM     PM     PM--------------|
| E E  E E E  E E E   S S E S S E Q     Q
|-------------------|-------------------------|
|-------------------|-------------------------|
|-------------------|-------------------------|
|-------------------|-------------------------|
|-0-5h=8-0-4h=7-0-0-|-0-0-0-0-0-0-8tr12-7tr10-|
|-0------0------0-0-|-0-0-0-0-0-0-------------|


  D5N.C. D5N.C. D5                  N.C.
                                     \1_____|
  PM     PM     PM----------------|
  E E  E E E  E E E   S S E S S S S  H      a
|-------------------|-------------------------|
|-------------------|---------------<5>-----x-|
|-------------------|-------------------------|
|-------------------|-------------------------|
|-0-8h12-0-7h10-0-0-|-0-0-0-0-0-0-0-----------|
|-0------0------0-0-|-0-0-0-0-0-0-0-----------|
|
|                                    \1_____|
| PM     PM     PM----------------|
| E E  E E E  E E E   S S E S S S S  H      a
|-------------------|-------------------------|
|-------------------|---------------<5>-----x-|
|-------------------|-------------------------|
|-------------------|-------------------------|
|-0-5h=8-0-4h=7-0-0-|-0-0-0-0-0-0-0-----------|
|-0------0------0-0-|-0-0-0-0-0-0-0-----------|


    D5N.C. D5N.C. D5
    PM     PM     PM---------------------
    E E  E E E  E E E   E E E E E E E E
||--------------------|-----------------|
||o-------------------|-----------------|
||--------------------|-----------------|
||--------------------|-----------------|
||o-0-8h12-0-7h10-0-0-|-0-0-0-0-0-0-0-0-|
||--0------0------0-0-|-0-0-0-0-0-0-0-0-|
|
|   PM     PM     PM---------------------
|   E E  E E E  E E E   E E E E E E E E
||--------------------|-----------------|
||o-------------------|-----------------|
||--------------------|-----------------|
||--------------------|-----------------|
||o-0-5h=8-0-4h=7-0-0-|-0-0-0-0-0-0-0-0-|
||--0------0------0-0-|-0-0-0-0-0-0-0-0-|


    N.C. D5N.C. D5            N.C.
 -|      PM           PM----|
  E E  E E E  E E E   E E E E  S  S  S  S  S  S  S  S
|-------------------|-----------------------------------||
|-------------------|----------------------------------o||
|-------------------|-----------------------------------||
|-------------------|---------12-12-12-12-10-10-10-10---||
|-0-8h12-0-7h10-0-0-|-0-0-0-0--------------------------o||
|-0------0------0-0-|-0-0-0-0---------------------------||
|
|-|      PM           PM----|
| E E  E E E  E E E   E E E E  S  S  S  S  S  S  S  S
|-------------------|-----------------------------------||
|-------------------|----------------------------------o||
|-------------------|-----------------------------------||
|-------------------|----------8--8--8--8--7--7--7--7---||
|-0-5h=8-0-4h=7-0-0-|-0-0-0-0--------------------------o||
|-0------0------0-0-|-0-0-0-0---------------------------||


  Gtr III
   E  E E  E    E   E E E     E   E E  E  E E E E
|---------------0---------|---------------0-------||
|-------6-----------6---6-|---------6-------6---6-||
|--7--7---(7)---------7---|---7---7---(7)-----7---||
|-------------------------|-----------------------||
|-------------------------|-----------------------||
|-------------------------|-----------------------||
|
| Gtrs I, II
|  <
|  H           +H            +W
|-------------------------|-----------------------||
|-------------------------|-----------------------||
|-------------------------|-----------------------||
|-<5>---------(<5>)-------|-(<5>)-----------------||
|-------------------------|-----------------------||
|-------------------------|-----------------------||


 "It's like speaking in.."
  Bbsus2                     G5
  Gtr III
   E  E  E  E   E  E  E  E   E E E  E  E E E E
|---------------0----------|-----------0-------|
|--------6---------6-----6-|-----6-------6---6-|
|--7--7----(7)--------7----|-7-7---(7)-----7---|
|--------------------------|-------------------|
|--------------------------|-------------------|
|--------------------------|-------------------|
|
| Gtrs I, II
|  E  E  E  E   E  E  E  E   E E E  E  E E E E
|--------------------------|-------------------|
|--------------------------|-------------------|
|--------------------------|-------------------|
|-10-10-10-10--10-10-10-10-|-5-5-5--5--5-5-5-5-|
|--8--8--8--8---8--8--8--8-|-5-5-5--5--5-5-5-5-|
|--8--8--8--8---8--8--8--8-|-5-5-5--5--5-5-5-5-|


  D5
  E E E  E  E E E E   E E E  E  E E E E
|-----------0-------|-----------0-------|
|-----6-------6---6-|-----6-------6---6-|
|-7-7---(7)-----7---|-7-7---(7)-----7---|
|-------------------|-------------------|
|-------------------|-------------------|
|-------------------|-------------------|
|
| E E E  E  E E E E   E E E  E  E E E E
|-------------------|-------------------|
|-------------------|-------------------|
|-------------------|-------------------|
|-0-0-0--0--0-0-0-0-|-0-0-0--0--0-0-0-0-|
|-0-0-0--0--0-0-0-0-|-0-0-0--0--0-0-0-0-|
|-0-0-0--0--0-0-0-0-|-0-0-0--0--0-0-0-0-|


  Bbsus2                     G5
  Gtr III
   E  E  E  E   E  E  E  E   E E E  E  E E E E
|---------------0----------|-----------0-------|
|--------6---------6-----6-|-----6-------6---6-|
|--7--7----(7)--------7----|-7-7---(7)-----7---|
|--------------------------|-------------------|
|--------------------------|-------------------|
|--------------------------|-------------------|
|
| Gtr I
|  E  E  E  E   E  E  E  E   E E E  E  E E E E
|--------------------------|-------------------|
|--------------------------|-------------------|
|--------------------------|-------------------|
|-10-10-10-10--10-10-10-10-|-5-5-5--5--5-5-5-5-|
|--8--8--8--8---8--8--8--8-|-5-5-5--5--5-5-5-5-|
|--8--8--8--8---8--8--8--8-|-5-5-5--5--5-5-5-5-|
|
| Gtr II
|  E  E  E  E   E  E  E  E   E E E  E  E E E E
|--------------------------|-------------------|
|--------------------------|-------------------|
|--------------------------|-------------------|
|-10-10-10-10--10-10-10-10-|-5-5-5--5--5-5-5-5-|
|--8--8--8--8---8--8--8--8-|-5-5-5--5--5-5-5-5-|
|--8--8--8--8---8--8--8--8-|-5-5-5--5--5-5-5-5-|


    D5
  E E   E    E    E  E    E E    E  E   E    E    E  E    E E
|-----------------0-----------|-------------------0------------|
|-------6------------6------6-|---------6------------6------6--|
|-7-7-------(7)-----------7---|--7--7-------(7)-----------7----|
|-----------------------------|--------------------------------|
|-----------------------------|--------------------------------|
|-----------------------------|--------------------------------|
|
|   PM--------------------------------------------|
| E S S S S  S  S E.   E.   E   +E  S S S S  S  S Q       Q
|-----------------------------|--------------------------------|
|-----------------------------|---------------------------6s===|
|-----------------------------|--------------------------------|
|-----------------------------|--------------------------------|
|---0-0-0-0--0--0-0----0----0-|-(0)-0-0-0-0--0--0-0------------|
|---0-0-0-0--0--0-0----0----0-|-(0)-0-0-0-0--0--0-0------------|
|
|   PM------------------------------------------------------|
| E S S S S  S  S E.   E.   E   +E  S S S S  S  S E.   E.   E
|-----------------------------|--------------------------------|
|-----------------------------|--------------------------------|
|-----------------------------|--------------------------------|
|-----------------------------|--------------------------------|
|---0-0-0-0--0--0-0----0----0-|-(0)-0-0-0-0--0--0-0----0----0--|
|---0-0-0-0--0--0-0----0----0-|-(0)-0-0-0-0--0--0-0----0----0--|


  Bbsus2                     G5
   E  E  E  E   E  E  E  E    E  E  E  E   E  E  E  E
|---------------0----------|---------------0----------|
|--------6---------6-----6-|--------6---------6-----6-|
|--7--7----(7)--------7----|--7--7----(7)--------7----|
|--------------------------|--------------------------|
|--------------------------|--------------------------|
|--------------------------|--------------------------|
|
|  E  E  E  E   E  E  E  E    E  E  E  E   E  E  E  E
|--------------------------|--------------------------|
|-13-13-13-13--13-13-13-13-|-11-11-11-11--11-11-11-11-|
|--------------------------|--------------------------|
|--------------------------|--------------------------|
|--------------------------|--------------------------|
|--------------------------|--------------------------|
|
|  E  E  E  E   E  E  E  E    E  E  E  E   E  E  E  E
|--------------------------|--------------------------|
|--------------------------|--------------------------|
|--------------------------|--------------------------|
|-10-10-10-10--10-10-10-10-|--5--5--5--5---5--5--5--5-|
|--8--8--8--8---8--8--8--8-|--5--5--5--5---5--5--5--5-|
|--8--8--8--8---8--8--8--8-|--5--5--5--5---5--5--5--5-|


  D5
   E  E  E  E   E  E  E  E   E E E  E  E E E E
|---------------0----------|-----------0-------|
|--------6---------6-----6-|-----6-------6---6-|
|--7--7----(7)--------7----|-7-7---(7)-----7---|
|--------------------------|-------------------|
|--------------------------|-------------------|
|--------------------------|-------------------|
|
|  E  E  E  E   E  E  E  E   E E E  E  E E Q
|--------------------------|-------------------|
|-11-10-10-10--10-10-10-10-|-6-6-6--6--5-5-6s==|
|--------------------------|-------------------|
|--------------------------|-------------------|
|--------------------------|-------------------|
|--------------------------|-------------------|
|
|  E  E  E  E   E  E  E  E   E E E  E  E E E E
|--------------------------|-------------------|
|--------------------------|-------------------|
|--------------------------|-------------------|
|--0--0--0--0---0--0--0--0-|-0-0-0--0--0-0-0-0-|
|--0--0--0--0---0--0--0--0-|-0-0-0--0--0-0-0-0-|
|--0--0--0--0---0--0--0--0-|-0-0-0--0--0-0-0-0-|


  Bbsus2                     G5
   E  E  E  E   E  E  E  E    E  E  E  E   E  E  E  E
|---------------0----------|---------------0----------|
|--------6---------6-----6-|--------6---------6-----6-|
|--7--7----(7)--------7----|--7--7----(7)--------7----|
|--------------------------|--------------------------|
|--------------------------|--------------------------|
|--------------------------|--------------------------|
|
|  E  E  E  E   E  E  E  E    E  E  E  E   E  E  E  E
|--------------------------|--------------------------|
|-13-13-13-13--13-13-13-13-|-11-11-11-11--11-10-10-10-|
|--------------------------|--------------------------|
|--------------------------|--------------------------|
|--------------------------|--------------------------|
|--------------------------|--------------------------|
|
|  E  E  E  E   E  E  E  E    E  E  E  E   E  E  E  E
|--------------------------|--------------------------|
|--------------------------|--------------------------|
|--------------------------|--------------------------|
|-10-10-10-10--10-10-10-10-|--5--5--5--5---5--5--5--5-|
|--8--8--8--8---8--8--8--8-|--5--5--5--5---5--5--5--5-|
|--8--8--8--8---8--8--8--8-|--5--5--5--5---5--5--5--5-|


  D5
  E E   E    E    E  E    E E    E  E   E    E    E  E    E E
|-----------------0-----------|-------------------0------------|
|-------6------------6------6-|---------6------------6------6--|
|-7-7-------(7)-----------7---|--7--7-------(7)-----------7----|
|-----------------------------|--------------------------------|
|-----------------------------|--------------------------------|
|-----------------------------|--------------------------------|
|
|   PM------------------------------------------------------|
| E S S S S  S  S E.   E.   E   +E  S S S S  S  S E.   E.   E
|-----------------------------|--------------------------------|
|-----------------------------|--------------------------------|
|-----------------------------|--------------------------------|
|-----------------------------|--------------------------------|
|---0-0-0-0--0--0-0----0----0-|-(0)-0-0-0-0--0--0-0----0----0--|
|---0-0-0-0--0--0-0----0----0-|-(0)-0-0-0-0--0--0-0----0----0--|
|
|   PM------------------------------------------------------|
| E S S S S  S  S E.   E.   E   +E  S S S S  S  S E.   E.   E
|-----------------------------|--------------------------------|
|-----------------------------|--------------------------------|
|-----------------------------|--------------------------------|
|-----------------------------|--------------------------------|
|---0-0-0-0--0--0-0----0----0-|-(0)-0-0-0-0--0--0-0----0----0--|
|---0-0-0-0--0--0-0----0----0-|-(0)-0-0-0-0--0--0-0----0----0--|


                            "I've created a monster.."
                             D5N.C. D5N.C. D5                N.C.
  Gtr I
  PM-------------------------|      PM     PM--------------|
  S S E Q     S S E S S E    E E  E E E  E E E   S S E S S E Q      Q
|-------------------------||-------------------|----------------------------|
|-------------------------||-------------------|----------------------------|
|-------------------------||-------------------|----------------------------|
|-------------------------||-------------------|----------------------------|
|-0-0-0-------0-0-0-0-0-0-||-0-8h12-0-7h10-0-0-|-0-0-0-0-0-0-5tr8---4tr7----|
|-0-0-0-------0-0-0-0-0-0-||-0------0------0-0-|-0-0-0-0-0-0----------------|
|
| Gtr II
|       PM-------------------|      PM     PM--------------|
| Q     S S E Q     S S E    E E  E E E  E E E   S S E S S E Q      Q
|-------------------------||-------------------|----------------------------|
|-------------------------||-------------------|----------------------------|
|-------------------------||-------------------|----------------------------|
|-------------------------||-------------------|----------------------------|
|-------0-0-0-------0-0-0-||-0-5h=8-0-4h=7-0-0-|-0-0-0-0-0-0-8tr12--7tr10---|
|-------0-0-0-------0-0-0-||-0------0------0-0-|-0-0-0-0-0-0----------------|


  D5N.C. D5N.C. D5                N.C.
  PM     PM     PM--------------|
  E E  E E E  E E E   S S E S S E  S  S  S  S  S  S  S  S
|-------------------|-------------------------------------|
|-------------------|-------------------------------------|
|-------------------|-------------------------------------|
|-------------------|-------------12-12-12-12-10-10-10-10-|
|-0-8h12-0-7h10-0-0-|-0-0-0-0-0-0-------------------------|
|-0------0------0-0-|-0-0-0-0-0-0-------------------------|
|
| PM     PM     PM--------------|
| E E  E E E  E E E   S S E S S E  S  S  S  S  S  S  S  S
|-------------------|-------------------------------------|
|-------------------|-------------------------------------|
|-------------------|-------------------------------------|
|-------------------|--------------8--8--8--8--7--7--7--7-|
|-0-5h=8-0-4h=7-0-0-|-0-0-0-0-0-0-------------------------|
|-0------0------0-0-|-0-0-0-0-0-0-------------------------|


  D5N.C. D5N.C. D5                N.C.
  PM     PM     PM--------------|
  E E  E E E  E E E   S S E S S E Q      Q
|-------------------|---------------------------|
|-------------------|---------------------------|
|-------------------|---------------------------|
|-------------------|---------------------------|
|-0-8h12-0-7h10-0-0-|-0-0-0-0-0-0-5tr8---4tr7---|
|-0------0------0-0-|-0-0-0-0-0-0---------------|
|
| PM     PM     PM--------------|
| E E  E E E  E E E   S S E S S E Q      Q
|-------------------|---------------------------|
|-------------------|---------------------------|
|-------------------|---------------------------|
|-------------------|---------------------------|
|-0-5h=8-0-4h=7-0-0-|-0-0-0-0-0-0-8tr12--7tr10--|
|-0------0------0-0-|-0-0-0-0-0-0---------------|


  D5N.C. D5N.C. D5                  N.C.
                                     \1_____|
  PM     PM     PM----------------|
  E E  E E E  E E E   S S E S S S S  H      a
|-------------------|-------------------------|
|-------------------|---------------<5>-----x-|
|-------------------|-------------------------|
|-------------------|-------------------------|
|-0-8h12-0-7h10-0-0-|-0-0-0-0-0-0-0-----------|
|-0------0------0-0-|-0-0-0-0-0-0-0-----------|
|
|                                    \1_____|
| PM     PM     PM----------------|
| E E  E E E  E E E   S S E S S S S  H      a
|-------------------|-------------------------|
|-------------------|---------------<5>-----x-|
|-------------------|-------------------------|
|-------------------|-------------------------|
|-0-5h=8-0-4h=7-0-0-|-0-0-0-0-0-0-0-----------|
|-0------0------0-0-|-0-0-0-0-0-0-0-----------|


  D5N.C. D5N.C. D5
  PM     PM     PM---------------------
  E E  E E E  E E E   E E E E E E E E
|-------------------|-----------------|
|-------------------|-----------------|
|-------------------|-----------------|
|-------------------|-----------------|
|-0-8h12-0-7h10-0-0-|-0-0-0-0-0-0-0-0-|
|-0------0------0-0-|-0-0-0-0-0-0-0-0-|
|
| PM     PM     PM---------------------
| E E  E E E  E E E   E E E E E E E E
|-------------------|-----------------|
|-------------------|-----------------|
|-------------------|-----------------|
|-------------------|-----------------|
|-0-5h=8-0-4h=7-0-0-|-0-0-0-0-0-0-0-0-|
|-0------0------0-0-|-0-0-0-0-0-0-0-0-|


    N.C. D5N.C. D5            N.C.
 -|      PM           PM----|
  E E  E E E  E E E   E E E E  S  S  S  S  S  S  S  S
|-------------------|---------------------------------|
|-------------------|---------------------------------|
|-------------------|---------------------------------|
|-------------------|---------12-12-12-12-10-10-10-10-|
|-0-8h12-0-7h10-0-0-|-0-0-0-0-------------------------|
|-0------0------0-0-|-0-0-0-0-------------------------|
|
|-|      PM           PM----|
| E E  E E E  E E E   E E E E  S  S  S  S  S  S  S  S
|-------------------|---------------------------------|
|-------------------|---------------------------------|
|-------------------|---------------------------------|
|-------------------|----------8--8--8--8--7--7--7--7-|
|-0-5h=8-0-4h=7-0-0-|-0-0-0-0-------------------------|
|-0------0------0-0-|-0-0-0-0-------------------------|


  D5N.C. D5N.C. D5                        N.C. D5N.C. D5            N.C.
  PM     PM     PM----------------------|      PM           PM----|
  E E  E E E  E E E   E E E E E E E E   E E  E E E  E E E   E E E E E E E E
|-------------------|-----------------|-------------------|-------------0---||
|-------------------|-----------------|-------------------|---------6-----6-||
|-------------------|-----------------|-------------------|-----------7-----||
|-------------------|-----------------|-------------------|-----------------||
|-0-8h12-0-7h10-0-0-|-0-0-0-0-0-0-0-0-|-0-8h12-0-7h10-0-0-|-0-0-0-0---------||
|-0------0------0-0-|-0-0-0-0-0-0-0-0-|-0------0------0-0-|-0-0-0-0---------||
|
| PM     PM     PM----------------------|      PM           PM----|
| E E  E E E  E E E   E E E E E E E E   E E  E E E  E E E   E E E E E E E E
|-------------------|-----------------|-------------------|-------------0---||
|-------------------|-----------------|-------------------|---------6-----6-||
|-------------------|-----------------|-------------------|-----------7-----||
|-------------------|-----------------|-------------------|-----------------||
|-0-5h=8-0-4h=7-0-0-|-0-0-0-0-0-0-0-0-|-0-5h=8-0-4h=7-0-0-|-0-0-0-0---------||
|-0------0------0-0-|-0-0-0-0-0-0-0-0-|-0------0------0-0-|-0-0-0-0---------||


 "It's like speaking in.."
  Bbsus2                     G5
  Gtr III
   E  E  E  E   E  E  E  E   E E E  E  E E E E
|---------------0----------|-----------0-------|
|--------6---------6-----6-|-----6-------6---6-|
|--7--7----(7)--------7----|-7-7---(7)-----7---|
|--------------------------|-------------------|
|--------------------------|-------------------|
|--------------------------|-------------------|
|
| Gtrs I, II
|  E  E  E  E   E  E  E  E   E E E  E  E E E E
|--------------------------|-------------------|
|--------------------------|-------------------|
|--------------------------|-------------------|
|-10-10-10-10--10-10-10-10-|-5-5-5--5--5-5-5-5-|
|--8--8--8--8---8--8--8--8-|-5-5-5--5--5-5-5-5-|
|--8--8--8--8---8--8--8--8-|-5-5-5--5--5-5-5-5-|


  D5
  E E E  E  E E E E   E E E  E  E E E E
|-----------0-------|-----------0-------|
|-----6-------6---6-|-----6-------6---6-|
|-7-7---(7)-----7---|-7-7---(7)-----7---|
|-------------------|-------------------|
|-------------------|-------------------|
|-------------------|-------------------|
|
| E E E  E  E E E E   E E E  E  E E E E
|-------------------|-------------------|
|-------------------|-------------------|
|-------------------|-------------------|
|-0-0-0--0--0-0-0-0-|-0-0-0--0--0-0-0-0-|
|-0-0-0--0--0-0-0-0-|-0-0-0--0--0-0-0-0-|
|-0-0-0--0--0-0-0-0-|-0-0-0--0--0-0-0-0-|


  Bbsus2                     G5
  Gtr III
   E  E  E  E   E  E  E  E   E E E  E  E E E E
|---------------0----------|-----------0-------|
|--------6---------6-----6-|-----6-------6---6-|
|--7--7----(7)--------7----|-7-7---(7)-----7---|
|--------------------------|-------------------|
|--------------------------|-------------------|
|--------------------------|-------------------|
|
| Gtr I
|  E  E  E  E   E  E  E  E   E E E  E  E E E E
|--------------------------|-------------------|
|--------------------------|-------------------|
|--------------------------|-------------------|
|-10-10-10-10--10-10-10-10-|-5-5-5--5--5-5-5-5-|
|--8--8--8--8---8--8--8--8-|-5-5-5--5--5-5-5-5-|
|--8--8--8--8---8--8--8--8-|-5-5-5--5--5-5-5-5-|
|
| Gtr II
|  E  E  E  E   E  E  E  E   E E E  E  E E E E
|--------------------------|-------------------|
|--------------------------|-------------------|
|--------------------------|-------------------|
|-10-10-10-10--10-10-10-10-|-5-5-5--5--5-5-5-5-|
|--8--8--8--8---8--8--8--8-|-5-5-5--5--5-5-5-5-|
|--8--8--8--8---8--8--8--8-|-5-5-5--5--5-5-5-5-|


  D5
  E E   E    E    E  E    E E    E  E   E    E    E  E    E E
|-----------------0-----------|-------------------0------------|
|-------6------------6------6-|---------6------------6------6--|
|-7-7-------(7)-----------7---|--7--7-------(7)-----------7----|
|-----------------------------|--------------------------------|
|-----------------------------|--------------------------------|
|-----------------------------|--------------------------------|
|
|   PM--------------------------------------------|
| E S S S S  S  S E.   E.   E   +E  S S S S  S  S Q       Q
|-----------------------------|--------------------------------|
|-----------------------------|---------------------------6s===|
|-----------------------------|--------------------------------|
|-----------------------------|--------------------------------|
|---0-0-0-0--0--0-0----0----0-|-(0)-0-0-0-0--0--0-0------------|
|---0-0-0-0--0--0-0----0----0-|-(0)-0-0-0-0--0--0-0------------|
|
|   PM------------------------------------------------------|
| E S S S S  S  S E.   E.   E   +E  S S S S  S  S E.   E.   E
|-----------------------------|--------------------------------|
|-----------------------------|--------------------------------|
|-----------------------------|--------------------------------|
|-----------------------------|--------------------------------|
|---0-0-0-0--0--0-0----0----0-|-(0)-0-0-0-0--0--0-0----0----0--|
|---0-0-0-0--0--0-0----0----0-|-(0)-0-0-0-0--0--0-0----0----0--|


  Bbsus2                     G5
   E  E  E  E   E  E  E  E    E  E  E  E   E  E  E  E
|---------------0----------|---------------0----------|
|--------6---------6-----6-|--------6---------6-----6-|
|--7--7----(7)--------7----|--7--7----(7)--------7----|
|--------------------------|--------------------------|
|--------------------------|--------------------------|
|--------------------------|--------------------------|
|
|  E  E  E  E   E  E  E  E    E  E  E  E   E  E  E  E
|--------------------------|--------------------------|
|-13-13-13-13--13-13-13-13-|-11-11-11-11--11-11-11-11-|
|--------------------------|--------------------------|
|--------------------------|--------------------------|
|--------------------------|--------------------------|
|--------------------------|--------------------------|
|
|  E  E  E  E   E  E  E  E    E  E  E  E   E  E  E  E
|--------------------------|--------------------------|
|--------------------------|--------------------------|
|--------------------------|--------------------------|
|-10-10-10-10--10-10-10-10-|--5--5--5--5---5--5--5--5-|
|--8--8--8--8---8--8--8--8-|--5--5--5--5---5--5--5--5-|
|--8--8--8--8---8--8--8--8-|--5--5--5--5---5--5--5--5-|


  D5
   E  E  E  E   E  E  E  E   E E E  E  E E E E
|---------------0----------|-----------0-------|
|--------6---------6-----6-|-----6-------6---6-|
|--7--7----(7)--------7----|-7-7---(7)-----7---|
|--------------------------|-------------------|
|--------------------------|-------------------|
|--------------------------|-------------------|
|
|  E  E  E  E   E  E  E  E   E E E  E  E E Q
|--------------------------|-------------------|
|-11-10-10-10--10-10-10-10-|-6-6-6--6--5-5-6s==|
|--------------------------|-------------------|
|--------------------------|-------------------|
|--------------------------|-------------------|
|--------------------------|-------------------|
|
|  E  E  E  E   E  E  E  E   E E E  E  E E E E
|--------------------------|-------------------|
|--------------------------|-------------------|
|--------------------------|-------------------|
|--0--0--0--0---0--0--0--0-|-0-0-0--0--0-0-0-0-|
|--0--0--0--0---0--0--0--0-|-0-0-0--0--0-0-0-0-|
|--0--0--0--0---0--0--0--0-|-0-0-0--0--0-0-0-0-|


  Bbsus2                     G5
   E  E  E  E   E  E  E  E    E  E  E  E   E  E  E  E
|---------------0----------|---------------0----------|
|--------6---------6-----6-|--------6---------6-----6-|
|--7--7----(7)--------7----|--7--7----(7)--------7----|
|--------------------------|--------------------------|
|--------------------------|--------------------------|
|--------------------------|--------------------------|
|
|  E  E  E  E   E  E  E  E    E  E  E  E   E  E  E  E
|--------------------------|--------------------------|
|-13-13-13-13--13-13-13-13-|-11-11-11-11--11-10-10-10-|
|--------------------------|--------------------------|
|--------------------------|--------------------------|
|--------------------------|--------------------------|
|--------------------------|--------------------------|
|
|  E  E  E  E   E  E  E  E    E  E  E  E   E  E  E  E
|--------------------------|--------------------------|
|--------------------------|--------------------------|
|--------------------------|--------------------------|
|-10-10-10-10--10-10-10-10-|--5--5--5--5---5--5--5--5-|
|--8--8--8--8---8--8--8--8-|--5--5--5--5---5--5--5--5-|
|--8--8--8--8---8--8--8--8-|--5--5--5--5---5--5--5--5-|


  D5
  E E   E    E    E  E    E E    E  E   E    E    E  E    E E
|-----------------0-----------|-------------------0------------|
|-------6------------6------6-|---------6------------6------6--|
|-7-7-------(7)-----------7---|--7--7-------(7)-----------7----|
|-----------------------------|--------------------------------|
|-----------------------------|--------------------------------|
|-----------------------------|--------------------------------|
|
|   PM------------------------------------------------------|
| E S S S S  S  S E.   E.   E   +E  S S S S  S  S E.   E.   E
|-----------------------------|--------------------------------|
|-----------------------------|--------------------------------|
|-----------------------------|--------------------------------|
|-----------------------------|--------------------------------|
|---0-0-0-0--0--0-0----0----0-|-(0)-0-0-0-0--0--0-0----0----0--|
|---0-0-0-0--0--0-0----0----0-|-(0)-0-0-0-0--0--0-0----0----0--|
|
|   PM------------------------------------------------------|
| E S S S S  S  S E.   E.   E   +E  S S S S  S  S E.   E.   E
|-----------------------------|--------------------------------|
|-----------------------------|--------------------------------|
|-----------------------------|--------------------------------|
|-----------------------------|--------------------------------|
|---0-0-0-0--0--0-0----0----0-|-(0)-0-0-0-0--0--0-0----0----0--|
|---0-0-0-0--0--0-0----0----0-|-(0)-0-0-0-0--0--0-0----0----0--|


   E  E   E    E    E  E    E E
|-------------------0-----------|
|---------6------------6------6-|
|--7--7-------(7)-----------7---|
|-------------------------------|
|-------------------------------|
|-------------------------------|
|
|  PM----------------------------
| +E  S S S S  S  S E.   E.   E
|-------------------------------|
|-------------------------------|
|-------------------------------|
|-------------------------------|
|-(0)-0-0-0-0--0--0-0----0----0-|
|-(0)-0-0-0-0--0--0-0----0----0-|
|
|  PM----------------------------
| +E  S S S S  S  S E.   E.   E
|-------------------------------|
|-------------------------------|
|-------------------------------|
|-------------------------------|
|-(0)-0-0-0-0--0--0-0----0----0-|
|-(0)-0-0-0-0--0--0-0----0----0-|


                                  Build Up
                                   Slower Q=138
                                   D5
   E  E   E    E    E  E    E E    W           W
|-------------------0-----------||----------|--------|
|---------6------------6------6-||----------|--------|
|--7--7-------(7)-----------7---||----------|--------|
|-------------------------------||----------|--------|
|-------------------------------||----------|--------|
|-------------------------------||----------|--------|
|
|-----------------------------|
| +E  S S S S  S  S E.   E.   E    W          +W
|-------------------------------||----------|--------|
|-------------------------------||----------|--------|
|-------------------------------||----------|--------|
|-------------------------------||-0--------|-(0)----|
|-(0)-0-0-0-0--0--0-0----0----0-||-0--------|-(0)----|
|-(0)-0-0-0-0--0--0-0----0----0-||-0--------|-(0)----|
|
|-----------------------------|
| +E  S S S S  S  S E.   E.   E    W          +W
|-------------------------------||----------|--------|
|-------------------------------||----------|--------|
|-------------------------------||----------|--------|
|-------------------------------||-0--------|-(0)----|
|-(0)-0-0-0-0--0--0-0----0----0-||-0--------|-(0)----|
|-(0)-0-0-0-0--0--0-0----0----0-||-0--------|-(0)----|


  Gtr I
      PM----------------|       PM----------------------|
   E  S S S S S S E. E. E   +E  S S S S S S E S S S S S S
|-------------------------|-------------------------------|
|-------------------------|-------------------------------|
|-------------------------|-------------------------------|
|-------------------------|-------------------------------|
|-----0-0-0-0-0-0-0--0--0-|-(0)-0-0-0-0-0-0-0-0-0-0-0-0-0-|
|-----0-0-0-0-0-0-0--0--0-|-(0)-0-0-0-0-0-0-0-0-0-0-0-0-0-|
|
| Gtr II
| +W                        +W
|-------------------------|-------------------------------|
|-------------------------|-------------------------------|
|-------------------------|-------------------------------|
|-(0)---------------------|-(0)---------------------------|
|-(0)---------------------|-(0)---------------------------|
|-(0)---------------------|-(0)---------------------------|


  Gtrs I, II
  PM--------------------|     PM----------------------|
  S S S S S S S S E. E. E   E S S S S S S E S S S S S S
|-------------------------|-----------------------------|
|-------------------------|-----------------------------|
|-------------------------|-----------------------------|
|-------------------------|-----------------------------|
|-0-0-0-0-0-0-0-0-0--0--0-|---0-0-0-0-0-0-0-0-0-0-0-0-0-|
|-0-0-0-0-0-0-0-0-0--0--0-|---0-0-0-0-0-0-0-0-0-0-0-0-0-|


                         6/4
  PM------------------|
  E S S S S S S E. E. E   W.
|-----------------------|-------||
|-----------------------|-------||
|-----------------------|-------||
|-----------------------|-------||
|-0-0-0-0-0-0-0-0--0--0-|-------||
|-0-0-0-0-0-0-0-0--0--0-|-------||
              "Disrespect your surroundings!"

 Breakdown
  D5
 4/4
  PM|   PM|   PM|   PM|     PM|   PM|   PM------------|
  S S E S S E S S E S S E   S S E S S E S S S S S S S S
|-------------------------|-----------------------------|
|-------------------------|-----------------------------|
|-------------------------|-----------------------------|
|-------------------------|-----------------------------|
|-0-0---0-0---0-0---0-0---|-0-0---0-0---0-0-0-0-0-0-0-0-|
|-0-0---0-0---0-0---0-0---|-0-0---0-0---0-0-0-0-0-0-0-0-|


  PM|   PM|   PM|   PM|     PM|   PM|   PM|
  S S E S S E S S E S S E   S S E S S E S S Q.
|-------------------------|----------------------|
|-------------------------|----------------------|
|-------------------------|----------------------|
|-------------------------|----------------------|
|-0-0---0-0---0-0---0-0---|-0-0---0-0---0-0------|
|-0-0---0-0---0-0---0-0---|-0-0---0-0---0-0------|


    PM--------------------------------|
    S S S S S S S S H      +E  E Q  S Q..
||-----------------------|-------------------||
||o----------------------|------------------o||
||-----------------------|-------------------||
||-----------------------|-------------------||
||o-0-0-0-0-0-0-0-0-0----|-(0)-0-0--0-0-----o||
||--0-0-0-0-0-0-0-0-0----|-(0)-0-0--0-0------||


    PM--------------|         PM-----|
    S S S S S S S S Q  Q    E E Q  S S Q.
||------------------------|------------------||
||o-----------------------|-----------------o||
||------------------------|------------------||
||------------------------|------------------||
||o-0-0-0-0-0-0-0-0-0-----|---0-0--0-0------o||
||--0-0-0-0-0-0-0-0-0-----|---0-0--0-0-------||


   Release
    N.C.
    Gtr III (* noted indicate delay)
                         * * *   * * *     * *  * * * * *   * * * * * * * *
    W                  E E E E E E E E   E E E  E E E E E   E E E E E E E E
||-----------------|---8-8-8-8---------|------------------|------------------||
||o----------------|-----------8-8-8-8-|------------------|-----------------o||
||-----------------|-------------------|-7-7-7--7-7-7-7-7-|-7-7-7-7-7-7-7-7--||
||-----------------|-------------------|------------------|------------------||
||o----------------|-------------------|------------------|-----------------o||
||-----------------|-------------------|------------------|------------------||
|
|   Gtr IV
|   E E Q.   E E E   a E E E E E E E E   E E Q.     E E E   E E E E E E E E
||-----------------|-------------------|------------------|------------------||
||o----------------|-------------------|------------------|-----------------o||
||-----------------|-------------------|------------------|------------------||
||------0------0---|-------0---5-7-5-7-|-----0--------0---|-----0-------0----||
||o-1-1------1---1-|-1s3-3---3---------|-5-5--------5---5-|-8-8---8-7-7---7-o||
||-----------------|-------------------|------------------|------------------||


   "It's like speaking in.."
    N.C.
    Gtr III
                         * * *   * * *     * *  * * * * *   * * * * * * * *
    W                  E E E E E E E E   E E E  E E E E E   E E E E E E E E  4x
||-----------------|---8-8-8-8---------|------------------|------------------||
||o----------------|-----------8-8-8-8-|------------------|-----------------o||
||-----------------|-------------------|-7-7-7--7-7-7-7-7-|-7-7-7-7-7-7-7-7--||
||-----------------|-------------------|------------------|------------------||
||o----------------|-------------------|------------------|-----------------o||
||-----------------|-------------------|------------------|------------------||
|
|   Gtr IV
|   E E Q.   E E E   a E E E E E E E E   E E Q.     E E E   E E E E E E E E  4x
||-----------------|-------------------|------------------|------------------||
||o----------------|-------------------|------------------|-----------------o||
||-----------------|-------------------|------------------|------------------||
||------0------0---|-------0---5-7-5-7-|-----0--------0---|-----0-------0----||
||o-1-1------1---1-|-1s3-3---3---------|-5-5--------5---5-|-8-8---8-7-7---7-o||
||-----------------|-------------------|------------------|------------------||
|
|   Gtr V
|   W                  W                 W                  H       H        4x
||-----------------|-------------------|------------------|------------------||
||o----------------|-------------------|------------------|-----------------o||
||-----------------|-------------------|------------------|------------------||
||-----------------|-------------------|------------------|------------------||
||o-1--------------|---3---------------|-5----------------|-8-------7-------o||
||-----------------|-------------------|------------------|------------------||


 Outro
  N.C.
                           * * *   * * *
   W                    E  E E E E E E E
|------------------|----8--8-8-8---------|
|------------------|-------------8-8-8-8-|
|------------------|---------------------|
|------------------|---------------------|
|------------------|---------------------|
|------------------|---------------------|
|
|  E  E Q.   E E E   a  E  E E E E E E E
|------------------|---------------------|
|------------------|---------------------|
|------------------|---------------------|
|-------0------0---|---------0---5-7-5-7-|
|--1--1------1---1-|-1s=3--3---3---------|
|------------------|---------------------|
|
|  W                    W
|------------------|---------------------|
|------------------|---------------------|
|------------------|---------------------|
|-(0)--------------|---(2)---------------|
|--1---------------|----3----------------|
|------------------|---------------------|


      * *  * * * * *   * * * * * * * *
   E  E E  E E E E E   E E E E E E E E
|--------------------|-----------------|
|--------------------|-----------------|
|--7--7-7--7-7-7-7-7-|-7-7-7-7-7-7-7-7-|
|--------------------|-----------------|
|--------------------|-----------------|
|--------------------|-----------------|
|
|  E  E Q.     E E E   E E E E E E E E
|--------------------|-----------------|
|--------------------|-----------------|
|--------------------|-----------------|
|-------0--------0---|-----0-------0---|
|--5--5--------5---5-|-8-8---8-7-7---7-|
|--------------------|-----------------|
|
|  W                   H       H
|--------------------|-----------------|
|--------------------|-----------------|
|--------------------|-----------------|
|-(3)----------------|-3-------2-------|
|--5-----------------|-----------------|
|--------------------|-----------------|


                           * * *   * * *
   W                    E  E E E E E E E
|------------------|----8--8-8-8---------|
|------------------|-------------8-8-8-8-|
|------------------|---------------------|
|------------------|---------------------|
|------------------|---------------------|
|------------------|---------------------|
|
|  E  E Q.   E E E   a  E  E E E E E E E
|------------------|---------------------|
|------------------|---------------------|
|------------------|---------------------|
|-------0------0---|---------0---5-7-5-7-|
|--1--1------1---1-|-1s=3--3---3---------|
|------------------|---------------------|
|
|  W                    W
|------------------|---------------------|
|------------------|---------------------|
|------------------|---------------------|
|-(7)--------------|---(5)---------------|
|--8---------------|----7----------------|
|------------------|---------------------|


      * *  * * * * *   * * * * * * * *
   E  E E  E E E E E   E E E E E E E E
|--------------------|-----------------|
|--------------------|-----------------|
|--7--7-7--7-7-7-7-7-|-7-7-7-7-7-7-7-7-|
|--------------------|-----------------|
|--------------------|-----------------|
|--------------------|-----------------|
|
|  E  E Q.     E E E   E E E E E E E E
|--------------------|-----------------|
|--------------------|-----------------|
|--------------------|-----------------|
|-------0--------0---|-----0-------0---|
|--5--5--------5---5-|-8-8---8-7-7---7-|
|--------------------|-----------------|
|
|  W                   H       H
|--------------------|-----------------|
|--------------------|-----------------|
|--------------------|-----------------|
|-(3)----------------|-3-------2-------|
|--5-----------------|-----------------|
|--------------------|-----------------|


                             * * *   * * *
     W                    E  E E E E E E E
||-------------------|----8--8-8-8---------|
||o------------------|-------------8-8-8-8-|
||-------------------|---------------------|
||-------------------|---------------------|
||o------------------|---------------------|
||-------------------|---------------------|
|
|    E  E Q.   E E E   a  E  E E E E E E E
||-------------------|---------------------|
||o------------------|---------------------|
||-------------------|---------------------|
||--------0------0---|---------0---5-7-5-7-|
||o--1--1------1---1-|-1s=3--3---3---------|
||-------------------|---------------------|
|
|    W                    W
||-------------------|---------------------|
||o------------------|---------------------|
||-------------------|---------------------|
||--(0)--------------|---(2)---------------|
||o--1---------------|----3----------------|
||-------------------|---------------------|


      * *  * * * * *   * * * * * * * *
   E  E E  E E E E E   E E E E E E E E
|--------------------|------------------||
|--------------------|-----------------o||
|--7--7-7--7-7-7-7-7-|-7-7-7-7-7-7-7-7--||
|--------------------|------------------||
|--------------------|-----------------o||
|--------------------|------------------||
|
|  E  E Q.     E E E   E E E E E E E E
|--------------------|------------------||
|--------------------|-----------------o||
|--------------------|------------------||
|-------0--------0---|-----0-------0----||
|--5--5--------5---5-|-8-8---8-7-7---7-o||
|--------------------|------------------||
|
|  W                   H       H
|--------------------|------------------||
|--------------------|-----------------o||
|--------------------|------------------||
|-(3)----------------|-3-------2--------||
|--5-----------------|-----------------o||
|--------------------|------------------||

Duration Legend
---------------
W - whole; H - half; Q - quarter; E - 8th; S - 16th; T - 32nd; X - 64th; a - acciaccatura
+ - note tied to previous; . - note dotted; .. - note double dotted
Uncapitalized letters represent notes that are staccato (1/2 duration)
Irregular groupings are notated above the duration line
Duration letters will always appear directly above the note/fret number it represents the
duration for.  Duration letters with no fret number below them represent rests.  Multi-
bar rests are notated in the form Wxn, where n is the number of bars to rest for.  Low
melody durations appear below the staff

Tablature Legend
----------------
 h   - hammer-on
 p   - pull-off
 b   - bend
 pb  - pre-bend
 r   - bend release (if no number after the r, then release immediately)
 /\  - slide into or out of (from/to "nowhere")
 s   - legato slide
 S   - shift slide
 - natural harmonic
[n]  - artificial harmonic
n(n) - tapped harmonic
 ~   - vibrato
 tr  - trill
 T   - tap
 TP  - trem. picking
 PM  - palm muting
\n/  - tremolo bar dip; n = amount to dip
 \n  - tremolo bar down
 n/  - tremolo bar up
/n\  - tremolo bar inverted dip
 =   - hold bend; also acts as connecting device for hammers/pulls
 <> - volume swell (louder/softer)
 x   - on rhythm slash represents muted slash
 o   - on rhythm slash represents single note slash

Misc Legend
-----------
 |  - bar
||  - double bar
||o - repeat start
o|| - repeat end
*|  - double bar (ending)
 :  - bar (freetime)
 $  - Segno
 &  - Coda
Tempo markers -  = BPM(8/16=s8/s16), where s8 = swing 8ths, s16 = swing 16ths


6. HAVE FAITH IN ME

Drop C Tuning.
Rhythm Guitar.
I may tab the Lead but its hard to hear in this song

Key
(10)10’s Not 1’s, there are not 1’s in the song.
(X) Mutes.
(.) Palm Mutes.
(~) Hold Note.

Intro (0:00)

D:-------------------------------------|
A:---10---10---10---10---8---8---7---7-|
F:-7----7----7----7----7---7---7---7---| (x8)
C:-------------------------------------|
G:-------------------------------------|
C:-------------------------------------|

Verse 1 (0:32)

D:-----------------------------------------------|
A:-----------------------------------------------|
F:-----------------------------------------------|
C:-99---00---55---22-55-99----00—-55---2222-5555-|
G:-99---00---55---22-55-99----00—-55---2222-5555-|
C:-99---00---55---22-55-99----00—-55---2222-5555-|
/:-..---..---..---..-..-..----..--..---....------|

Chorus 1 (0:45)

D:---------------------------------------------------------------------|
A:---------------------------------------------------------------------|
F:---------------------------------------------------------------------|
C:-9999999999999999-0000000000000000-5555555555555555-7777777777777777-|
G:-9999999999999999-0000000000000000-5555555555555555-7777777777777777-|
C:-9999999999999999-0000000000000000-5555555555555555-7777777777777777-|

Verse 2 (0:58) (listen carefully to the strumming pattern)

D:--------------------------------|
A:--------------------------------|
F:--------------------------------|
C:-99999999|00000|5555555|2222|55-|
G:-99999999|00000|5555555|2222|55-|
C:-99999999|00000|5555555|2222|55-|
/:-..-.--.-|..---|..-.--.|..-.|---|

(1:10)

D:-----------------------------------------------|
A:-----------------------------------------------|
F:-----------------------------------------------|
C:-99---00---55---22-55-99----00—-55---2222-5555-|
G:-99---00---55---22-55-99----00—-55---2222-5555-|
C:-99---00---55---22-55-99----00—-55---2222-5555-|
/:-..---..---..---..-..-..----..--..---....------|

Chorus 2 (1:23)

D:---------------------------------------------------------------------|
A:---------------------------------------------------------------------|
F:---------------------------------------------------------------------|
C:-9999999999999999-0000000000000000-5555555555555555-7777777777777777-| (x2)
G:-9999999999999999-0000000000000000-5555555555555555-7777777777777777-|
C:-9999999999999999-0000000000000000-5555555555555555-7777777777777777-|

Breakdown (1:49)

D:--------------------------------------|
A:--------------------------------------|
F:--------------------------------------|
C:-555-x555--99-9999—-777-x777—-22-4444-| (x3)
G:-555-x555--99-9999—-777-x777—-22-4444-|
C:-555-x555—-99-9999—-777-x777—-22-4444-|

(2:08)

D:--------------------------------------|
A:--------------------------------------|
F:--------------------------------------|
C:-555-x555--55-5555—-777-x777—-77-7777-|
G:-555-x555--55-5555—-777-x777—-77-7777-|
C:-555-x555—-55-5555—-777-x777—-77-7777-|

Bridge (2:14)                            (2:24)

D:-------------------------------------|      |-----|
A:---10---10---10---10---8---8---7---7-|      |-----|
F:-7----7----7----7----7---7---7---7---| (x3) |-----|
C:-------------------------------------|      |-55~-|
G:-------------------------------------|      |-55~-|
C:-------------------------------------|      |-55~-|

Chorus 3 (2:27)

D:---------------------------------------------------------------------|
A:---------------------------------------------------------------------|
F:---------------------------------------------------------------------|
C:-9999999999999999-0000000000000000-5555555555555555-7777777777777777-| (x2)
G:-9999999999999999-0000000000000000-5555555555555555-7777777777777777-|
C:-9999999999999999-0000000000000000-5555555555555555-7777777777777777-|

Outro (2:52)

D:-------------------------------------------------------------------|
A:-------------------------------------------------------------------|
F:-------------------------------------------------------------------|
C:-55555555-22222222-99999999-00000000-55555555-22222222-99999999-00-|
G:-55555555-22222222-99999999-00000000-55555555-22222222-99999999-00-|
C:-55555555-22222222-99999999-00000000-55555555-22222222-99999999-00-|
/:-........-........-........-........-........-........-........_..-|

If there are any problems or if you have any corrections do
not hesitate to contact me. Comment & RATE!!! :)


7. WELCOME TO THE FAMILY

If you don't have Guitar Pro, copy and paste this link: 
http://www.ultimate-guitar.com/tabs/a/a_day_to_remember/welcome_to_the_family_ver2_guitar_pro.htm

8. HOMESICK

Drop C Tuning.
Rhythm Guitar.

Key
(X) Mutes.
(.) Palm Mutes.
(^) Bend String.
(~) Hold Note.
(/) Slide up to. Don’t count the ones under the string
    Letters.

Listen carefully to the song to find out the strumming patterns. 

Verse 1 (0:00)

D:-------------------------------------------------------------------|
A:-------------------------------------------------------------------|
F:------------------------------------555555555555-------------------|
C:-Pickslide-777777777777-000000-333333-555555555555-555555-66666666-|
G:-Pickslide-777777777777-000000-333333-333333333333-555555-66666666-|
C:-Pickslide-777777777777-000000-333333--------------555555-66666666-|

D:------------------------------------------------------------|
A:------------------------------------------------------------|
F:-------------------------------555555555555-----------------|
C:-777-xxx-777-xxx-000000-333333-555555555555-555555-66666666-|
G:-777-xxx-777-xxx-000000-333333-333333333333-555555-66666666-|
C:-777-xxx-777-xxx-000000-333333--------------555555-66666666-|

Pre Chorus 1 (0:20)

D:----------------------------------------------------|
A:----------------------------------------------------|
F:----------------------------------------------------|
C:-33333/55555/77777/10~-33333/55555/7777777777777777-|
G:-33333/55555/77777/10~-33333/55555/7777777777777777-|
C:-33333/55555/77777/10~-33333/55555/7777777777777777-|
/:-----------------------------------................-|

D:------------------------------------|
A:------------------------------------|
F:------------------------------------|
C:-33333/55555/77777/10~----3~----/5~-|
G:-33333/55555/77777/10~----3~----/5~-|
C:-33333/55555/77777/10~----3~----/5~-|

Chorus 1 (0:39)                              (0:56)

D:------------------------------------|      D:----|
A:------------------------------------|      A:----|
F:-5555555555555555-------------------|      F:----|
C:-5555555555555555-77777777-33333333-| (x2) C:-6~-|
G:-3333333333333333-77777777-33333333-|      G:-6~-|
C:------------------77777777-33333333-|      C:-6~-|

Verse 2 (0:58)

D:-------------------------------------------------------------------|
A:-------------------------------------------------------------------|
F:---------------------------------------555555555555----------------|
C:-Pickslide-777777777777-000000-333333-555555555555-555555-66666666-|
G:-Pickslide-777777777777-000000-333333-333333333333-555555-66666666-|
C:-Pickslide-777777777777-000000-333333--------------555555-66666666-|

D:------------------------------------------------------------|
A:------------------------------------------------------------|
F:-------------------------------555555555555-----------------|
C:-777-xxx-777-xxx-000000-333333-555555555555-555555-66666666-|
G:-777-xxx-777-xxx-000000-333333-333333333333-555555-66666666-|
C:-777-xxx-777-xxx-000000-333333--------------555555-66666666-|

Pre Chorus 2 (1:17)

D:----------------------------------------------------|
A:----------------------------------------------------|
F:----------------------------------------------------|
C:-33333/55555/77777/10~-33333/55555/7777777777777777-|
G:-33333/55555/77777/10~-33333/55555/7777777777777777-|
C:-33333/55555/77777/10~-33333/55555/7777777777777777-|
/:-----------------------------------................-|

D:------------------------------------|
A:------------------------------------|
F:------------------------------------|
C:-33333/55555/77777/10~----3~----/5~-|
G:-33333/55555/77777/10~----3~----/5~-|
C:-33333/55555/77777/10~----3~----/5~-|

Chorus 2 (1:36)

D:------------------------------------|
A:------------------------------------|
F:-5555555555555555-------------------|
C:-5555555555555555-77777777-33333333-| (x2)
G:-3333333333333333-77777777-33333333-|
C:------------------77777777-33333333-|

Mini Breakdown (1:54)

D:-------------------------------------------|
A:-------------------------------------------|
F:-55-555-555-555-55555555-------------------|
C:-55-555-555-555-55555555-77777777-33333333-| (x2)
G:-33-333-333-333-33333333-77777777-33333333-|
C:-------------------------77777777-33333333-|

Bridge (2:11)

D:-----------------------------------------------------------------|
A:-----------------------------------------------------------------|
F:-5~--------------5~----------------------------------------------|
C:-5~--------------5~---------------7~---------------5555555555555-|
G:-3~--------------3~---------------7~---------------5555555555555-|
C:----------------------------------7~---------------5555555555555-|
/:---------------------------------------------------..........----|
                                               (Slowly release palm)
Breakdown (2:29)

D:---------------------------------------------------------|
A:---------------------------------------------------------|
F:-------5555555-------5555555-------5555555-------5555555-|
C:-33333-xxxxxxx-33333-xxxxxxx-77777-xxxxxxx-55555-xxxxxxx-| (x2)
G:-33333-3333333-33333-3333333-77777-3333333-55555-3333333-|
C:-33333---------33333---------77777---------55555---------|

(3:04)

D:--------------------------------|
A:--------------------------------|
F:---------------5555555555555555-|
C:-3~------------5555555555555555-|
G:-3~------------3333333333333333-|
C:-3~-----------------------------|
/:---------------.............----|
              (Slowly release palm)
                    
Chorus 3 (3:12)

D:------------------------------------|
A:------------------------------------|
F:-5555555555555555-------------------|
C:-5555555555555555-77777777-33333333-| (x2)
G:-3333333333333333-77777777-33333333-|
C:------------------77777777-33333333-|

Mini Breakdown 2 (3:30)

D:-------------------------------------------|
A:-------------------------------------------|
F:-55-555-555-555-55555555-------------------|
C:-55-555-555-555-55555555-77777777-33333333-|
G:-33-333-333-333-33333333-77777777-33333333-|
C:-------------------------77777777-33333333-|

D:-------------------------------------------|
A:-------------------------------------------|
F:-55-555-555-555-55555555-------------------|
C:-55-555-555-555-55555555-77777777-3~-------|
G:-33-333-333-333-33333333-77777777-3~-------|
C:-------------------------77777777-3~-------|
_______________________________________________

Just thought id put this in here!

||Lead Breakdown|| (2:29)

(the only part I could work out for the lead) 
D:---------------------------------------------|
A:---------------------------------------------|
F:-------5555555-------12121212-10101010-99-10-|
C:-33333-xxxxxxx-33333-x-x-x-x--x-x-x-x—-xx-x--|
G:-33333-3333333-33333-10101010—8-8-8-8--77-8--|
C:-33333---------33333-------------------------|

D:---------------------------------------------|
A:---------------------------------------------|
F:-------5555555-------12121212-10101010-99-10-|
C:-77777-xxxxxxx-55555-x-x-x-x--x-x-x-x—-xx-x--|
G:-77777-3333333-55555-10101010—8-8-8-8--77-8--|
C:-77777---------55555-------------------------|

Verse 1
Pre Chorus
Chorus 1
Verse 2
Pre Chorus 2
Chorus 2
Mini Breakdown 1 (I didnt know what else to call it?)
Bridge
Breakdown
Chorus 3
Mini Breakdown 2

9. HOLDIN' IT DOWN FOR THE UNDERGROUND

Tuning: Drop C

Intro (Thanks to yeahrightmilk)

Intro Guitar 1
D|---------------------------------------------------------------------------|
A|------10-----10-------10-------10------10-----10-----------------10--------|
F|------10-----10-------10-------10------10-----10-----------------10--------|
C|--8-8----8-8-----------------------0-0----0-0--------------------0---------|
G|----------------10-10----10-10---------------------------------------------|
C|---------------------------------------------------------------------------|

Guitar 2
D|---------------------------------------------------------------------------|
A|---------------------------------------------------------------------------|
F|---------------------------------------------------------------------------|
C|--8-----5-----0------------------------------------------------------------|
G|--8x8---5x8---0x8----------------------------------------------------------|
C|--8-----5-----0------------------------------------------------------------|

Guitar 1
D|------------------------------------------------------------------------------------|
A|------------------------------------------------------------------------------------|
F|------------------------------------------------------------------------------------|
C|--0-0-0-0-0-0-0---------------------------------------------------------------------|
G|--0-0-0-0-0-0-0---------------------------------------------------------------------|
C|--0-0-0-0-0-0-0---------------------------------------------------------------------|

Guitar 2
D|------------------------------------------------------------------------------|
A|------------------------------------------------------------------------------|
F|------------------------------------------------------------------------------|
C|--0---------------------------------------------------------------------------|
G|--0---------------------------------------------------------------------------|
C|--0---------------------------------------------------------------------------|

D|---------------------------------------------------------------------------|
A|----------------------------------------------------------------------------|
F|---------------------------------------------------------------------------|
C|--------------------------------------------------10|----5|----7|----------|
G|---88888888----55555555----0000000000000000|-------8|----3|----5|----------|
C|---88888888----55555555----0000000000000000| x2----8|x8--3|x4--5|x2--------|

D|---------------------------------------------------------------------------|
A|---------------------------------------------------------------------------|
F|----------------------------------------------------------| then this |----|
C||this whole thing 3 times|---------|this once|-------------7|------10|-----|
G|---0-0-0-0------000-000--------------0-0-0-0---------------5|------8|------|
C|---0-0-0-0------000-000--------------0-0-0-0---------------5|x3----8|x3----|

D|---------------------------------------------------------------------------|
A|---------------------------------------------------------------------------|
F|---------------------------------------------------------------------------|
C|-----------------------------------------------------------7|------10|-----|
G|---0-0-0-0-0-0-0-0-0-0-0-0-000-000-0-0-0-0-0-0-0-0---------5|-------8|-----|
C|---0-0-0-0-0-0-0-0-0-0-0-0-000-000-0-0-0-0-0-0-0-0---------5|x3-----8|x3---|

D|---------------------------------------------------------------------------|
A|---------------------------------------------------------------------------|
F|---------------------------------------------------------------------------|
C|-----------------------------------------------------------7|--------------|
G|---0-0-0-0-0-0-0-0-0-0-0-0-000-000-0-0-0-0-0-0-0-0---------5|--------------|
C|---0-0-0-0-0-0-0-0-0-0-0-0-000-000-0-0-0-0-0-0-0-0---------5|x4------------|

D|---------------------------------------------------------------------------|
A|--------------------------------|play this whole thing once|---|then this|-|
F||play this whole thing 2 times|--------------------------------------------|
C|------------------------------------10|---7|----5|----3|--------10|---7|---|
G|--8|------5|------0|------3|--------8|----5|----3|----0|--------8|----7|---|
C|--8|x8----5|x8----0|x8----3|x8------8|x8--5|x8--3|x8--0|x8------8|x8--5|x8-|

D|---------------------------------------------------------------------------|
A|--------------------------play this whole bar twice------------------------|
F|---------------------------------------------------------------------------|
C|-----------------------------------------------------------7|------10|-----|
G|---0-0-0-0-0-0-0-0-0-0-0-0-000-000-0-0-0-0-0-0-0-0---------5|-------8|-----|
C|---0-0-0-0-0-0-0-0-0-0-0-0-000-000-0-0-0-0-0-0-0-0---------5|x3-----8|x3---|

D|---------------------------------------------------------------------------|
A|---------------------------------------------------------------------------|
F|----------------------------------------------------------| then this |----|
C||this whole thing 3 times|---------|this once|------------------7|---------|
G|---0-0-0-0------000-000--------------0-0-0-0--------------------5|---------|
C|---0-0-0-0------000-000--------------0-0-0-0--------------------5|x4-------|

D|---------------------------------------------------------------------------|
A|--------------------------------|play this whole thing once|---|then this|-|
F||play this whole thing 2 times|--------------------------------------------|
C|------------------------------------10|---7|----5|----3|--------10|---7|---|
G|--8|------5|------0|------3|--------8|----5|----3|----0|--------8|----7|---|
C|--8|x8----5|x8----0|x8----3|x8------8|x8--5|x8--3|x8--0|x8------8|x8--5|x8-|

D|---------------------------------------------------------------------------|
A|---------------------------------------------------------------------------|
F|---------------------------------------------------------------------------|
C|-----------------|this part x2|---------------------|this part x2|---------|
G|-0------------000-0-0-3-2-0-0----55555555--11111111--0-0-3-2-0-0-----------|
C|-0------------000-0-0-3-2-0-0----55555555--11111111--0-0-3-2-0-0-----------|

D|---------------------------------------------------------------------------|
A|------------------------play this whole bar 2 times------------------------|
F|---------------------------------------------------------------------------|
C|---------------------------------------------------------------------------|
G|---0-0-0--0-0---0-0-0-0--000000000--00--0--0000-0000-000-000---------------|
C|---0-0-0--0-0---0-0-0-0--000000000--00--0--0000-0000-000-000---------------|

D|---------------------------------------------------------------------------|
A|---------------------------------------------------------------------------|
F|---------------------------------------------------------------------------|
C|-------------------------------------------------------------7|------------|
G|---0-0-0--0-0---0-0-0-0--000000000--00--0--0000--------------5|------------|
C|---0-0-0--0-0---0-0-0-0--000000000--00--0--0000--------------5|x4----------|

D|---------------------------------------------------------------------------|
A|--------------------------------|play this whole thing once|---|then this|-|
F||play this whole thing 2 times|--------------------------------------------|
C|------------------------------------10|---7|----5|----3|--------10|---7|---|
G|--8|------5|------0|------3|--------8|----5|----3|----0|--------8|----7|---|
C|--8|x8----5|x8----0|x8----3|x8------8|x8--5|x8--3|x8--0|x8------8|x8--5|x8-|

D|---------------------------------------------------------------------------|
A|---------------------------------------------------------------------------|
F|---------------------------------------------------------------------------|
C|-----------------------------------------------------------7|--------------|
G|---0-0-0-0-0-0-0-0-0-0-0-0-000-000-0-0-0-0-0-0-0-0---------5|--------------|
C|---0-0-0-0-0-0-0-0-0-0-0-0-000-000-0-0-0-0-0-0-0-0---------5|x4------------|




| /  slide up
| \  slide down
| h  hammer-on
| p  pull-off
| ~  vibrato
| +  harmonic
| x  Mute note


10. YOU ALREADY KNOW WHO YOU ARE

Intro
(guitar 1)
D|--------------------------------|
A|--------------------------------|
F|--------------------------------|
C|--------------------------------|
G|--------------------------------|
C|-11144444-----------------------|


Breakdown 1 (both guitars)
D|--------------------------------------------------------------------------|
A|--------------------------------------------------------------------------|
F|--------------------------------------------------------------------------|
C|--------------------------------------------------------------------------|x2
G|-0-00--000-0-00--000000--x2-1-11--111-1-11--111111-4-44--444-4-44--444444-|
C|-0-00--000-0-00--000000-----1-11--111-1-11--111111-4-44--444-4-44--444444-|
   . ..  ... . ..  ......     . ..  ... . ..  ...... . ..  ... . ..  ......

(guitar 1)
D|--------------------------------|
A|--------------------------------|
F|--------------------------------|
C|--------------------------------|
G|-0~---111444--------------------|
C|-0~---111444--------------------|

verse
(guitar 1)                                                      1st Time
D|-------------------------------------------------|------------------------|
A|-------------------------------------------------|------------------------|
F|-777777777777777714141414141414141414141414141414|-12---10---12---14------|
C|-------------------------------------------------|---x8---x8---x8---x8----|
G|-555555555555555512121212121212121212121212121212|-10---8----10---12------|
C|-------------------------------------------------|------------------------|

  2nd Time
D|--------------------------------|
A|--------------------------------|
F|-12---10---12-------------------|
C|---x8---x8---x8-----------------|
G|-10---8----10---555-555-555-555-|
C|----------------555-555-555-555-|
                  ... ... ... ...
 (guitar 2)                           1st time
D|----------------------------------|---------------------|
A|----------------------------------|---------------------|
F|-7777777777777777-----------------|---------------------|
C|-7777777777777777-----------------|---------------------|
G|-55555555555555553333333333333333-|-10-x8--8-x8--10-x16-|
C|-----------------3333333333333333-|-10-----8-----10-----|

  2nd time
D|------------------------------------|
A|------------------------------------|
F|------------------------------------|
C|------------------------------------|
G|-10-x8--8-x8--5-x8-555-555-555-555--|
C|-10-----8-----5----555-555-555-555--|
                     ... ... ... ...

Breakdown 2 (guitar 1)
D|-----------------------------------------------------------------|
A|-----------------------------------------------------------------|
F|-------------------------7---------------------------------------|
C|-------------------------7---------------------------------------|
G|-000-000-000-000-000-000-5-0-87-000-000-000-000-000-000-00000000-|
C|-000-000-000-000-000-000---0-87-000-000-000-000-000-000-00000000-|

 (guitar 2)
D|-------------------------------------|
A|-------------------------------------|
F|-------------------------------------|
C|-------------------------------------|
G|-000-000-000-000-000-000-00000000-x2-|
C|-000-000-000-000-000-000-00000000----|

Breakdown 3 (continues from breakdown 2)
 (both guitars)
D|-------------------------------------|
A|-------------------------------------|
F|-------------------------------------|
C|-------------------------------------| x2
G|-00-000--000-00-00-00-000--000-00-00-|
C|-00-000--000-00-00-00-000--000-00-00-|
   .. ...  ... .. .. .. ...  ... .. ..
Outro
D|---------------------------|
A|---------------------------|
F|-7-------------------------|
C|-7-x8----------------------|
G|-5----8-x8--10-x8--0-------|
C|------8-----10-----0-------|

11. ANOTHER SONG FOR THE WEEKEND

.= palm mute


1st guitar:
strum multiple times
D|-----|
A|-----|
F|--7--|
C|--x--| 
G|--5--|
C|-----|

2nd guitar comes in with this:
D|-----|
A|-----|
F|-----| 
C|--0--|
G|--0--|
C|--0--|

(0:07) 
D|--------------|
A|--------------|
F|--------------|
C|--7-5-4-2--0--|
G|--7-5-4-2--0--|
C|--7-5-4-2--0--|
    . . . .

2nd guitar instead of ending with open 0 it's the 7x5 
like at the beginning

(0:19) 
pickslide and then (figure out strumming):
D|--------------|
A|--------------|
F|--------------|
C|--0--5--0--7--|
G|--0--5--0--7--|
C|--0--5--0--7--|

(0:32)
D|-------------------------------------|
A|-------------------------------------|
F|--4---4/7----3---3/7-----------------|
C|--x---x/x----x---x/x-----5--4--5--7--|
G|--2---2/5----1---1/5-----5--4--5--7--|
C|-------------------------5--4--5--7--|

Chorus:

1st guitar
D|-----------------|
A|-----------------|
F|-----------------|
C|--0--5--9--7--5--|
G|--0--5--9--7--5--|
C|--0--5--9--7--5--|

2nd guitar
D|----------------------------------------|
A|----------------------------------------|
F|--7----9--11----------14----12--11---5--|
C|--x----x--x---(2x)----x-----x---x----x--|
G|--5----7--9-----------12----10--9----7--|
C|----------------------------------------|
{end chorus}


D|-------------|
A|-------------|
F|--7----------|
C|--x---7-5-4-2| 
G|--5---7-5-4-2|
C|------7-5-4-2|
        . . . .


(1:10)
D|------------------------------------------------------------|
A|------------------------------------------------------------|
F|------------------------------------------------------------|
C|--00-000-000-000-055-555-555-555-500-000-000-000-077-777-7-7|
G|--00-000-000-000-055-555-555-555-500-000-000-000-077-777-7-7|
C|--00-000-000-000-055-555-555-555-500-000-000-000-077-777-7-7|
    .. ... ... ... ... ... ... ... ... ... ... ... ... ... .

D|-------------------------------------|
A|-------------------------------------|
F|--4---4/7----3---3/7-----------------|
C|--x---x/x----x---x/x-----5--4--5--7--| (2x)
G|--2---2/5----1---1/5-----5--4--5--7--|
C|-------------------------5--4--5--7--|

(Chorus again)

Breakdown (2:11)
D|-------------------------------------------------|
A|-------------------------------------------------|
F|--9/11-\9----------------------------------------|
C|--x/x--\x---0000000000000000-555555555555555555--|
G|--7/9--\7---0000000000000000-555555555555555555--|
C|------------0000000000000000-555555555555555555--|


End breakdown on
1st guitar:
D|-----|
A|-----|
F|-----|
C|--0--|
G|--0--|
C|--0--|

2nd guitar:
D|-----|
A|-----|
F|--7--|
C|--x--|
G|--5--|
C|-----|

I fell asleep... (just the bass)

(2:46) HAVE FAITH IN ME!
[pickslide]

(chorus)

(3:23)
D|-----|   
A|-----|
F|--7--|
C|--x--|
G|--5--|
C|-----|

2nd guitar joins in:
D|-----|
A|-----|
F|-----|
C|--0--|
G|--0--|
C|--0--|

And end it with:

1st guitar:
D|--------------|
A|--------------|
F|--------------|
C|--7-5-4-2--0--|
G|--7-5-4-2--0--|
C|--7-5-4-2--0--|
    . . . .

2nd guitar:
D|------------------|
A|------------------|
F|--14-12-11-9---7--|
C|--x--x--x--x---x--|
G|--12-10-9--7---5--|
C|------------------|


12. IF IT MEANS A LOT TO YOU

I'm pretty sure this tab is almost 100% accurate. Enjoy! :]

CAPO 3

CHORDS:
  c/G    G   Gsus2  Em/D
|--3--|--3--|--3--|--3--|
|--3--|--3--|--3--|--3--|
|--0--|--0--|--2--|--0--|
|--2--|--0--|--0--|--2--|
|--3--|--2--|--0--|--2--|
|--X--|--3--|--2--|--0--|

INTRO:

Guitar 1

(C/G, G, Gsus2) -----play twice


Guitar 2

-----------------------------3--3----------------------------------|
-----------------------------3--3----------------------------------|
--2h4--2p0-----2h4--2p0------0--0--2h4--2p0------------------------|
------------2------------2-------------------2---4-5-5-4-4--5-4----|
-------------------------------------------------------------------|
-------------------------------------------------------------------|


Guitar 3 (second time around)

----------------------------3--3-----------------------------------|
--1h3--3p1-----1h3--3p1-----3--3--1h3--3p1-------------------------|
------------0------------0--0--0------------0--2-4-4-2-2-4-4-2-2-0-|
-------------------------------------------------------------------|
-------------------------------------------------------------------|
-------------------------------------------------------------------|


VERSE 1:

 Em/D       G
And hey darling
  Gsus2            Em/D
I hope you're good tonight
       G                   Gsus2
And I know you don't feel right when I'm leaving
Em/D
Yeah I want it but no I don't need it
G                Gsus2           Em/D
Tell me something sweet to get me by
    C/G                 G
'Cuz I can't come back home till they're singing


C/G      Gsus2     Em/D
La, la la la, la la la
G
'Til everyone is singing


CHORUS:

G                   Gsus2
If you can wait till I get home
       Em/D
Then I swear to you
                      C/G
That we can make this last

(La la la)
G                   Gsus2
If you can wait till I get home
       Em/D
Then I swear come tomorrow
                       C/G
This will all be in the past
        G
Well it might before the best


PLAY INTRO AGAIN


VERSE 2:

Em/D        G
And hey sweetie
Gsus2                 Em/D
Well I need you here tonight
      G                   Gsus2
And I know that you don't want to be leaving me
Em/D
Yeah you want it but I can't help it
G               Gsus2                  Em/D
I just feel complete when you're by my side
       C/G                 G
But I know you can't come home 'til they're singing


C/G      Gsus2     Em/D
La, la la la, la la la
G
'Til everyone is singing
C/G      Gsus2      G
La, la la la, la la la

CHORUS:

G                   Gsus2
If you can wait till I get home
       Em/D
Then I swear to you
                      C/G
That we can make this last

(La la la)
G                   Gsus2
If you can wait till I get home
       Em/D
Then I swear come tomorrow
                       C/G
This will all be in the past
        G                c/G
Well it might before the best

BRIDGE:

                   C/G            G
You know you can't give me what I need
                        Em/D
And even tho it means so much to me
                      Gsus2
I can't wait through everything

Is this really happening


C/G                           G
I swear I'll never be happy again
                                   Em/D
And don't you dare say that we can just be friends
                              Gsus2
I'm not just some boy you can sway

We know what will happen eventually


OUTRO:

C/G      Gsus2     Em/D
La, la la la, la la la
        G
Now everybody's singing
C/G      Gsus2     Em/D
La, la la la, la la la
        G
Now everybody's singing
C/G      Gsus2     Em/D
La, la la la, la la la
        G
If you can wait ‘til I get home
(Now everybody's singing)
C/G      Gsus2     Em/D
Then I swear to you that we can make this last

(La, la la la, la la la
        G
Now everybody's singing)

If you can wait ‘til I get home

(La, la la la, la la la

Now everybody's singing)

Then I swear to you that we can make this last

(La, la la la, la la la

Now everybody's singing)

La
comments
print report bad tab
3 comments total.
0 reply
avengedEVANfold wrote on December 4 2009, 08:19 pm

im sorry but most of this is really off.

/:

0 reply
xlarkascendingx wrote on June 19 2014, 10:58 am

Lack of accuracy. Clearly wrong.

0 reply
xlarkascendingx wrote on June 19 2014, 10:58 am

This is ****ing awful.

I want to post or [tab]
guest
You may want to rate the tab now too:
select rating
Please do not post tabs as comments. Select "correction" instead!