Oops, an error
Loading. Please wait.

Homesick Tab

ver2
ver2

Album

Whole song

Interactive

More versions @911Tabs.com
5,867 views 3 this week
no commentswrite comment
1 2 3 4 5
excellent!
x 4
add to favorites launch autoscroll
font size
0
reset
Autoscroll
+/-
esc
set tempo
stop
Contributor
Difficulty
Tuning
intermediate
C G C F A D
WARNING: You are trying to view
                                    content from Ultimate-Guitar.com
                                    in an unauthorized application,
                                    which is prohibited.

                                    Please use an official Ultimate
                                    Guitar Tabs application for iPhone,
                                    iPad or Android to access legitimate
                                    chords, guitar, bass, and drum tabs
                                    from Ultimate-Guitar.com database.

                                    Type "ultimate guitar tabs" in Apple
                                    App Store's or Android Market's
                                    search to find the application.
----------------------------------------------------------------------------
                        HOMESICK by A DAY TO REMEMBER
                            on the HOMESICK album
----------------------------------------------------------------------------

TUNING: Drop C (CGCFAD)

Tab by AsILayDying504

.  palm mute
h  hammer on
p  pull off
~  hold note
\  slide down
x  mute string



INTRO/VERSE:

D|-------------------|
A|-------------------|
F|--pickslide--------|
C|--x\\\\\\\\\\\-----|
G|--x\\\\\\\\\\\-----|
C|--x\\\\\\\\\\\-----|

D|-------------------------------------------------------------------------|
A|-------------------------------------------------------------------------|
F|-------------------------------------5555555555555555--------------------|
C|--7777777777777777-00000000-33333333-5555555555555555-55555555-66666666--|
G|--7777777777777777-00000000-33333333-3333333333333333-55555555-66666666--|
C|--7777777777777777-00000000-33333333------------------55555555-66666666--|

and then...

Guitar 1

D|-------------------------------------------------------------------------|
A|-------------------------------------------------------------------------|
F|--9-9---9-x-x---x-9-9---9-x-x---x-1010101010101010--5-5-5-5-5-5-5-5------|
C|--x-x---x-x-x---x-x-x---x-x-x---x-x-x-x-x-x-x-x-x---x-x-x-x-x-x-x-x------|
G|--7-7---7-x-x---x-7-7---7-x-x---x-8-8-8-8-8-8-8-8---3-3-3-3-3-3-3-3------|
C|-------------------------------------------------------------------------|

D|-------------------------------------------------------------------------|
A|-------------------------------------------------------------------------|
F|--12121212121212121212121212121212-7-7-7-7-7-7-7-7-1313131313131313------|
C|--x-x-x-x-x-x-x-x-x-x-x-x-x-x-x-x--x-x-x-x-x-x-x-x-x-x-x-x-x-x-x-x-------|
G|--10101010101010101010101010101010-5-5-5-5-5-5-5-5-1111111111111111------|
C|-------------------------------------------------------------------------|

Guitar 2

D|-------------------------------------------------------------------------|
A|-------------------------------------------------------------------------|
F|-----------------------------------5555555555555555----------------------|
C|--77-7xx-x77-7xx-x0000000-33333333-5555555555555555-55555555-66666666----|
G|--77-7xx-x77-7xx-x0000000-33333333-3333333333333333-55555555-66666666----|
C|--77-7xx-x77-7xx-x0000000-33333333------------------55555555-66666666----|


PRECHORUS:

Guitar 1

D|------------------------------------------------|
A|------------------------------------------------|
F|--5-555555--4-444444--5-5555555--12-9-9-10-9----|
C|--x-xxxxxx--x-xxxxxx--x-xxxxxxx--x--x-x-x--x----|
G|--3-333333--2-222222--3-3333333--10-7-7-8--7----|
C|------------------------------------------------|

D|-------------------------------------------------------------------|
A|-------------------------------------------------------------------|
F|--5-555555--4-4444444--------12----10----9----7-7-9----9h10p7h9----|
C|--x-xxxxxx--x-xxxxxxx--10-10----10----10---10-------10-------------|
G|--3-333333--2-2222222----------------------------------------------|
C|-------------------------------------------------------------------|
                         .  .     .     .    .  . .   .
D|------------------------------------------------------------|
A|------------------------------------------------------------|
F|--5-555555--4-444444--5-5555555--12-9-9-10-9----5~----7~----|
C|--x-xxxxxx--x-xxxxxx--x-xxxxxxx--x--x-x-x--x----x-----x-----|
G|--3-333333--2-222222--3-3333333--10-7-7-8--7----3~----5~----|
C|------------------------------------------------------------|


Guitar 2

D|---------------------------------------------------|
A|---------------------------------------------------|
F|---------------------------------------------------|
C|--3-333333--5-555555--7-777777--10-101010101010----|
G|--3-333333--5-555555--7-777777--10-101010101010----|
C|--3-333333--5-555555--7-777777--10-101010101010----|

D|-----------------------------------------|
A|-----------------------------------------|
F|-----------------------------------------|
C|--3-333333--5-555555----7---7---7-777----|
G|--3-333333--5-555555--777-777-777-777----|
C|--3-333333--5-555555--777-777-777-777----|
                        ..  ..  ..  
D|-------------------------------------------------------------|
A|-------------------------------------------------------------|
F|-------------------------------------------------------------|
C|--3-333333--5-555555--7-777777--10-101010101010--3~----5~----|
G|--3-333333--5-555555--7-777777--10-101010101010--3~----5~----|
C|--3-333333--5-555555--7-777777--10-101010101010--3~----5~----|


CHORUS:

Guitar 1

D|-------------------------------------------------------------------------|
A|-------------------------------------------------------------------------|
F|--5-5-5-5-5-5-5--12-12-9-9-10-10-7-7--5-5-5-5-5-5-7-7-5-5-5-5-5-5-5-5-5--|
C|--x-x-x-x-x-x-x--x--x--x-x-x--x--x-x--x-x-x-x-x-x-x-x-x-x-x-x-x-x-x-x-x--|
G|--3-3-3-3-3-3-3--10-10-7-7-8--8--5-5--3-3-3-3-3-3-5-5-3-3-3-3-3-3-3-3-3--|
C|-------------------------------------------------------------------------|

D|-------------------------------------------------------------------------|
A|-------------------------------------------------------------------------|
F|--5-5-5-5-5-5-5--12-12-9-9-10-10-7-7--5-5-5-5-5-5-5-5-5-5-5-5-5-5-5-5-5--|
C|--x-x-x-x-x-x-x--x--x--x-x-x--x--x-x--x-x-x-x-x-x-x-x-x-x-x-x-x-x-x-x-x--|
G|--3-3-3-3-3-3-3--10-10-7-7-8--8--5-5--3-3-3-3-3-3-3-3-3-3-3-3-3-3-3-3-3--|
C|-------------------------------------------------------------------------|

D|--------|
A|--------|
F|---8~---|
C|---x----|
G|---6~---|
C|--------|


Guitar 2

D|-----------------------------------------------------------------------|
A|-----------------------------------------------------------------------|
F|--5-5-5-5-5-5-5-5-5-5-5-5-5-5-5-5--------------------------------------|
C|--5-5-5-5-5-5-5-5-5-5-5-5-5-5-5-5--7-7-7-7-7-7-7--3-3-3-3-3-3-3-3-3----|
G|--3-3-3-3-3-3-3-3-3-3-3-3-3-3-3-3--7-7-7-7-7-7-7--3-3-3-3-3-3-3-3-3----|
C|-----------------------------------7-7-7-7-7-7-7--3-3-3-3-3-3-3-3-3----|

D|-------------------------------------------------------------------------|
A|-------------------------------------------------------------------------|
F|--5-5-5-5-5-5-5-5-5-5-5-5-5-5-5-5----------------------------------------|
C|--5-5-5-5-5-5-5-5-5-5-5-5-5-5-5-5--7-7-7-7-7-7-7-7--3-3-3-3-3-3-3-3--6~--|
G|--3-3-3-3-3-3-3-3-3-3-3-3-3-3-3-3--7-7-7-7-7-7-7-7--3-3-3-3-3-3-3-3--6~--|
C|-----------------------------------7-7-7-7-7-7-7-7--3-3-3-3-3-3-3-3--6~--|


VERSE:

D|-------------------------------------------------------------------------|
A|-------------------------------------------------------------------------|
F|-------------------------------------5555555555555555--------------------|
C|--7777777777777777-00000000-33333333-5555555555555555-55555555-66666666--|
G|--7777777777777777-00000000-33333333-3333333333333333-55555555-66666666--|
C|--7777777777777777-00000000-33333333------------------55555555-66666666--|

and then...

Guitar 1

D|-------------------------------------------------------------------------|
A|-------------------------------------------------------------------------|
F|--9-9---9-x-x---x-9-9---9-x-x---x-1010101010101010--5-5-5-5-5-5-5-5------|
C|--x-x---x-x-x---x-x-x---x-x-x---x-x-x-x-x-x-x-x-x---x-x-x-x-x-x-x-x------|
G|--7-7---7-x-x---x-7-7---7-x-x---x-8-8-8-8-8-8-8-8---3-3-3-3-3-3-3-3------|
C|-------------------------------------------------------------------------|

D|-------------------------------------------------------------------------|
A|-------------------------------------------------------------------------|
F|--12121212121212121212121212121212-7-7-7-7-7-7-7-7-1313131313131313------|
C|--x-x-x-x-x-x-x-x-x-x-x-x-x-x-x-x--x-x-x-x-x-x-x-x-x-x-x-x-x-x-x-x-------|
G|--10101010101010101010101010101010-5-5-5-5-5-5-5-5-1111111111111111------|
C|-------------------------------------------------------------------------|

Guitar 2

D|-------------------------------------------------------------------------|
A|-------------------------------------------------------------------------|
F|-----------------------------------5555555555555555----------------------|
C|--77-7xx-x77-7xx-x0000000-33333333-5555555555555555-55555555-66666666----|
G|--77-7xx-x77-7xx-x0000000-33333333-3333333333333333-55555555-66666666----|
C|--77-7xx-x77-7xx-x0000000-33333333------------------55555555-66666666----|


PRECHORUS:

Guitar 1

D|------------------------------------------------|
A|------------------------------------------------|
F|--5-555555--4-444444--5-5555555--12-9-9-10-9----|
C|--x-xxxxxx--x-xxxxxx--x-xxxxxxx--x--x-x-x--x----|
G|--3-333333--2-222222--3-3333333--10-7-7-8--7----|
C|------------------------------------------------|

D|-------------------------------------------------------------------|
A|-------------------------------------------------------------------|
F|--5-555555--4-4444444--------12----10----9----7-7-9----9h10p7h9----|
C|--x-xxxxxx--x-xxxxxxx--10-10----10----10---10-------10-------------|
G|--3-333333--2-2222222----------------------------------------------|
C|-------------------------------------------------------------------|
                         .  .     .     .    .  . .   .
D|------------------------------------------------------------|
A|------------------------------------------------------------|
F|--5-555555--4-444444--5-5555555--12-9-9-10-9----5~----7~----|
C|--x-xxxxxx--x-xxxxxx--x-xxxxxxx--x--x-x-x--x----x-----x-----|
G|--3-333333--2-222222--3-3333333--10-7-7-8--7----3~----5~----|
C|------------------------------------------------------------|


CHORUS:

Guitar 1

D|-------------------------------------------------------------------------|
A|-------------------------------------------------------------------------|
F|--5-5-5-5-5-5-5--12-12-9-9-10-10-7-7--5-5-5-5-5-5-7-7-5-5-5-5-5-5-5-5-5--|
C|--x-x-x-x-x-x-x--x--x--x-x-x--x--x-x--x-x-x-x-x-x-x-x-x-x-x-x-x-x-x-x-x--|
G|--3-3-3-3-3-3-3--10-10-7-7-8--8--5-5--3-3-3-3-3-3-5-5-3-3-3-3-3-3-3-3-3--|
C|-------------------------------------------------------------------------|

D|-------------------------------------------------------------------------|
A|-------------------------------------------------------------------------|
F|--5-5-5-5-5-5-5--12-12-9-9-10-10-7-7--5-5-5-5-5-5-5-5-5-5-5-5-5-5-5-5-5--|
C|--x-x-x-x-x-x-x--x--x--x-x-x--x--x-x--x-x-x-x-x-x-x-x-x-x-x-x-x-x-x-x-x--|
G|--3-3-3-3-3-3-3--10-10-7-7-8--8--5-5--3-3-3-3-3-3-3-3-3-3-3-3-3-3-3-3-3--|
C|-------------------------------------------------------------------------|


Guitar 2

D|-----------------------------------------------------------------------|
A|-----------------------------------------------------------------------|
F|--5-5-5-5-5-5-5-5-5-5-5-5-5-5-5-5--------------------------------------|
C|--5-5-5-5-5-5-5-5-5-5-5-5-5-5-5-5--7-7-7-7-7-7-7--3-3-3-3-3-3-3-3-3----|
G|--3-3-3-3-3-3-3-3-3-3-3-3-3-3-3-3--7-7-7-7-7-7-7--3-3-3-3-3-3-3-3-3----|
C|-----------------------------------7-7-7-7-7-7-7--3-3-3-3-3-3-3-3-3----|

D|-----------------------------------------------------------------------|
A|-----------------------------------------------------------------------|
F|--5-5-5-5-5-5-5-5-5-5-5-5-5-5-5-5--------------------------------------|
C|--5-5-5-5-5-5-5-5-5-5-5-5-5-5-5-5--7-7-7-7-7-7-7--3-3-3-3-3-3-3-3-3----|
G|--3-3-3-3-3-3-3-3-3-3-3-3-3-3-3-3--7-7-7-7-7-7-7--3-3-3-3-3-3-3-3-3----|
C|-----------------------------------7-7-7-7-7-7-7--3-3-3-3-3-3-3-3-3----|


BREAKDOWN, PART 1:

Guitar 1

D|--------------------------------------------------------------------|
A|--------------------------------------------------------------------|
F|--12-12-12-12-12-12-12-12-12--7-7-9-10-9-7-5--55555-77-555555555----|
C|--x--x--x--x--x--x--x--x--x---x-x-x-x--x-x-x--xxxxx-xx-xxxxxxxxx----|
G|--10-10-10-10-10-10-10-10-10--5-5-7-8--7-5-3--33333-55-333333333----|

D|--------------------------------------------------------------------|
A|--------------------------------------------------------------------|
F|--12-12-12-12-12-12-12-12-12--7-7-9-10-9-7-5--55555-77-555555555----|
C|--x--x--x--x--x--x--x--x--x---x-x-x-x--x-x-x--xxxxx-xx-xxxxxxxxx----|
G|--10-10-10-10-10-10-10-10-10--5-5-7-8--7-5-3--33333-55-333333333----|


Guitar 2

D|--------------------------------------------------------------------|
A|--------------------------------------------------------------------|
F|--5-5--555--555--555--55555555--------------------------------------|
C|--5-5--555--555--555--55555555--7-7-7-7-7-7-7--3-3-3-3-3-3-3-3-3----|
G|--3-3--333--333--333--33333333--7-7-7-7-7-7-7--3-3-3-3-3-3-3-3-3----|
C|--------------------------------7-7-7-7-7-7-7--3-3-3-3-3-3-3-3-3----|
    . .  ...  ...  ...  ........

D|--------------------------------------------------------------------|
A|--------------------------------------------------------------------|
F|--5-5--555--555--555--55555555--------------------------------------|
C|--5-5--555--555--555--55555555--7-7-7-7-7-7-7--3-3-3-3-3-3-3-3-3----|
G|--3-3--333--333--333--33333333--7-7-7-7-7-7-7--3-3-3-3-3-3-3-3-3----|
C|--------------------------------7-7-7-7-7-7-7--3-3-3-3-3-3-3-3-3----|
    . .  ...  ...  ...  ........


BREAKDOWN, PART 2:

Guitar 1

D|---------------------------------------------------------|
A|---------------------------------------------------------|
F|---------------------------------------------------------|
C|--3~----5--3~----5--7~----7\5-5-5-5-5-5-5-5-5-5-5-5-5----|
G|--3~----5--3~----5--7~----7\5-5-5-5-5-5-5-5-5-5-5-5-5----|
C|--3~----5--3~----5--7~----7\5-5-5-5-5-5-5-5-5-5-5-5-5----|
                              . . . . . . . .     (slowly release palm mute)

Guitar 2

D|---------------------------------------------------------------------|
A|------5------------5------------5------------------------------------|
F|--5~----5---7--5~----5---7--9~----5---7------------------------------|
C|--x---------x--x---------x--x---------x-5-5-5-5-5-5-5-5-5-5-5-5-5----|
G|--3~--------5--3~--------5--7~--------5-5-5-5-5-5-5-5-5-5-5-5-5-5----|
C|----------------------------------------5-5-5-5-5-5-5-5-5-5-5-5-5----|
                                          . . . . . . . .  (slowly release)

BREAKDOWN, PART 3:

   Guitar 1
D|-------------------------------------------------------------------------|
A|-------------------------------------------------------------------------|
F|-----------5-5-5-5-5-5-5-5-5-5-5-----------12-12-12-12-10-10-10-10-4-4-5-|
C|-3-3-3-3-3-x-x-x-x-x-x-x-x-x-x-x-3-3-3-3-3-x--x--x--x--x--x--x--x--x-x-x-|
G|-3-3-3-3-3-3-3-3-3-3-3-3-3-3-3-3-3-3-3-3-3-10-10-10-10-8--8--8--8--2-2-3-|
C|-3-3-3-3-3-----------------------3-3-3-3-3-------------------------------|
 |
 | Guitar 2
D|-------------------------------------------------------------------------|
A|-------------------------------------------------------------------------|
F|-------------5-5-5-5-5-5-5-5-5-5-5-------------5-5-5-5-5-5-5-5-5-5-5-----|
C|--3-3-3-3-3--x-x-x-x-x-x-x-x-x-x-x--3-3-3-3-3--x-x-x-x-x-x-x-x-x-x-x-----|
G|--3-3-3-3-3--3-3-3-3-3-3-3-3-3-3-3--3-3-3-3-3--3-3-3-3-3-3-3-3-3-3-3-----|
C|--3-3-3-3-3-------------------------3-3-3-3-3----------------------------|



   Guitar 1
D|-------------------------------------------------------------------------|
A|-------------------------------------------------------------------------|
F|-----------5-5-5-5-5-5-5-5-5-5-5-----------12-12-12-12-10-10-10-10-9-9-9-|
C|-7-7-7-7-7-x-x-x-x-x-x-x-x-x-x-x-5-5-5-5-5-x--x--x--x--x--x--x--x--x-x-x-|
G|-7-7-7-7-7-3-3-3-3-3-3-3-3-3-3-3-5-5-5-5-5-10-10-10-10-8--8--8--8--7-7-7-|
C|-7-7-7-7-7-----------------------5-5-5-5-5-------------------------------|
 |
 | Guitar 2
D|-------------------------------------------------------------------------|
A|-------------------------------------------------------------------------|
F|-------------5-5-5-5-5-5-5-5-5-5-5-------------5-5-5-5-5-5-5-5-5-5-5-----|
C|--7-7-7-7-7--x-x-x-x-x-x-x-x-x-x-x--5-5-5-5-5--x-x-x-x-x-x-x-x-x-x-x-----|
G|--7-7-7-7-7--3-3-3-3-3-3-3-3-3-3-3--5-5-5-5-5--3-3-3-3-3-3-3-3-3-3-3-----|
C|--7-7-7-7-7-------------------------5-5-5-5-5----------------------------|


   
   Guitar 1
D|-------------------------------------------------------------------------|
A|-------------------------------------------------------------------------|
F|-----------5-5-5-5-5-5-5-5-5-5-5-----------12-12-12-12-10-10-10-10-4-4-5-|
C|-3-3-3-3-3-x-x-x-x-x-x-x-x-x-x-x-3-3-3-3-3-x--x--x--x--x--x--x--x--x-x-x-|
G|-3-3-3-3-3-3-3-3-3-3-3-3-3-3-3-3-3-3-3-3-3-10-10-10-10-8--8--8--8--2-2-3-|
C|-3-3-3-3-3-----------------------3-3-3-3-3-------------------------------|
 |
 | Guitar 2
D|-------------------------------------------------------------------------|
A|-------------------------------------------------------------------------|
F|-------------5-5-5-5-5-5-5-5-5-5-5-------------5-5-5-5-5-5-5-5-5-5-5-----|
C|--3-3-3-3-3--x-x-x-x-x-x-x-x-x-x-x--3-3-3-3-3--x-x-x-x-x-x-x-x-x-x-x-----|
G|--3-3-3-3-3--3-3-3-3-3-3-3-3-3-3-3--3-3-3-3-3--3-3-3-3-3-3-3-3-3-3-3-----|
C|--3-3-3-3-3-------------------------3-3-3-3-3----------------------------|



   Guitar 1
D|-------------------------------------------------------------------------|
A|-------------------------------------------------------------------------|
F|-----------5-5-5-5-5-5-5-5-5-5-5-----------12-12-12-12-10-10-10-10-9-9-9-|
C|-7-7-7-7-7-x-x-x-x-x-x-x-x-x-x-x-5-5-5-5-5-x--x--x--x--x--x--x--x--x-x-x-|
G|-7-7-7-7-7-3-3-3-3-3-3-3-3-3-3-3-5-5-5-5-5-10-10-10-10-8--8--8--8--7-7-7-|
C|-7-7-7-7-7-----------------------5-5-5-5-5-------------------------------|
 |
 | Guitar 2
D|-------------------------------------------------------------------------|
A|-------------------------------------------------------------------------|
F|-------------5-5-5-5-5-5-5-5-5-5-5-------------5-5-5-5-5-5-5-5-5-5-5-----|
C|--7-7-7-7-7--x-x-x-x-x-x-x-x-x-x-x--5-5-5-5-5--x-x-x-x-x-x-x-x-x-x-x-----|
G|--7-7-7-7-7--3-3-3-3-3-3-3-3-3-3-3--5-5-5-5-5--3-3-3-3-3-3-3-3-3-3-3-----|
C|--7-7-7-7-7-------------------------5-5-5-5-5----------------------------|


   Guitar 1
D|--------------------------------------------------------------|
A|--------------------------------------------------------------|
F|--5~--------12-12-12-12-12-12-12-12--12\10-10-10--10\9-9-9----|
C|--x---------x--x--x--x--x--x--x--x---x-\x--x--x---x-\x-x-x----|
G|--3~--------10-10-10-10-10-10-10-10--10\8--8--8---8-\7-7-7----|
C|--------------------------------------------------------------|
 |
 | Guitar 2
D|--------------------------------------------------------------|
A|--------------------------------------------------------------|
F|--------------------------------------------------------------|
C|--3~--------3--3--3--3--3--3--3--3--3--3--3--3--3--3--3--3----|
G|--3~--------3--3--3--3--3--3--3--3--3--3--3--3--3--3--3--3----|
C|--3~--------3--3--3--3--3--3--3--3--3--3--3--3--3--3--3--3----|
              .  .  .  .  .  .  .  .  .          (slowly release palm mute)


CHORUS:

Guitar 1

D|-------------------------------------------------------------------------|
A|-------------------------------------------------------------------------|
F|--5-5-5-5-5-5-5--12-12-9-9-10-10-7-7--5-5-5-5-5-5-7-7-5-5-5-5-5-5-5-5-5--|
C|--x-x-x-x-x-x-x--x--x--x-x-x--x--x-x--x-x-x-x-x-x-x-x-x-x-x-x-x-x-x-x-x--|
G|--3-3-3-3-3-3-3--10-10-7-7-8--8--5-5--3-3-3-3-3-3-5-5-3-3-3-3-3-3-3-3-3--|
C|-------------------------------------------------------------------------|

D|-------------------------------------------------------------------------|
A|-------------------------------------------------------------------------|
F|--5-5-5-5-5-5-5--12-12-9-9-10-10-7-7--5-5-5-5-5-5-5-5-5-5-5-5-5-5-5-5-5--|
C|--x-x-x-x-x-x-x--x--x--x-x-x--x--x-x--x-x-x-x-x-x-x-x-x-x-x-x-x-x-x-x-x--|
G|--3-3-3-3-3-3-3--10-10-7-7-8--8--5-5--3-3-3-3-3-3-3-3-3-3-3-3-3-3-3-3-3--|
C|-------------------------------------------------------------------------|


Guitar 2

D|-----------------------------------------------------------------------|
A|-----------------------------------------------------------------------|
F|--5-5-5-5-5-5-5-5-5-5-5-5-5-5-5-5--------------------------------------|
C|--5-5-5-5-5-5-5-5-5-5-5-5-5-5-5-5--7-7-7-7-7-7-7--3-3-3-3-3-3-3-3-3----|
G|--3-3-3-3-3-3-3-3-3-3-3-3-3-3-3-3--7-7-7-7-7-7-7--3-3-3-3-3-3-3-3-3----|
C|-----------------------------------7-7-7-7-7-7-7--3-3-3-3-3-3-3-3-3----|

D|-----------------------------------------------------------------------|
A|-----------------------------------------------------------------------|
F|--5-5-5-5-5-5-5-5-5-5-5-5-5-5-5-5--------------------------------------|
C|--5-5-5-5-5-5-5-5-5-5-5-5-5-5-5-5--7-7-7-7-7-7-7--3-3-3-3-3-3-3-3-3----|
G|--3-3-3-3-3-3-3-3-3-3-3-3-3-3-3-3--7-7-7-7-7-7-7--3-3-3-3-3-3-3-3-3----|
C|-----------------------------------7-7-7-7-7-7-7--3-3-3-3-3-3-3-3-3----|


OUTRO:

Guitar 1

D|--------------------------------------------------------------------|
A|--------------------------------------------------------------------|
F|--12-12-12-12-12-12-12-12-12--7-7-9-10-9-7-5--55555-77-555555555----|
C|--x--x--x--x--x--x--x--x--x---x-x-x-x--x-x-x--xxxxx-xx-xxxxxxxxx----|
G|--10-10-10-10-10-10-10-10-10--5-5-7-8--7-5-3--33333-55-333333333----|

D|-------------------------------------------------------------|
A|-------------------------------------------------------------|
F|--12-12-12-12-12-12-12-12-12--7-7-9-10-9-7-5--55555-77-5~----|
C|--x--x--x--x--x--x--x--x--x---x-x-x-x--x-x-x--xxxxx-xx-x-----|
G|--10-10-10-10-10-10-10-10-10--5-5-7-8--7-5-3--33333-55-3~----|


Guitar 2

D|--------------------------------------------------------------------|
A|--------------------------------------------------------------------|
F|--5-5--555--555--555--55555555--------------------------------------|
C|--5-5--555--555--555--55555555--7-7-7-7-7-7-7--3-3-3-3-3-3-3-3-3----|
G|--3-3--333--333--333--33333333--7-7-7-7-7-7-7--3-3-3-3-3-3-3-3-3----|
C|--------------------------------7-7-7-7-7-7-7--3-3-3-3-3-3-3-3-3----|
    . .  ...  ...  ...  ........

D|-----------------------------------------------------|
A|-----------------------------------------------------|
F|--5-5--555--555--555--55555555-----------------------|
C|--5-5--555--555--555--55555555--7-7-7-7-7-7-7--3~----|
G|--3-3--333--333--333--33333333--7-7-7-7-7-7-7--3~----|
C|--------------------------------7-7-7-7-7-7-7--3~----|
    . .  ...  ...  ...  ........
comments
print report bad tab
I want to post or [tab]
guest
You may want to rate the tab now too:
select rating
Please do not post tabs as comments. Select "correction" instead!