Oops, an error
Loading. Please wait.

Its Complicated Tab

ver2
ver2

Whole song

Interactive

More versions @911Tabs.com
15,071 views 15 this week
2 commentsread comments
1 2 3 4 5
accurate
x 6
Autoscroll
+/-
esc
set tempo
stop
Contributor
Difficulty
Tuning
intermediate
C# G# C# F# A# D#
Hey! There's an official Ultimate Guitar app which is ideal
for learning songs when you're away from computer. Get the app
WARNING: You are trying to view
                                    content from Ultimate-Guitar.com
                                    in an unauthorized application,
                                    which is prohibited.

                                    Please use an official Ultimate
                                    Guitar Tabs application for iPhone,
                                    iPad or Android to access legitimate
                                    chords, guitar, bass, and drum tabs
                                    from Ultimate-Guitar.com database.

                                    Type "ultimate guitar tabs" in Apple
                                    App Store's or Android Market's
                                    search to find the application.
It's Complicated
A Day To Remember
What Separates Me From You (2010)

Words & Music by Jeremy McKinnon, Neil Westfall, Kevin Skaff, Joshua Woodward, 
and Alex Shellnut

GTR I - Drop Db Tuning "Kevin Skaff" Electric (eb,Bb,Gb,Db,Ab,Db)
GTR II - Drop Db Tuning "Neil Westfall" Electric (eb,Bb,Gb,Db,Ab,Db)
GTR III - Drop Db Tuning "Kevin Skaff" Acoustic (eb,Bb,Gb,Db,Ab,Db)

Intro

   GTR I
eb|-------------------------------------------------|
Bb|-------------------------------------------------|
Gb|-14----14----14----14----14----14----14----14----|
Db|-12----12----12----12----12----12----12----12----|
Ab|-------------------------------------------------|
Db|-------------------------------------------------|

Verse

   GTR I
eb|-------------------------------------------------|
Bb|-------------------------------------------------|
Gb|-14----14----14----14----14----14----14----14----|
Db|-12----12----12----12----12----12----12----12----|
Ab|-------------------------------------------------|
Db|-------------------------------------------------|
  |
  |GTR II
eb|-------------------------------------------------|
Bb|-------------------------------------------------|
Gb|-------------------------------------------------|
Db|--9-----------9-----------9--------9--9--9--9--9-|
Ab|--9-----------9-----------9--------9--9--9--9--9-|
Db|--9-----------9-----------9--------9--9--9--9--9-|

   GTR I
eb|-------------------------------------------------|
Bb|-------------------------------------------------|
Gb|-12----12----12----12----14----14----14----14----|
Db|-12----12----12----12----12----12----12----12----|
Ab|-------------------------------------------------|
Db|-------------------------------------------------|
  |
  |GTR II
eb|-------------------------------------------------|
Bb|-------------------------------------------------|
Gb|-------------------------------------------------|
Db|--5-----------5-----------5--------5--5--5--5--5-|
Ab|--5-----------5-----------5--------5--5--5--5--5-|
Db|--5-----------5-----------5--------5--5--5--5--5-|

   GTR I
eb|-------------------------------------------------|
Bb|-------------------------------------------------|
Gb|-11----11----11----11----11----11----11----11----|
Db|-12----12----12----12----12----12----12----12----|
Ab|-------------------------------------------------|
Db|-------------------------------------------------|
  |
  |GTR II
eb|-------------------------------------------------|
Bb|-------------------------------------------------|
Gb|-------------------------------------------------|
Db|--0-----------0-----------0--------0--0--0--0--0-|
Ab|--0-----------0-----------0--------0--0--0--0--0-|
Db|--0-----------0-----------0--------0--0--0--0--0-|

   GTR I
eb|-------------------------------------------------|
Bb|-------------------------------------------------|
Gb|--9-----9-----9-----9-----9-----9-----9-----9----|
Db|-11----11----11----11----11----11----11----11----|
Ab|-------------------------------------------------|
Db|-------------------------------------------------|
  |
  |GTR II
eb|-------------------------------------------------|
Bb|-------------------------------------------------|
Gb|-------------------------------------------------|
Db|--7-----------7-----------7--------7--7--7--7--7-|
Ab|--7-----------7-----------7--------7--7--7--7--7-|
Db|--7-----------7-----------7--------7--7--7--7--7-|

Verse 2

   GTR I
eb|-------------------------------------------------|
Bb|-------------------------------------------------|
Gb|-14----------14----------14-------14-14-14-14-14-|
Db|-12----------12----------12-------12-12-12-12-12-|
Ab|-------------------------------------------------|
Db|-------------------------------------------------|
  |
  |GTR II
eb|-------------------------------------------------|
Bb|-------------------------------------------------|
Gb|-11/12-14----14----14----14----14----14----14----|
Db|--x--x--x-----x-----x-----x-----x-----x-----x----|
Ab|--9/10-12----12----12----12----12----12----12----|
Db|-------------------------------------------------|

   GTR I
eb|-------------------------------------------------|
Bb|-------------------------------------------------|
Gb|-12----------12----------12-------12-12-12-12-12-|
Db|-12----------12----------12-------12-12-12-12-12-|
Ab|-------------------------------------------------|
Db|-------------------------------------------------|
  |
  |GTR II
eb|-------------------------------------------------|
Bb|-------------------------------------------------|
Gb|-14\12-12----12----12----12/14-14----14----14----|
Db|--x--x--x-----x-----x-----x--x--x-----x-----x----|
Ab|-12\10-10----10----10----10/12-12----12----12----|
Db|-------------------------------------------------|

   GTR I
eb|-------------------------------------------------|
Bb|-------------------------------------------------|
Gb|-11----------11----------11-------11-11-11-11-11-|
Db|-12----------12----------12-------12-12-12-12-12-|
Ab|-------------------------------------------------|
Db|-------------------------------------------------|
  |
  |GTR II
eb|-------------------------------------------------|
Bb|-------------------------------------------------|
Gb|-14/11-11----11----11----11----11----11----11----|
Db|--x--x--x-----x-----x-----x-----x-----x-----x----|
Ab|-12/-9--9-----9-----9-----9-----9-----9-----9----|
Db|-------------------------------------------------|

   GTR I
eb|-------------------------------------------------|
Bb|-------------------------------------------------|
Gb|--9-----------9----------------------------------|
Db|-11----------11----------------------------------|
Ab|--------------------------Pickslide--------------|
Db|--------------------------Pickslide--------------|
  |
  |GTR II
eb|-------------------------------------------------|
Bb|-------------------------------------------------|
Gb|-11/-9--9-----9-----9----------------------------|
Db|--x--x--x-----x-----x----------------------------|
Ab|--9/-7--7-----7-----7-----Pickslide--------------|
Db|--------------------------Pickslide--------------|

Pre Chorus

   GTR I
eb|-------------------------------------------------|
Bb|-------------------------------------------------|
Gb|-------------------------------------------------|
Db|--9-------12-------11--------7-------------------|
Ab|-------------------------------------------------|
Db|-------------------------------------------------|
  |
  |GTR II
eb|-------------------------------------------------|
Bb|-------------------------------------------------|
Gb|-------------------------------------------------|
Db|-------------------------------------------------|
Ab|--2--------5--------4--------0-------------------|
Db|-------------------------------------------------|

   GTR I
eb|-------------------------------------------------|
Bb|-------------------------------------------------|
Gb|-------------------------------------------------|
Db|-11-------12-------14-------11-------------------|
Ab|-------------------------------------------------|
Db|-------------------------------------------------|
  |
  |GTR II
eb|-------------------------------------------------|
Bb|-------------------------------------------------|
Gb|-------------------------------------------------|
Db|-------------------------------------------------|
Ab|--4--------5--------7--------4-------------------|
Db|-------------------------------------------------|

   GTR I
eb|-------------------------------------------------|
Bb|-------------------------------------------------|
Gb|-------------------------------------------------|
Db|--9-------12-------11--------7-------------------|
Ab|-------------------------------------------------|
Db|-------------------------------------------------|
  |
  |GTR II
eb|-------------------------------------------------|
Bb|-------------------------------------------------|
Gb|-------------------------------------------------|
Db|-------------------------------------------------|
Ab|--2--------5--------4--------0-------------------|
Db|-------------------------------------------------|

   GTR I,II
eb|-------------------------------------------------|
Bb|-------------------------------------------------|
Gb|-------------------------------------------------|
Db|--7--7--7--7--7--7--7--7--5----------------------|
Ab|--7--7--7--7--7--7--7--7--5----------------------|
Db|--7--7--7--7--7--7--7--7--5---------/12\---------|

Chorus

   GTR I,II
eb|-------------------------------------------------|
Bb|-------------------------------------------------|
Gb|-------------------------------------------------|
Db|--0--0--0--0--0--0--0--0--0--0--0--0--0--0--0--0-|
Ab|--0--0--0--0--0--0--0--0--0--0--0--0--0--0--0--0-|
Db|--0--0--0--0--0--0--0--0--0--0--0--0--0--0--0--0-|

   GTR I,II
eb|-------------------------------------------------|
Bb|-------------------------------------------------|
Gb|-------------------------------------------------|
Db|--7--7--7--7--7--7--7--7--7--7--7--7--7--7--7--7-|
Ab|--7--7--7--7--7--7--7--7--7--7--7--7--7--7--7--7-|
Db|--7--7--7--7--7--7--7--7--7--7--7--7--7--7--7--7-|

   GTR I,II
eb|-------------------------------------------------|
Bb|-------------------------------------------------|
Gb|-------------------------------------------------|
Db|--9--9--9--9--9--9--9--9--9--9--9--9--9--9--9--9-|
Ab|--9--9--9--9--9--9--9--9--9--9--9--9--9--9--9--9-|
Db|--9--9--9--9--9--9--9--9--9--9--9--9--9--9--9--9-|

   GTR I,II
eb|-------------------------------------------------|
Bb|-------------------------------------------------|
Gb|-------------------------------------------------|
Db|--7--7--7--7--7--7--7--7--0--5--5--5--0--4--4--4-|
Ab|--7--7--7--7--7--7--7--7--0--5--5--5--0--5--5--5-|
Db|--7--7--7--7--7--7--7--7--0--5--5--5--0--4--4--4-|

   GTR I,II
eb|-------------------------------------------------|
Bb|-------------------------------------------------|
Gb|-------------------------------------------------|
Db|--0--0--0--0--0--0--0--0--0--0--0--0--0--0--0--0-|
Ab|--0--0--0--0--0--0--0--0--0--0--0--0--0--0--0--0-|
Db|--0--0--0--0--0--0--0--0--0--0--0--0--0--0--0--0-|

   GTR I,II
eb|-------------------------------------------------|
Bb|-------------------------------------------------|
Gb|-------------------------------------------------|
Db|--7--7--7--7--7--7--7--7--7--7--7--7--7--7--7--7-|
Ab|--7--7--7--7--7--7--7--7--7--7--7--7--7--7--7--7-|
Db|--7--7--7--7--7--7--7--7--7--7--7--7--7--7--7--7-|

   GTR I,II
eb|-------------------------------------------------|
Bb|-------------------------------------------------|
Gb|-------------------------------------------------|
Db|--9--9--9--9--9--9--9--9--9--9--9--9--9--9--9--9-|
Ab|--9--9--9--9--9--9--9--9--9--9--9--9--9--9--9--9-|
Db|--9--9--9--9--9--9--9--9--9--9--9--9--9--9--9--9-|

   GTR I,II
eb|-------------------------------------------------|
Bb|-------------------------------------------------|
Gb|-------------------------------------------------|
Db|--7\-------------------------5-----------4-------|
Ab|--7\----------------------0--5--------0--5-------|
Db|--7\----------------------0--5--------0--4-------|
                             .           .

Intro

Verse 3

   GTR I
eb|-------------------------------------------------|
Bb|-------------------------------------------------|
Gb|-14----14----14----14----14----14----14----14----|
Db|-12----12----12----12----12----12----12----12----|
Ab|-------------------------------------------------|
Db|-------------------------------------------------|
  |
  |GTR II
eb|-------------------------------------------------|
Bb|-------------------------------------------------|
Gb|-11/12-14----14----14----14----14----14----14----|
Db|--x--x--x-----x-----x-----x-----x-----x-----x----|
Ab|--9/10-12----12----12----12----12----12----12----|
Db|-------------------------------------------------|

   GTR I
eb|-------------------------------------------------|
Bb|-------------------------------------------------|
Gb|-12----12----12----12----14----14----14----14----|
Db|-12----12----12----12----12----12----12----12----|
Ab|-------------------------------------------------|
Db|-------------------------------------------------|
  |
  |GTR II
eb|-------------------------------------------------|
Bb|-------------------------------------------------|
Gb|-14\12-12----12----12----12/14-14----14----14----|
Db|--x--x--x-----x-----x-----x--x--x-----x-----x----|
Ab|-12\10-10----10----10----10/12-12----12----12----|
Db|-------------------------------------------------|

   GTR I
eb|-------------------------------------------------|
Bb|-------------------------------------------------|
Gb|-11----11----11----11----11----11----11----11----|
Db|-12----12----12----12----12----12----12----12----|
Ab|-------------------------------------------------|
Db|-------------------------------------------------|
  |
  |GTR II
eb|-------------------------------------------------|
Bb|-------------------------------------------------|
Gb|-14/11-11----11----11----11----11----11----11----|
Db|--x--x--x-----x-----x-----x-----x-----x-----x----|
Ab|-12/-9--9-----9-----9-----9-----9-----9-----9----|
Db|-------------------------------------------------|

   GTR I
eb|-------------------------------------------------|
Bb|-------------------------------------------------|
Gb|--9-----9-----9-----9-----9-----9-----9-----9----|
Db|-11----11----11----11----11----11----11----11----|
Ab|-------------------------------------------------|
Db|-------------------------------------------------|
  |
  |GTR II
eb|-------------------------------------------------|
Bb|-------------------------------------------------|
Gb|-11/-9--9-----9-----9-----9-----9-----9-----9----|
Db|--x--x--x-----x-----x-----x-----x-----x-----x----|
Ab|--9/-7--7-----7-----7-----7-----7-----7-----7----|
Db|-------------------------------------------------|

Verse 2
Pre Chorus
Chorus

Bridge

   GTR I,II
eb|-------------------------------------------------|
Bb|-------------------------------------------------|
Gb|-------------------------------------------------|
Db|--0--0-----0--0-----0--0-----0--0-----0--5--5--5-|
Ab|--0--0-----0--0-----0--0-----0--0-----0--5--5--5-|
Db|--0--0-----0--0-----0--0-----0--0-----0--5--5--5-|

   GTR I,II
eb|-------------------------------------------------|
Bb|-------------------------------------------------|
Gb|-------------------------------------------------|
Db|--5--4--0-----0--0-----0--0-----0--0-----5--5--5-|
Ab|--5--4--0-----0--0-----0--0-----0--0-----5--5--5-|
Db|--5--4--0-----0--0-----0--0-----0--0-----5--5--5-|

   GTR I,II
eb|-------------------------------------------------|
Bb|-------------------------------------------------|
Gb|-------------------------------------------------|
Db|--5--4--0-----0--0-----0--0-----0--0-----5--5--5-|
Ab|--5--4--0-----0--0-----0--0-----0--0-----5--5--5-|
Db|--5--4--0-----0--0-----0--0-----0--0-----5--5--5-|

   GTR I,II
eb|-------------------------------------------------|
Bb|-------------------------------------------------|
Gb|-------------------------------------------------|
Db|--5--4--0-----0--0-----0--0----------------------|
Ab|--5--4--0-----0--0-----0--0----------------------|
Db|--5--4--0-----0--0-----0--0----------------------|

Breakdown

   GTR I,II
eb|--------------------------------------------------|
Bb|--------------------------------------------------|
Gb|--------------------------------------------------|
Db|--------------------------------------------------|
Ab|--5--4--0-----0--0-----0--0-----0--0-----5-5-5--5-|
Db|--5--4--0-----0--0-----0--0-----0--0-----5-5-5--5-|
     .  .  .     .  .     .  .     .  .     . . .  . 

   GTR I,II
eb|-------------------------------------------------|
Bb|-------------------------------------------------|
Gb|-------------------------------------------------|
Db|-------------------------------------------------|
Ab|--5--4--0-----0--0-----0--0-----0--0-----0--0--0-|
Db|--5--4--0-----0--0-----0--0-----0--0-----0--0--0-|
     .  .  .     .  .     .  .     .  .     .  .  . 

   GTR I,II
eb|--------------------------------------------------|
Bb|--------------------------------------------------|
Gb|--------------------------------------------------|
Db|--------------------------------------------------|
Ab|--5--4--0-----0--0-----0--0-----0--0-----5-5-5--5-|
Db|--5--4--0-----0--0-----0--0-----0--0-----5-5-5--5-|
     .  .  .     .  .     .  .     .  .     . . .  . 

   GTR I,II
eb|-------------------------------------------------|
Bb|-------------------------------------------------|
Gb|--------------------------6--------7--------9----|
Db|--------------------------6--------7--------9----|
Ab|--5--4--0-----0--0-----0--4--------5--------7----|
Db|--5--4--0-----0--0-----0-------------------------|
     .  .  .     .  .     .                         

Interlude

   GTR I
eb|-------------------------------------------------|
Bb|-------------------------------------------------|
Gb|-------------------------------------------------|
Db|--9-------12-------11--------7-------------------|
Ab|-------------------------------------------------|
Db|-------------------------------------------------|
  |
  |GTR II
eb|-------------------------------------------------|
Bb|-------------------------------------------------|
Gb|-------------------------------------------------|
Db|-------------------------------------------------|
Ab|--2--------5--------4--------0-------------------|
Db|-------------------------------------------------|

   GTR I,II
eb|-------------------------------------------------|
Bb|-------------------------------------------------|
Gb|-------------------------------------------------|
Db|-------------------------------------------------|
Ab|-------------------------------------------------|
Db|-------------------------------------------------|

   GTR I
eb|-------------------------------------------------|
Bb|-------------------------------------------------|
Gb|-------------------------------------------------|
Db|--9-------12-------11--------7-------------------|
Ab|-------------------------------------------------|
Db|-------------------------------------------------|
  |
  |GTR II
eb|-------------------------------------------------|
Bb|-------------------------------------------------|
Gb|-------------------------------------------------|
Db|-------------------------------------------------|
Ab|--2--------5--------4--------0-------------------|
Db|-------------------------------------------------|

   GTR I,II
eb|-------------------------------------------------|
Bb|-------------------------------------------------|
Gb|-------------------------------------------------|
Db|--7----------------------------------------------|
Ab|--7-----x--x--x--x--x--x-------------------------|
Db|--7-----x--x--x--x--x--x-------------------------|

Chorus 2

   GTR I,II
eb|-------------------------------------------------|
Bb|-------------------------------------------------|
Gb|-------------------------------------------------|
Db|--0--0--0--0--0--0--0--0--0--0--0--0--0--0--0--0-|
Ab|--0--0--0--0--0--0--0--0--0--0--0--0--0--0--0--0-|
Db|--0--0--0--0--0--0--0--0--0--0--0--0--0--0--0--0-|

   GTR I,II
eb|-------------------------------------------------|
Bb|-------------------------------------------------|
Gb|-------------------------------------------------|
Db|--7--7--7--7--7--7--7--7--7--7--7--7--7--7--7--7-|
Ab|--7--7--7--7--7--7--7--7--7--7--7--7--7--7--7--7-|
Db|--7--7--7--7--7--7--7--7--7--7--7--7--7--7--7--7-|

   GTR I,II
eb|-------------------------------------------------|
Bb|-------------------------------------------------|
Gb|-------------------------------------------------|
Db|--9--9--9--9--9--9--9--9--9--9--9--9--9--9--9--9-|
Ab|--9--9--9--9--9--9--9--9--9--9--9--9--9--9--9--9-|
Db|--9--9--9--9--9--9--9--9--9--9--9--9--9--9--9--9-|

   GTR I,II
eb|-------------------------------------------------|
Bb|-------------------------------------------------|
Gb|-------------------------------------------------|
Db|--7--7--7--7--7--7--7--7--0--5--5--5--0--4--4--4-|
Ab|--7--7--7--7--7--7--7--7--0--5--5--5--0--5--5--5-|
Db|--7--7--7--7--7--7--7--7--0--5--5--5--0--4--4--4-|

   GTR I,II
eb|-------------------------------------------------|
Bb|-------------------------------------------------|
Gb|-------------------------------------------------|
Db|--0--0--0--0--0--0--0--0--0--0--0--0--0--0--0--0-|
Ab|--0--0--0--0--0--0--0--0--0--0--0--0--0--0--0--0-|
Db|--0--0--0--0--0--0--0--0--0--0--0--0--0--0--0--0-|

   GTR I,II
eb|-------------------------------------------------|
Bb|-------------------------------------------------|
Gb|-------------------------------------------------|
Db|--7--7--7--7--7--7--7--7--7--7--7--7--7--7--7--7-|
Ab|--7--7--7--7--7--7--7--7--7--7--7--7--7--7--7--7-|
Db|--7--7--7--7--7--7--7--7--7--7--7--7--7--7--7--7-|

   GTR I,II
eb|-------------------------------------------------|
Bb|-------------------------------------------------|
Gb|-------------------------------------------------|
Db|--9--9--9--9--9--9--9--9--9--9--9--9--9--9--9--9-|
Ab|--9--9--9--9--9--9--9--9--9--9--9--9--9--9--9--9-|
Db|--9--9--9--9--9--9--9--9--9--9--9--9--9--9--9--9-|

   GTR I,II
eb|-------------------------------------------------|
Bb|-------------------------------------------------|
Gb|-------------------------------------------------|
Db|--7--7--7--7--7--7--7--7--0--5--5--5--0--4--4--4-|
Ab|--7--7--7--7--7--7--7--7--0--5--5--5--0--5--5--5-|
Db|--7--7--7--7--7--7--7--7--0--5--5--5--0--4--4--4-|

Outro

   GTR I,II
eb|-------------------------------------------------|
Bb|-------------------------------------------------|
Gb|-------------------------------------------------|
Db|--0----------------------------------------------|
Ab|--0----------------------------------------------|
Db|--0----------------------------------------------|
  |
  |GTR III
eb|--2-----2-----2-----2--2-----2--2-----2-----2--2-|
Bb|--3-----3-----3-----3--3-----3--3-----3-----3--3-|
Gb|--2-----2-----2-----2--2-----2--2-----2-----2--2-|
Db|--0-----0-----0-----0--0-----0--0-----0-----0--0-|
Ab|--0-----0-----0-----0--0-----0--0-----0-----0--0-|
Db|-------------------------------------------------|

   GTR III
eb|-------------------------------------------------|
Bb|--2-----2-----2-----2--2-----2--2-----2-----2--2-|
Gb|--2-----2-----2-----2--2-----2--2-----2-----2--2-|
Db|--2-----2-----2-----2--2-----2--2-----2-----2--2-|
Ab|--0-----0-----0-----0--0-----0--0-----0-----0--0-|
Db|-------------------------------------------------|

   GTR III
eb|--2-----2-----2-----2--2-----2--2-----2-----2--2-|
Bb|--3-----3-----3-----3--3-----3--3-----3-----3--3-|
Gb|--4-----4-----4-----4--4-----4--4-----4-----4--4-|
Db|--4-----4-----4-----4--4-----4--4-----4-----4--4-|
Ab|--2-----2-----2-----2--2-----2--2-----2-----2--2-|
Db|-------------------------------------------------|

   GTR III
eb|-------------------------------------------------|
Bb|--2-----2-----2-----2--2-----2--2-----2-----2--2-|
Gb|--2-----2-----2-----2--2-----2--2-----2-----2--2-|
Db|--2-----2-----2-----2--2-----2--2-----2-----2--2-|
Ab|--0-----0-----0-----0--0-----0--0-----0-----0--0-|
Db|-------------------------------------------------|

   GTR III
eb|--2-----2-----2-----2--2-----2--2-----2-----2--2-|
Bb|--3-----3-----3-----3--3-----3--3-----3-----3--3-|
Gb|--2-----2-----2-----2--2-----2--2-----2-----2--2-|
Db|--0-----0-----0-----0--0-----0--0-----0-----0--0-|
Ab|--0-----0-----0-----0--0-----0--0-----0-----0--0-|
Db|-------------------------------------------------|

   GTR III
eb|-------------------------------------------------|
Bb|--2-----2-----2-----2--2-----2--2-----2-----2--2-|
Gb|--2-----2-----2-----2--2-----2--2-----2-----2--2-|
Db|--2-----2-----2-----2--2-----2--2-----2-----2--2-|
Ab|--0-----0-----0-----0--0-----0--0-----0-----0--0-|
Db|-------------------------------------------------|

   GTR III
eb|--2-----2-----2-----2--2-----2--2-----2-----2--2-|
Bb|--3-----3-----3-----3--3-----3--3-----3-----3--3-|
Gb|--4-----4-----4-----4--4-----4--4-----4-----4--4-|
Db|--4-----4-----4-----4--4-----4--4-----4-----4--4-|
Ab|--2-----2-----2-----2--2-----2--2-----2-----2--2-|
Db|-------------------------------------------------|

   GTR III
eb|-------------------------------------------------|
Bb|--2-----2-----2-----2--2-----2--2-----2-----2--2-|
Gb|--2-----2-----2-----2--2-----2--2-----2-----2--2-|
Db|--2-----2-----2-----2--2-----2--2-----2-----2--2-|
Ab|--0-----0-----0-----0--0-----0--0-----0-----0--0-|
Db|-------------------------------------------------|

   GTR III
eb|--2----------------------------------------------|
Bb|--3----------------------------------------------|
Gb|--2----------------------------------------------|
Db|--0----------------------------------------------|
Ab|--0----------------------------------------------|
Db|-------------------------------------------------|


| b  bend
| r  release bend
|trp triplet
|PH. pinch harmonic
|fbk feedback
| .  palm-mute
| /  slide up
| \  slide down
| h  hammer-on
| p  pull-off
| ~  vibrato
|(7) harmonic
| x  Mute note
===============================================================================
comments
print report bad tab
2 comments total.
0 reply
001pinkfan100 wrote on January 5 2011, 11:22 pm

Heyy this is amazing,, good work! :) im a massive a day to remember fan, ive been trying to get my hands on a good tab of this song for ages ,, thankyou xD

0 reply
lespaulfreak123 wrote on March 29 2012, 07:54 am

yay!!!!!!!!

I want to post or [tab]
guest
You may want to rate the tab now too:
select rating
Please do not post tabs as comments. Select "correction" instead!