Oops, an error
Loading. Please wait.

Monument Tab

ver5
ver5
More versions @911Tabs.com
9,217 views 9 this week
3 commentsread comments
1 2 3 4 5
excellent!
x 4
Autoscroll
+/-
esc
set tempo
stop
Contributor
Difficulty
Tuning
novice
C G C F A D
Hey! There's an official Ultimate Guitar app which is ideal
for learning songs when you're away from computer. Get the app
WARNING: You are trying to view
                                    content from Ultimate-Guitar.com
                                    in an unauthorized application,
                                    which is prohibited.

                                    Please use an official Ultimate
                                    Guitar Tabs application for iPhone,
                                    iPad or Android to access legitimate
                                    chords, guitar, bass, and drum tabs
                                    from Ultimate-Guitar.com database.

                                    Type "ultimate guitar tabs" in Apple
                                    App Store's or Android Market's
                                    search to find the application.
-------------------------------------------------------------------------------
                          Monument - A Day To Remember
-------------------------------------------------------------------------------
Tabbed by: metalmonkey147
Email:

Tuning: Drop C

|------------------------------------------------------|
|------------------------------------------------------|
|-7--7--7--9--9--9--7--7--7--9--9--9--9--9--9--9-------|
|-10-10-10-10-10-10-10-10-10-10-10-10-10-10-10-10------|
|------------------------------------------------------|
|------------------------------------------------------|

|------------------------------------------------------|
|------------------------------------------------------|
|-7--7--7--9--9--9--7--7--7--9--9--9--9--9--9--7-------|
|-10-10-10-10-10-10-10-10-10-10-10-10-10-10-10-10------|
|------------------------------------------------------|
|------------------------------------------------------|

|--------------------------------------------------------------------|
|--------------------------------------------------------------------|
|-5-5-5-5-5-5-5-5-5-5-5-5-5-5-5-5-/7-7-7-7-7-7-7-7-7-7-7-7-7-7-7-7---|
|-3-3-3-3-3-3-3-3-3-3-3-3-3-3-3-3-/5-5-5-5-5-5-5-5-5-5-5-5-5-5-5-5---|
|-3-3-3-3-3-3-3-3-3-3-3-3-3-3-3-3-/5-5-5-5-5-5-5-5-5-5-5-5-5-5-5-5---|
|-3-3-3-3-3-3-3-3-3-3-3-3-3-3-3-3-/5-5-5-5-5-5-5-5-5-5-5-5-5-5-5-5---|

|---------------------------------------------------------------------------------------|
|---------------------------------------------------------------------------------------|
|-------9--9--9--------7-7-7-7-9--9--9--------------------------------------------------|
|-7-7-7-10-10-10-7-7-7-9-9-9-9-10-10-10-10-10----10-10----10-10----10-10----10-10-10-10-|
|-7-7-7----------7-7-7------------------10-10----10-10----10-10----10-10----10-10-10-10-|
|-7-7-7----------7-7-7------------------10-10-10-10-10-10-10-10-10-10-10-10-10-10-10-10-|

|--------------------------------------------------------------------|
|--------------------------------------------------------------------|
|-5-5-5-5-5-5-5-5-5-5-5-5-5-5-5-5-/7-7-7-7-7-7-7-7-7-7-7-7-7-7-7-7---|
|-3-3-3-3-3-3-3-3-3-3-3-3-3-3-3-3-/5-5-5-5-5-5-5-5-5-5-5-5-5-5-5-5---|
|-3-3-3-3-3-3-3-3-3-3-3-3-3-3-3-3-/5-5-5-5-5-5-5-5-5-5-5-5-5-5-5-5---|
|-3-3-3-3-3-3-3-3-3-3-3-3-3-3-3-3-/5-5-5-5-5-5-5-5-5-5-5-5-5-5-5-5---|

|---------------------------------------------------------------------------------------|
|---------------------------------------------------------------------------------------|
|-------9--9--9--------7-7-7-7-9--9--9--------------------------------------------------|
|-7-7-7-10-10-10-7-7-7-9-9-9-9-10-10-10-10-10----10-10----10-10----10-10----10-10-10-10-|
|-7-7-7----------7-7-7------------------10-10----10-10----10-10----10-10----10-10-10-10-|
|-7-7-7----------7-7-7------------------10-10-10-10-10-10-10-10-10-10-10-10-10-10-10-10-|

|---------------------------------------------------|
|---------------------------------------------------|
|---------------------------------------------------|
|---------------------------------------------------|
|-333-----333-----33333333-333-----333-----33333333-|
|-333-----333-----33333333-333-----333-----33333333-|
  ...     ...     ........ ...     ...     ........

|---------------------------------------------------|
|---------------------------------------------------|
|---------------------------------------------------|
|---------------------------------------------------|
|-777-----777-----77777777-777-----777--------------|
|-777-----777-----77777777-777-----777--------------|
  ...     ...     ........ ...     ...

|------------------------------------------------------------------------------------|
|-------------------8---------------------------------------8------------------------|
|-------9----7h9------------9----7h9-9----------9----7h9------------9----7h9-9-------|
|-10-10---10-----10---10-10---10-------10-10-10---10-----10---10-10---10-------------|
|------------------------------------------------------------------------------------|
|------------------------------------------------------------------------------------|
  .  .    .      .    .  .    .        .  .  .    .      .    .  .    .

|------------------------------------------------------------------------------------|
|-------------------8---------------------------------------8------------------------|
|-------9----7h9------------9----7h9-9----------9----7h9------------9----7h9-9-------|
|-10-10---10-----10---10-10---10-------10-10-10---10-----10---10-10---10-------------|
|------------------------------------------------------------------------------------|
|------------------------------------------------------------------------------------|
  .  .    .      .    .  .    .        .  .  .    .      .    .  .    .

|--------------------------------------------------------------------|
|--------------------------------------------------------------------|
|-5-5-5-5-5-5-5-5-5-5-5-5-5-5-5-5-/7-7-7-7-7-7-7-7-7-7-7-7-7-7-7-7---|
|-3-3-3-3-3-3-3-3-3-3-3-3-3-3-3-3-/5-5-5-5-5-5-5-5-5-5-5-5-5-5-5-5---|
|-3-3-3-3-3-3-3-3-3-3-3-3-3-3-3-3-/5-5-5-5-5-5-5-5-5-5-5-5-5-5-5-5---|
|-3-3-3-3-3-3-3-3-3-3-3-3-3-3-3-3-/5-5-5-5-5-5-5-5-5-5-5-5-5-5-5-5---|

|---------------------------------------------------------------------------------------|
|---------------------------------------------------------------------------------------|
|-------9--9--9--------7-7-7-7-9--9--9--------------------------------------------------|
|-7-7-7-10-10-10-7-7-7-9-9-9-9-10-10-10-10-10----10-10----10-10----10-10----10-10-10-10-|
|-7-7-7----------7-7-7------------------10-10----10-10----10-10----10-10----10-10-10-10-|
|-7-7-7----------7-7-7------------------10-10-10-10-10-10-10-10-10-10-10-10-10-10-10-10-|

|--------------------------------------------------------------------|
|--------------------------------------------------------------------|
|-5-5-5-5-5-5-5-5-5-5-5-5-5-5-5-5-/7-7-7-7-7-7-7-7-7-7-7-7-7-7-7-7---|
|-3-3-3-3-3-3-3-3-3-3-3-3-3-3-3-3-/5-5-5-5-5-5-5-5-5-5-5-5-5-5-5-5---|
|-3-3-3-3-3-3-3-3-3-3-3-3-3-3-3-3-/5-5-5-5-5-5-5-5-5-5-5-5-5-5-5-5---|
|-3-3-3-3-3-3-3-3-3-3-3-3-3-3-3-3-/5-5-5-5-5-5-5-5-5-5-5-5-5-5-5-5---|

|---------------------------------------------------------------------------------------|
|---------------------------------------------------------------------------------------|
|-------9--9--9--------7-7-7-7-9--9--9--------------------------------------------------|
|-7-7-7-10-10-10-7-7-7-9-9-9-9-10-10-10-10-10----10-10----10-10----10-10----10-10-10-10-|
|-7-7-7----------7-7-7------------------10-10----10-10----10-10----10-10----10-10-10-10-|
|-7-7-7----------7-7-7------------------10-10-10-10-10-10-10-10-10-10-10-10-10-10-10-10-|

|------------------------------------------------------------------|
|------------------------------------------------------------------|
|------------------------------------------------------------------|
|-3--------(3)--------------(3)------3-3-3-3-----------------------|
|-3--------(3)--------------(3)------3-3-3-3-----------------------|
|-3--------(3)--------------(3)------3-3-3-3-----------------------|
                                     . . . .
|------------------------------------------------------------------|
|------------------------------------------------------------------|
|-------------------------------------5-----5---5-----5-----5---5--|
|-----5-----5---5-----5-------5-------5-----5---5-----5-----5---5--| x3
|-3-3-3-3-3-3-3-3-3-3-3-3-3-3-3-3-7-7---7-7---7---7-7---7-7---7----|
|-3-3---3-3---3---3-3---3-3-3---3-7-7---7-7---7---7-7---7-7---7----|
  . .   . .   .   . .   . . .   . . .   . .   .   . .   . .   .

|------------------------------------------------------------------|
|------------------------------------------------------------------|
|-------------------------------------5-----5---5-----5-----5-5-5--|
|-----5-----5---5-----5-------5-------5-----5---5-----5-----5-5-5--|
|-3-3-3-3-3-3-3-3-3-3-3-3-3-3-3-3-7-7---7-7---7---7-7---7-7--------|
|-3-3---3-3---3---3-3---3-3-3---3-7-7---7-7---7---7-7---7-7--------|
  . .   . .   .   . .   . . .   . . .   . .   .   . .   . . 

|--------------------------------------------------------------------|
|--------------------------------------------------------------------|
|-5-5-5-5-5-5-5-5-5-5-5-5-5-5-5-5-/7-7-7-7-7-7-7-7-7-7-7-7-7-7-7-7---|
|-3-3-3-3-3-3-3-3-3-3-3-3-3-3-3-3-/5-5-5-5-5-5-5-5-5-5-5-5-5-5-5-5---|
|-3-3-3-3-3-3-3-3-3-3-3-3-3-3-3-3-/5-5-5-5-5-5-5-5-5-5-5-5-5-5-5-5---|
|-3-3-3-3-3-3-3-3-3-3-3-3-3-3-3-3-/5-5-5-5-5-5-5-5-5-5-5-5-5-5-5-5---|

|---------------------------------------------------------------------------------------|
|---------------------------------------------------------------------------------------|
|-------9--9--9--------7-7-7-7-9--9--9--------------------------------------------------|
|-7-7-7-10-10-10-7-7-7-9-9-9-9-10-10-10-10-10----10-10----10-10----10-10----10-10-10-10-|
|-7-7-7----------7-7-7------------------10-10----10-10----10-10----10-10----10-10-10-10-|
|-7-7-7----------7-7-7------------------10-10-10-10-10-10-10-10-10-10-10-10-10-10-10-10-|

|--------------------------------------------------------------------|
|--------------------------------------------------------------------|
|-5-5-5-5-5-5-5-5-5-5-5-5-5-5-5-5-/7-7-7-7-7-7-7-7-7-7-7-7-7-7-7-7---|
|-3-3-3-3-3-3-3-3-3-3-3-3-3-3-3-3-/5-5-5-5-5-5-5-5-5-5-5-5-5-5-5-5---|
|-3-3-3-3-3-3-3-3-3-3-3-3-3-3-3-3-/5-5-5-5-5-5-5-5-5-5-5-5-5-5-5-5---|
|-3-3-3-3-3-3-3-3-3-3-3-3-3-3-3-3-/5-5-5-5-5-5-5-5-5-5-5-5-5-5-5-5---|

|---------------------------------------------------------------------------------------|
|---------------------------------------------------------------------------------------|
|-------9--9--9--------7-7-7-7-9--9--9--------------------------------------------------|
|-7-7-7-10-10-10-7-7-7-9-9-9-9-10-10-10-10-10----10-10----10-10----10-10----10-10-10-10-|
|-7-7-7----------7-7-7------------------10-10----10-10----10-10----10-10----10-10-10-10-|
|-7-7-7----------7-7-7------------------10-10-10-10-10-10-10-10-10-10-10-10-10-10-10-10-|

|---------------------------------------------------------------------------|
|---------------------------------------------------------------------------|
|-7------------(7)-----------------(7)--------------------------------------|
|-5------------(5)-----------------(5)--------------------------------------|
|---------------------------------------------------------------------------|
|---------------------------------------------------------------------------|

|-----------------------------------------------|
|-----------------------------------------------|
|-----------------------------------------------|
|-10-10-10-10-10-10-10-10-10-12-12-12-12-9-9-9--| x3
|-----------------------------------------------|
|-----------------------------------------------|
  .  .  .  .  .  .  .  .  .  .  .  .  .  . . .


|--------------------------------------------------|
|--------------------------------------------------|
|--------------------------------------------------|
|-10-10-10-10-10-10-10-10-10-12-12-12-12-14-14-14--|
|--------------------------------------------------|
|--------------------------------------------------|
  .  .  .  .  .  .  .  .  .  .  .  .

|--------------------------------------------------|
|--------------------------------------------------|
|----------12----------------12--------------------|
|-12-10-10----10-10-12-10-10----10-10-12-14-12-9---|
|--------------------------------------------------|
|--------------------------------------------------|

|--------------------------------------------------|
|--------------------------------------------------|
|----------12----------------12--------------------|
|-12-10-10----10-10-12-10-10----10-10-12-14-12-9---|
|--------------------------------------------------|
|--------------------------------------------------|

|--------------------------------------------------|
|--------------------------------------------------|
|----------12----------------12--------------------|
|-12-10-10----10-10-12-10-10----10-10-12-14-12-10--|
|--------------------------------------------------|
|--------------------------------------------------|

|--------------------------------------------------|
|--------------------------------------------------|
|----------12----------------12--------------------|
|-12-9--9-----9--9--12-9--9-----9--9--12-14-12-10--|
|--------------------------------------------------|
|--------------------------------------------------|

|--------------------------------------------------|
|--------------------------------------------------|
|----------12----------------12--------------------|
|-12-10-10----10-10-12-10-10----10-10-12-14-12-9---|
|--------------------------------------------------|
|--------------------------------------------------|

|--------------------------------------------------|
|--------------------------------------------------|
|----------12----------------12--------------------|
|-12-10-10----10-10-12-10-10----10-10-12-14-12-9---|
|--------------------------------------------------|
|--------------------------------------------------|

|--------------------------------------------------|
|--------------------------------------------------|
|----------12----------------12--------------------|
|-12-10-10----10-10-12-10-10----10-10-12-14-12-10--|
|--------------------------------------------------|
|--------------------------------------------------|

|--------------------------------------------------|
|--------------------------------------------------|
|----------12----------------12--------------------|
|-12-9--9-----9--9--12-9--9-----9--9--12-14-12-10--|
|--------------------------------------------------|
|--------------------------------------------------|

|--------------------------------------------------------|
|--------------------------------------------------------|
|--------------------------------------------------------|
|-777-----777-----7/9-9----101010-----101010-------------|
|-555-----555-----5/7-9----8-8-8------8-8-8-------17\\---|
|-------------------------------------------------17\\---|
  ...     ...              . . .      . . .

|-------------------------------------------------------------------|
|-------------------------------------------------------------------|
|-------------------------------------------------------------------|
|-7-7-7-7-7-7-7-7-7-7-7-7-7-7-7-7-5-5-5-5-5-5-5-5-5-5-5-5-5-5-5-5---|
|-7-7-7-7-7-7-7-7-7-7-7-7-7-7-7-7-5-5-5-5-5-5-5-5-5-5-5-5-5-5-5-5---|
|-7-7-7-7-7-7-7-7-7-7-7-7-7-7-7-7-5-5-5-5-5-5-5-5-5-5-5-5-5-5-5-5---|

|--------------------------------------------------------|
|--------------------------------------------------------|
|--------------------------------------------------------|
|-777-----777-----7/9-9----101010-----101010-------------|
|-555-----555-----5/7-9----8-8-8------8-8-8-------17\\---|
|-------------------------------------------------17\\---|
  ...     ...              . . .      . . .

|-------------------------------------------------------------------|
|-------------------------------------------------------------------|
|-------------------------------------------------------------------|
|-7-7-7-7-7-7-7-7-7-7-7-7-7-7-7-7-5-5-5-5-5-5-5-5-5-5-5-5-5-5-5-5---|
|-7-7-7-7-7-7-7-7-7-7-7-7-7-7-7-7-5-5-5-5-5-5-5-5-5-5-5-5-5-5-5-5---|
|-7-7-7-7-7-7-7-7-7-7-7-7-7-7-7-7-5-5-5-5-5-5-5-5-5-5-5-5-5-5-5-5---|

|----------------------------------------------------------|
|----------------------------------------------------------|
|-7--------------------/9-------------/10------------------|
|-7--------------------/9-------------/10------------------|
|-5--------------------/7-------------/8-------------------|
|----------------------------------------------------------|

|----------------------------------------------------------|
|----------------------------------------------------------|
|-9-----------------------7--------------------------------|
|-9-----------------------7--------------------------------|
|-7-----------------------5--------------------------------|
|-7-----------------------5--------------------------------|

|----------------------------------------------------------|
|----------------------------------------------------------|
|-5--------------------------------------------------------|
|-5--------------------------------------------------------|
|-3--------------------------------------------------------|
|-3--------------------------------------------------------|


************************************

| .   palm mute
| /   slide up
| \   slide down
| h   hammer-on
| p   pull-off
| ~   vibrato
| *   harmonic
| x   Mute note
| b   Bend
| pb  Pre-bend
| br  Bend release
| pbr Pre-bend release
| brb Bend release bend

************************************
comments
print report bad tab
3 comments total.
+1 reply
elleild wrote on March 5 2010, 10:57 am

Teh same shit but i think its easier
Intro
|------------------------------------------------------|
|-3--3--3--5--5--5--3--3--3--5--5--5--5--5--5--5-------|
|-5--5--5--5--5--5--5--5--5--5--5--5--5--5--5--5-------|
|------------------------------------------------------|
|------------------------------------------------------|
|------------------------------------------------------|

|------------------------------------------------------|
|-3--3--3--5--5--5--3--3--3--5--5--5--5--5--5--3-------|
|-5--5--5--5--5--5--5--5--5--5--5--5--5--5--5--5-------|
|------------------------------------------------------|
|------------------------------------------------------|
|------------------------------------------------------|
Then
|------------------------------------------------------|
|------------------------------------------------------|
|------------------------------------------------------|
|------------------------------------------------------|
|-----5--5--3--3--2--2--0------------------------------|
|------------------------------------------------------|

0 reply
metalmonkey147 wrote on March 5 2010, 02:01 pm

i just like how it sounds on the other two better

0 reply
ibanezeric82 wrote on December 10 2011, 04:53 pm

elleild, I agree. The plated strings offer a more lead feel for this part. Plus, it's how the band plays it.

I want to post or [tab]
guest
You may want to rate the tab now too:
select rating
Please do not post tabs as comments. Select "correction" instead!