Oops, an error
Loading. Please wait.

My Life For Hire Tab

ver2
ver2

Whole song

More versions @911Tabs.com
10,333 views 12 this week
1 commentread comment
1 2 3 4 5
excellent!
x 6
Autoscroll
+/-
esc
set tempo
stop
Difficulty
Tuning
novice
C G C F A D
WARNING: You are trying to view
                                    content from Ultimate-Guitar.com
                                    in an unauthorized application,
                                    which is prohibited.

                                    Please use an official Ultimate
                                    Guitar Tabs application for iPhone,
                                    iPad or Android to access legitimate
                                    chords, guitar, bass, and drum tabs
                                    from Ultimate-Guitar.com database.

                                    Type "ultimate guitar tabs" in Apple
                                    App Store's or Android Market's
                                    search to find the application.
Intro
D|---------------------------------------------------------------------------|
A|--------------------------------------13131313131313111111111111101010-----| x2
F|--10101010101010-9--10101010101010-9---x-x-x-x-x-x-x-x-x-x-x-x-x-x-x-x-----|
C|---x-x-x-x-x-x-x-x---x-x-x-x-x-x-x-x--10101010101010-8-8-8-8-8-8-7-7-7-----|
G|---8-8-8-8-8-8-8-7---8-8-8-8-8-8-8-7---------------------------------------|
C|---------------------------------------------------------------------------|
 |                                                                        
 |                                                                       
D|---------------------------------------------------------------------------|
A|---------------------------------------------------------------------------|
F|---------------------------------------------------------------------------|
C|--0-0-0-0-0-0-0-0-0-0-0-0-0-0-0-0----1010101010101010-8-8-8-8-8-8-8-8------| x2
G|--0-0-0-0-0-0-0-0-0-0-0-0-0-0-0-0-----8-8-8-8-8-8-8-8-5-5-5-5-5-5-5-5------|
C|--0-0-0-0-0-0-0-0-0-0-0-0-0-0-0-0-----8-8-8-8-8-8-8-8-5-5-5-5-5-5-5-5------|


Verse both
D|---------------------------------------------------------------------------|
A|---------------------------------------------------------------------------|x2
F|---------------------------------------------------------------------------|
C|---------------------------------------------------------------------------|
G|-0-000-0-000-000000-8-888-5-555-55555--------------------------------------|
C|-0-000-0-000-000000-8-888-5-555-55555--------------------------------------|
PM . ... . ... ...... . ... . ... .....


D|---------------------------------------------------------------------------|
A|--------------------------------13-13-13-1313-13-11-11-11-10-10-10---------|x2
F|-10-10-10-10109-10-10-10-10109---x--x--x--x-x--x--x--x--x--x--x--x---------|
C|--x--x--x--x-xx--x--x--x--x-xx--10-10-10-1010-10--8--8--8--7--7--7---------|
G|--8--8--8--8-87--8--8--8--8-87---------------------------------------------|
C|---------------------------------------------------------------------------|
 |                                                                       
 |                                                                          
D|---------------------------------------------------------------------------|
A|---------------------------------------------------------------------------|
F|---------------------------------------------------------------------------|x2
C|--0--0--0--0-00--0--0--0--0-00--10-10-10-1010-10--8--8--8--8-8-8-----------|
G|--0--0--0--0-00--0--0--0--0-00---8--8--8--8-8--8--5--5--5--5-5-5-----------|
C|--0--0--0--0-00--0--0--0--0-00---8--8--8--8-8--8--5--5--5--5-5-5-----------|



Pre-Chorus 

D|---------------------------------------------------------------------------|
A|---------------------------------------------------------------------------|
F|---------------------------------7-7-7-7-7-7-7-1010101010101010------------|
C|--8-8-8-8-8-8-8-8-10101010101010-7-7-7-7-7-7-7-1010101010101010------------|
G|--8-8-8-8-8-8-8-8-10101010101010-5-5-5-5-5-5-5--8-8-8-8-8-8-8-8------------|
C|--8-8-8-8-8-8-8-8-10101010101010-------------------------------------------|
 |
 |
D|---------------------------------------------------------------------------|
A|---------------------------------------------------------------------------|
F|--9-9-9-910101010-12-12-12-12-14-14-14-14----------------------------------|
C|--x-x-x-x-x-x-x-x--x--x--x--x--x--x--x--x----------------------------------|x3
G|--7-7-7-7-8-8-8-8-10-10-10-10-12-12-12-12----------------------------------|
C|---------------------------------------------------------------------------|

 
D|---------------------------------------------------------------------------|
A|---------------------------------------------------------------------------|
F|---------------------------------------------------------------------------|
C|--88888888----1010101010101010-111111111111111-----------------------------|
G|--88888888----1010101010101010-111111111111111-----------------------------|
C|--88888888----1010101010101010-111111111111111-----------------------------|
 |
 |
D|---------------------------------------------------------------------------|
A|---------------------------------------------------------------------------|
F|-1010101010101010-7-7-7-7-9-9-9-9------------------------------------------|
C|--x-x-x-x-x-x-x-x-x-x-x-x-x-x-x-x------------------------------------------|x2
G|--8-8-8-8-8-8-8-8-5-5-5-5-7-7-7-7------------------------------------------|
C|---------------------------------------------------------------------------|




Chorus
D|---------------------------------------------------------------------------|
A|-----------------------------------1313131313131313111111111110101010------|
F|--7-7-7-7-7-7-7-7-9-9-9-9-10101010--x-x-x-x-x-x-x-x-x-x-x-x-x-x-x-x-x------|
C|--x-x-x-x-x-x-x-x-x-x-x-x--x-x-x-x-1010101010101010-8-8-8-8-8-7-7-7-7------|
G|--5-5-5-5-5-5-5-5-7-7-7-7--8-8-8-8-----------------------------------------|
C|---------------------------------------------------------------------------|
 |                                                                          
 |                                                                           
D|---------------------------------------------------------------------------|
A|---------------------------------------------------------------------------|
F|---------------------------------------------------------------------------|
C|--0-0-0-0-0-0-0-0-0-0-0-0--0-0-0-0--1010101010101010-8-8-8-8-8-8-8-8-------|
G|--0-0-0-0-0-0-0-0-0-0-0-0--0-0-0-0---8-8-8-8-8-8-8-8-5-5-5-5-5-5-5-5-------|
C|--0-0-0-0-0-0-0-0-0-0-0-0--0-0-0-0---8-8-8-8-8-8-8-8-5-5-5-5-5-5-5-5-------|


D|---------------------------------------------------------------------------|
A|---------------------------------------------------------------------------|
F|-1010101010101010-12121212-14141414-1212121212121212--9-9-9-9-9-9-9-9------|
C|--x-x-x-x-x-x-x-x--x-x-x-x--x-x-x-x--x-x-x-x-x-x-x-x--x-x-x-x-x-x-x-x------|
G|--8-8-8-8-8-8-8-8-10101010-12121212-1010101010101010--7-7-7-7-7-7-7-7------|
C|---------------------------------------------------------------------------|
 |                 
 |                  
D|---------------------------------------------------------------------------|
A|---------------------------------------------------------------------------|
F|---------------------------------------------------------------------------|
C|--3-3-3-3-3-3-3-3--3-3-3-3--3-3-3-3--7-7-7-7-7-7-7-7--7-7-7-7-7-7-7-7------|
G|--3-3-3-3-3-3-3-3--3-3-3-3--3-3-3-3--7-7-7-7-7-7-7-7--7-7-7-7-7-7-7-7------|
C|--3-3-3-3-3-3-3-3--3-3-3-3--3-3-3-3--7-7-7-7-7-7-7-7--7-7-7-7-7-7-7-7------|

post chorus
D|---------------------------------------------------------------------------|
A|---------------------------------------------------------------------------|
F|-1010-1010109--1010-1010109------------------------------------------------|
C|--x-x--x-x-xx---x-x--x-x-xx------------------------------------------------|
G|--8-8--8-8-87---8-8--8-8-87------------------------------------------------|
C|---------------------------------------------------------------------------|
 |
 |
D|---------------------------------------------------------------------------|
A|---------------------------------------------------------------------------|
F|---------------------------------------------------------------------------|
C|--0~------------(harmonize)------------------------------------------------|
G|--0~-----------------------------------------------------------------------|
C|--0~-----------------------------------------------------------------------|
----------------------------------------------------------------------------------------------


Verse again!

----------------------------------------------------------------------------------------------

D|---------------------------------------------------------------------------|
A|---------------------------------------------------------------------------|
F|---------------------------------7-7-7-7-7-7-7-1010101010101010------------|
C|--8-8-8-8-8-8-8-8-10101010101010-7-7-7-7-7-7-7-1010101010101010------------|
G|--8-8-8-8-8-8-8-8-10101010101010-5-5-5-5-5-5-5--8-8-8-8-8-8-8-8------------|
C|--8-8-8-8-8-8-8-8-10101010101010-------------------------------------------|
 |
 |
D|---------------------------------------------------------------------------|
A|---------------------------------------------------------------------------|
F|--9-9-9-910101010-12-12-12-12-14-14-14-14----------------------------------|
C|--x-x-x-x-x-x-x-x--x--x--x--x--x--x--x--x----------------------------------|x2
G|--7-7-7-7-8-8-8-8-10-10-10-10-12-12-12-12----------------------------------|
C|---------------------------------------------------------------------------|


D|---------------------------------------------------------------------------|
A|---------------------------------------------------------------------------|
F|---------------------------------------------------------------------------|
C|--8-8-8-8-8-8-8--10---------------11---------------------------------------|
G|--8-8-8-8-8-8-8--10---------------11---------------------------------------|
C|--8-8-8-8-8-8-8--10---------------11---------------------------------------|
 |
 |
D|---------------------------------------------------------------------------|
A|---------------------------------------------------------------------------|
F|-1010101010101010-7------------9-------------------------------------------|
C|--x-x-x-x-x-x-x-x-x------------x-------------------------------------------|x2
G|--8-8-8-8-8-8-8-8-5------------7-------------------------------------------|
C|---------------------------------------------------------------------------|

------------------------------------------------------------------------------------------------

CHORUS AGAIN!!!!!!!!!

------------------------------------------------------------------------------------------------


breakdoowwwwwwwwwwwwwwwwwwwwwwwwwn  both
D|---------------------------------------------------------------------------|
A|---------------------------------------------------------------------------|
F|---------------------------------------------------------------------------|
C|---------------------------------------------------------------------------|
G|-0-000-000--000-000-000--0-0-000-000---------------------------------------|
C|-0-000-000--000-000-000--0-0-000-000---------------------------------------|
  PM-------------------------------->|
 
BOTH
D|---------------------------------------------------------------------------|
A|---------------------------------------------------------------------------|
F|---------------------------------------------------------------------------|
C|---------------------------------------------------------------------------|
G|-0--0--0--0--00000000------------------(then repeat first pattern)---------|
C|-0--0--0--0--00000000------------------------------------------------------|
PM------------------->|

------------------------------------------------------------------------------------------------

CHORUS AGAAAYYYYYYYYYYNNNNNNNNNNNN!!!!!!!!!!!!!!!!!!!!!!!!!!!!!!!!!!

------------------------------------------------------------------------------------------------

Outro 

D|---------------------------------------------------------------------------|
A|---------------------------------------------------------------------------|
F|---------------------------------7-7-7-7-7-7-7-1010101010101010------------|
C|--8-8-8-8-8-8-8-8-10101010101010-7-7-7-7-7-7-7-1010101010101010------------|
G|--8-8-8-8-8-8-8-8-10101010101010-5-5-5-5-5-5-5--8-8-8-8-8-8-8-8------------|
C|--8-8-8-8-8-8-8-8-10101010101010-------------------------------------------|
 |
 |
D|---------------------------------------------------------------------------|
A|---------------------------------------------------------------------------|
F|--9-9-9-910101010-12-12-12-12-14-14-14-14----------------------------------|
C|--x-x-x-x-x-x-x-x--x--x--x--x--x--x--x--x----------------------------------|x2
G|--7-7-7-7-8-8-8-8-10-10-10-10-12-12-12-12----------------------------------|
C|---------------------------------------------------------------------------|




little lead that comes in after 7 second left
D|---------------------------------------------------------------------------|
A|/13-10-------13-10------13-------------------------------------------------|
F|--------12-9-------12-9----------------------------------------------------|
C|---------------------------------------------------------------------------|
G|---------------------------------------------------------------------------|
C|---------------------------------------------------------------------------|
 |
 |harmonization
D|---------------------------------------------------------------------------|
A|/10-7--------10--7-------10------------------------------------------------|
F|--------9-6--------9--6----------------------------------------------------|
C|---------------------------------------------------------------------------|
G|---------------------------------------------------------------------------|
C|---------------------------------------------------------------------------|

comments
print report bad tab
1 comment total.
0 reply
itsguitarguy wrote on December 13 2010, 09:17 pm

Looks correct mate.

I want to post or [tab]
guest
You may want to rate the tab now too:
select rating
Please do not post tabs as comments. Select "correction" instead!