Oops, an error
Loading. Please wait.

My Life For Hire Tab

ver4
ver4

Whole song

More versions @911Tabs.com
5,552 views 21 this week
no commentswrite comment
1 2 3 4 5
excellent!
x 5
Autoscroll
+/-
esc
set tempo
stop
Contributor
Difficulty
Tuning
intermediate
C G C F A D
WARNING: You are trying to view
                                    content from Ultimate-Guitar.com
                                    in an unauthorized application,
                                    which is prohibited.

                                    Please use an official Ultimate
                                    Guitar Tabs application for iPhone,
                                    iPad or Android to access legitimate
                                    chords, guitar, bass, and drum tabs
                                    from Ultimate-Guitar.com database.

                                    Type "ultimate guitar tabs" in Apple
                                    App Store's or Android Market's
                                    search to find the application.
----------------------------------------------------------------------------
                  MY LIFE FOR HIRE by A DAY TO REMEMBER
                          on the HOMESICK album
----------------------------------------------------------------------------

TUNING: Drop C (CGCFAD)

Tab by AsILayDying504

.  palm mute
~  hold note
x  mute string



INTRO:

Guitar 1 (x2)

D|---------------------------------------|
A|---------------------------------------|
F|--10101010101010-9-10101010101010-9----|
C|--x-x-x-x-x-x-x--x-x-x-x-x-x-x-x--x----|
G|--8-8-8-8-8-8-8--7-8-8-8-8-8-8-8--7----|
C|---------------------------------------|
        
D|-----------------------------------------------------|---------played-at-|
A|-----------------------------------------------------|---------the end---|
F|--17-17-17-17-17-17-17-17--17\15-15-15--15\14-14-14--|--10~----of second-|
C|--x--x--x--x--x--x--x--x---x--x--x--x---x--x--x--x---|--x------time------|
G|--15-15-15-15-15-15-15-15--15\13-13-13--13\12-12-12--|--8~-----through---|
C|-----------------------------------------------------|-------------------|


Guitar 2 (x2)

D|-------------------------------------------------------------------------|
A|-------------------------------------------------------------------------|
F|-------------------------------------------------------------------------|
C|--0-0-0-0-0-0-0-0-0-0-0-0-0-0-0-0-8-8-8-8-8-8-8-8-5-5-5-5-5-5-5-5--------|
G|--0-0-0-0-0-0-0-0-0-0-0-0-0-0-0-0-8-8-8-8-8-8-8-8-5-5-5-5-5-5-5-5--------|
C|--0-0-0-0-0-0-0-0-0-0-0-0-0-0-0-0-8-8-8-8-8-8-8-8-5-5-5-5-5-5-5-5--------|


VERSE, PART 1:

D|-----------------------------------------------------------|
A|-----------------------------------------------------------|
F|-----------------------------------------------------------|   (x2)
C|-----------------------------------------------------------|
G|--0--000--0--000--00000000--8--888--5--555--55555555-------|
C|--0--000--0--000--00000000--8--888--5--555--55555555-------|
    .  ...  .  ...  ........  .  ...  .  ...  ........


VERSE, PART 2:

Guitar 1 (x2)

D|--------------------------------------------|
A|--------------------------------------------|
F|--10-10--10-10-10-9---10-10--10-10-10-9-----|
C|--x--x---x--x--x--x---x--x---x--x--x--x-----|
G|--8--8---8--8--8--7---8--8---8--8--8--7-----|
C|--------------------------------------------|

D|--------------------------------------------|
A|--------------------------------------------|
F|--17-17--17-17-17-17--15-15--14-14-14-14----|
C|--x--x---x--x--x--x---x--x---x--x--x--x-----|
G|--15-15--15-15-15-15--13-13--12-12-12-12----|
C|--------------------------------------------|


Guitar 2 (x2)

D|------------------------------------------|
A|------------------------------------------|
F|------------------------------------------|
C|--0-0-0000-0-0-0000-8-8-8888-5-5-5555-----|
G|--0-0-0000-0-0-0000-8-8-8888-5-5-5555-----|
C|--0-0-0000-0-0-0000-8-8-8888-5-5-5555-----|


PRECHORUS:

Guitar 1

D|----------------------------------------------------|
A|----------------------------------------------------|
F|--10-10-10-10-12-12-12-12-14-14-14-14-9-9-9-9-------|
C|--x--x--x--x--x--x--x--x--x--x--x--x--x-x-x-x-------|
G|--8--8--8--8--10-10-10-10-12-12-12-12-7-7-7-7-------|
C|----------------------------------------------------|

D|----------------------------------------------------|
A|----------------------------------------------------|
F|--10-10-10-10-12-12-12-12-17-17-17-17-14-14-14-14---|
C|--x--x--x--x--x--x--x--x--x--x--x--x--x--x--x--x----|
G|--8--8--8--8--10-10-10-10-15-15-15-15-12-12-12-12---|
C|----------------------------------------------------|

D|----------------------------------------------------|
A|----------------------------------------------------|
F|--10-10-10-10-10-10-10-10---------------------------|
C|--x--x--x--x--x--x--x--x---10-10-10-10--11----------|
G|--8--8--8--8--8--8--8--8---10-10-10-10--11----------|
C|---------------------------10-10-10-10--11----------|


Guitar 2

D|-------------------------------------------------------------------------|
A|-------------------------------------------------------------------------|
F|-------------------------------------------------------------------------|
C|-8-8-8-8-8-8-8-8-10-10-10-10-10-10-10-10-0-0-0-0-0-0-0-0-3-3-3-3-3-3-3-3-|
G|-8-8-8-8-8-8-8-8-10-10-10-10-10-10-10-10-0-0-0-0-0-0-0-0-3-3-3-3-3-3-3-3-|
C|-8-8-8-8-8-8-8-8-10-10-10-10-10-10-10-10-0-0-0-0-0-0-0-0-3-3-3-3-3-3-3-3-|

D|--------------------------------------------|
A|--------------------------------------------|
F|--------------------------------------------|
C|--8-8-8-8-8-8-8-8--10-10-10-10--11----------|
G|--8-8-8-8-8-8-8-8--10-10-10-10--11----------|
C|--8-8-8-8-8-8-8-8--10-10-10-10--11----------|


CHORUS:

Guitar 1

D|---------------------------------------------------------------|
A|---------------------------------------------------------------|
F|--77777777-9999-10101010-1717171717171717-15151515-14141414----|
C|--xxxxxxxx-xxxx-x-x-x-x--x-x-x-x-x-x-x-x--x-x-x-x--x-x-x-x-----|
G|--55555555-7777-8-8-8-8--1515151515151515-13131313-12121212----|
C|---------------------------------------------------------------|

D|-----------------------------------------------------------------------|
A|-----------------------------------------------------------------------|
F|--10-10-10-10-10-10-10-10-10-10-10-10-12-12-12-12-9999999999999999-----|
C|--x--x--x--x--x--x--x--x--x--x--x--x--x--x--x--x--xxxxxxxxxxxxxxxx-----|
G|--8--8--8--8--8--8--8--8--8--8--8--8--10-10-10-10-7777777777777777-----|
C|-----------------------------------------------------------------------|


Guitar 2

D|-------------------------------------------------------------------------|
A|-------------------------------------------------------------------------|
F|-----------------------------------------------------5555555555555555----|
C|--0000000000000000-8888888888888888-3333333333333333-5555555555555555----|
G|--0000000000000000-8888888888888888-3333333333333333-3333333333333333----|
C|--0000000000000000-8888888888888888-3333333333333333---------------------|


PRE-VERSE:

            Guitar 1                                Guitar 2

D|---------------------------------|  D|-----------------------------------|
A|---------------------------------|  A|-----------------------------------|
F|-10-10-1010109-10-10-1010109-10~-|  F|--7-7--7-7-7-5--7-7--7-7-7-5--7~---|
C|-x--x--x-x-x-x-x--x--x-x-x-x-x---|  C|--x-x--x-x-x-x--x-x--x-x-x-x--x----|
G|-8--8--8-8-8-7-8--8--8-8-8-7-8~--|  G|--5-5--5-5-5-3--5-5--5-5-5-3--5~---|
C|---------------------------------|  C|-----------------------------------|


VERSE, PART 1:

D|-----------------------------------------------------------|
A|-----------------------------------------------------------|
F|-----------------------------------------------------------|   (x2)
C|-----------------------------------------------------------|
G|--0--000--0--000--00000000--8--888--5--555--55555555-------|
C|--0--000--0--000--00000000--8--888--5--555--55555555-------|
    .  ...  .  ...  ........  .  ...  .  ...  ........


VERSE, PART 2:

Guitar 1 (x2)

D|--------------------------------------------|
A|--------------------------------------------|
F|--10-10--10-10-10-9---10-10--10-10-10-9-----|
C|--x--x---x--x--x--x---x--x---x--x--x--x-----|
G|--8--8---8--8--8--7---8--8---8--8--8--7-----|
C|--------------------------------------------|

D|--------------------------------------------|
A|--------------------------------------------|
F|--17-17--17-17-17-17--15-15--14-14-14-14----|
C|--x--x---x--x--x--x---x--x---x--x--x--x-----|
G|--15-15--15-15-15-15--13-13--12-12-12-12----|
C|--------------------------------------------|


Guitar 2 (x2)

D|------------------------------------------|
A|------------------------------------------|
F|------------------------------------------|
C|--0-0-0000-0-0-0000-8-8-8888-5-5-5555-----|
G|--0-0-0000-0-0-0000-8-8-8888-5-5-5555-----|
C|--0-0-0000-0-0-0000-8-8-8888-5-5-5555-----|


PRECHORUS:

Guitar 1

D|----------------------------------------------------|
A|----------------------------------------------------|
F|--10-10-10-10-12-12-12-12-14-14-14-14-9-9-9-9-------|
C|--x--x--x--x--x--x--x--x--x--x--x--x--x-x-x-x-------|
G|--8--8--8--8--10-10-10-10-12-12-12-12-7-7-7-7-------|
C|----------------------------------------------------|

D|----------------------------------------------------|
A|----------------------------------------------------|
F|--10-10-10-10-12-12-12-12-17-17-17-17-14-14-14-14---|
C|--x--x--x--x--x--x--x--x--x--x--x--x--x--x--x--x----|
G|--8--8--8--8--10-10-10-10-15-15-15-15-12-12-12-12---|
C|----------------------------------------------------|

D|--------------------------------------|
A|--------------------------------------|
F|--10-10-10-10-10-10-10-10-------------|
C|--x--x--x--x--x--x--x--x---10--11-----|
G|--8--8--8--8--8--8--8--8---10--11-----|
C|---------------------------10--11-----|


Guitar 2

D|-------------------------------------------------------------------------|
A|-------------------------------------------------------------------------|
F|-------------------------------------------------------------------------|
C|-8-8-8-8-8-8-8-8-10-10-10-10-10-10-10-10-0-0-0-0-0-0-0-0-3-3-3-3-3-3-3-3-|
G|-8-8-8-8-8-8-8-8-10-10-10-10-10-10-10-10-0-0-0-0-0-0-0-0-3-3-3-3-3-3-3-3-|
C|-8-8-8-8-8-8-8-8-10-10-10-10-10-10-10-10-0-0-0-0-0-0-0-0-3-3-3-3-3-3-3-3-|

D|------------------------------|
A|------------------------------|
F|------------------------------|
C|--8-8-8-8-8-8-8-8--10--11-----|
G|--8-8-8-8-8-8-8-8--10--11-----|
C|--8-8-8-8-8-8-8-8--10--11-----|


CHORUS:

Guitar 1 (x2)

D|---------------------------------------------------------------|
A|---------------------------------------------------------------|
F|--77777777-9999-10101010-1717171717171717-15151515-14141414----|
C|--xxxxxxxx-xxxx-x-x-x-x--x-x-x-x-x-x-x-x--x-x-x-x--x-x-x-x-----|
G|--55555555-7777-8-8-8-8--1515151515151515-13131313-12121212----|
C|---------------------------------------------------------------|

D|-----------------------------------------------------------------------|
A|-----------------------------------------------------------------------|
F|--10-10-10-10-10-10-10-10-10-10-10-10-12-12-12-12-9999999999999999-----|
C|--x--x--x--x--x--x--x--x--x--x--x--x--x--x--x--x--xxxxxxxxxxxxxxxx-----|
G|--8--8--8--8--8--8--8--8--8--8--8--8--10-10-10-10-7777777777777777-----|
C|-----------------------------------------------------------------------|


Guitar 2 (x2)

D|-------------------------------------------------------------------------|
A|-------------------------------------------------------------------------|
F|-----------------------------------------------------5555555555555555----|
C|--0000000000000000-8888888888888888-3333333333333333-5555555555555555----|
G|--0000000000000000-8888888888888888-3333333333333333-3333333333333333----|
C|--0000000000000000-8888888888888888-3333333333333333---------------------|


BREAKDOWN:

D|------------------------------------------------------|
A|------------------------------------------------------|
F|------------------------------------------------------|
C|--0~----0~--------------------------------------------|
G|--0~----0~----0--000-000--000-000-0-0-0-0--000-000----|
C|--0~----0~----0--000-000--000-000-0-0-0-0--000-000----|
                .  ... ...  ... ... . . . .  ... ...

D|-------------------------------------|
A|-------------------------------------|
F|-------------------------------------|
C|-------------------------------------|  (x4)
G|--0~-000~-000~--000~-000~-0~-0~-0~---|
C|--0~-000~-000~--000~-000~-0~-0~-0~---|
    .  ...  ...   ...  ...  .  .  . 

D|-------------------------------------------------------------------|
A|-------------------------------------------------------------------|
F|-------------------------------------------------------------------|
C|-------------------------------------------------------------------|
G|--0--0--0--0---0-0-0-0-0-0-0-0---0--0--0--0---0-0-0-0-0-0-0-0------|
C|--0--0--0--0---0-0-0-0-0-0-0-0---0--0--0--0---0-0-0-0-0-0-0-0------|
    .  .  .  .   . . . . . . . .   .  .  .  .   . . . . . . . .

D|-------------------------------------|           D|----------------|
A|-------------------------------------|           A|----------------|
F|-------------------------------------|           F|----------------|
C|-------------------------------------| (x2)      C|--9~---10--11~--|    
G|--0~-000~-000~--000~-000~-0~-0~-0~---|           G|--9~---10--11~--|
C|--0~-000~-000~--000~-000~-0~-0~-0~---|           C|--9~---10--11~--|
    .  ...  ...   ...  ...  .  .  .


CHORUS:

Guitar 1 (x2)

D|---------------------------------------------------------------|
A|---------------------------------------------------------------|
F|--77777777-9999-10101010-1717171717171717-15151515-14141414----|
C|--xxxxxxxx-xxxx-x-x-x-x--x-x-x-x-x-x-x-x--x-x-x-x--x-x-x-x-----|
G|--55555555-7777-8-8-8-8--1515151515151515-13131313-12121212----|
C|---------------------------------------------------------------|

D|-----------------------------------------------------------------------|
A|-----------------------------------------------------------------------|
F|--10-10-10-10-10-10-10-10-10-10-10-10-12-12-12-12-9999999999999999-----|
C|--x--x--x--x--x--x--x--x--x--x--x--x--x--x--x--x--xxxxxxxxxxxxxxxx-----|
G|--8--8--8--8--8--8--8--8--8--8--8--8--10-10-10-10-7777777777777777-----|
C|-----------------------------------------------------------------------|


Guitar 2 (x2)

D|-------------------------------------------------------------------------|
A|-------------------------------------------------------------------------|
F|-----------------------------------------------------5555555555555555----|
C|--0000000000000000-8888888888888888-3333333333333333-5555555555555555----|
G|--0000000000000000-8888888888888888-3333333333333333-3333333333333333----|
C|--0000000000000000-8888888888888888-3333333333333333---------------------|


OUTRO:

Guitar 1

D|----------------------------------------------------|
A|----------------------------------------------------|
F|--10-10-10-10-12-12-12-12-14-14-14-14-9-9-9-9-------|
C|--x--x--x--x--x--x--x--x--x--x--x--x--x-x-x-x-------|
G|--8--8--8--8--10-10-10-10-12-12-12-12-7-7-7-7-------|
C|----------------------------------------------------|

D|----------------------------------------------------|
A|----------------------------------------------------|
F|--10-10-10-10-12-12-12-12-17-17-17-17-14-14-14-14---|
C|--x--x--x--x--x--x--x--x--x--x--x--x--x--x--x--x----|
G|--8--8--8--8--10-10-10-10-15-15-15-15-12-12-12-12---|
C|----------------------------------------------------|

D|-----------------------------------|
A|-----------------------------------|
F|--10-10-10-10-10-10-10-10----------|
C|--x--x--x--x--x--x--x--x---10------|
G|--8--8--8--8--8--8--8--8---10------|
C|---------------------------10------|


Guitar 2

D|-------------------------------------------------------------------------|
A|-------------------------------------------------------------------------|
F|-------------------------------------------------------------------------|
C|-8-8-8-8-8-8-8-8-10-10-10-10-10-10-10-10-0-0-0-0-0-0-0-0-3-3-3-3-3-3-3-3-|
G|-8-8-8-8-8-8-8-8-10-10-10-10-10-10-10-10-0-0-0-0-0-0-0-0-3-3-3-3-3-3-3-3-|
C|-8-8-8-8-8-8-8-8-10-10-10-10-10-10-10-10-0-0-0-0-0-0-0-0-3-3-3-3-3-3-3-3-|

D|--------------------------|
A|--------------------------|
F|--------------------------|
C|--8-8-8-8-8-8-8-8--10-----|
G|--8-8-8-8-8-8-8-8--10-----|
C|--8-8-8-8-8-8-8-8--10-----|
I want to post or [tab]
guest
You may want to rate the tab now too:
select rating
Please do not post tabs as comments. Select "correction" instead!