Oops, an error
Loading. Please wait.

Since U Been Gone Tab

ver1
ver1

Whole song

Interactive

More versions @911Tabs.com
161,171 views 69 this week
18 commentsread comments
1 2 3 4 5
accurate
x 20
Autoscroll
+/-
esc
set tempo
stop
Contributor
Tuning
C G C F A D
Hey! There's an official Ultimate Guitar app which is ideal
for learning songs when you're away from computer. Get the app
WARNING: You are trying to view
                                    content from Ultimate-Guitar.com
                                    in an unauthorized application,
                                    which is prohibited.

                                    Please use an official Ultimate
                                    Guitar Tabs application for iPhone,
                                    iPad or Android to access legitimate
                                    chords, guitar, bass, and drum tabs
                                    from Ultimate-Guitar.com database.

                                    Type "ultimate guitar tabs" in Apple
                                    App Store's or Android Market's
                                    search to find the application.
#----------------------------------PLEASE NOTE---------------------------------#
#This file is the author's own work and represents their interpretation of the #
#song. You may only use this file for private study, scholarship, or research. #
#------------------------------------------------------------------------------#








 

 

Gtr I (C G C F A D) - 'Clean Guitar'
Gtr II (C G C F A D) - 'Guitar One (Stereo)'
Gtr III (C G C F A D) - 'Guitar Two (Stereo) '
Gtr IV (C G C F A D) - 'Left Channel Guitar'
Gtr V (C G C F A D) - 'Right Channel Guitar'


  Q=130
 4/4
  Gtr I
  E E E E E E E E   E E E E E E E E   E E E E E E E E   E E E E E E E E
|-----------------|-----------------|-----------------|------------------|
|-----------------|-----------------|-----------------|------------------|
|-----------------|-----------------|-----------------|------------------|
|-----------------|-----------------|-----------------|------------------|
|-0-0-0-0-0-0-0-0-|-0-0-0-0-0-0-0-0-|-0-0-0-0-0-0-0-0-|-0-0-0-0-0-0-0-0--|
|-3-3-3-3-3-3-3-3-|-3-3-3-3-3-3-3-3-|-3-3-3-3-3-3-3-3-|-3-3-3-3-3-5-5-5--|


  E E E E E E E E   E E E E E E E E   E E E E E E E E   E E E E E E E E
|-----------------|-----------------|-----------------|-----------------|
|-----------------|-----------------|-----------------|-----------------|
|-----------------|-----------------|-----------------|-----------------|
|-----------------|-----------------|-----------------|-----------------|
|-0-0-0-0-0-0-0-0-|-0-0-0-0-0-0-0-0-|-0-0-0-0-0-0-0-0-|-0-0-0-0-0-0-0-0-|
|-0-0-0-0-0-0-0-0-|-0-0-0-0-0-1-1-1-|-3-3-3-3-3-3-3-3-|-3-3-3-3-3-5-5-5-|


                                  Gtr II
  E E E E E E E E    E E E E   E  E E E
|-----------------|---------------------|
|-----------------|---------------------|
|-----------------|---------------------|
|-----------------|---------------2-2---|
|-0-0-0-0-0-0-0-0-|--0-0-0-0---0--3-3---|
|-0-0-0-0-0-0-0-0-|--0-0-0-0---0--2-2---|
|
| Gtr III
|                    <
| W                  H        +E  E E
|-----------------|---------------------|
|-----------------|---------------------|
|-----------------|-10-------(10)-------|
|-----------------|---------------2-2---|
|-----------------|---------------3-3---|
|-----------------|---------------2-2---|


    Gtrs II, III
    PM------------------------------------------------------------------|
    E E E E E E E E   E E E E E E E E   E E E E E E E E   E E E E E E E E
||------------------|-----------------|-----------------|-------------------||
||o-----------------|-----------------|-----------------|------------------o||
||------------------|-----------------|-----------------|-------------------||
||------------------|-----------------|-----------------|-------------------||
||o-3-3-3-3-3-3-3-3-|-3-3-3-3-3-5-5-5-|-0-0-0-0-0-0-0-0-|-0-0-0-0-3-3-3-3--o||
||--3-3-3-3-3-3-3-3-|-3-3-3-3-3-5-5-5-|-0-0-0-0-0-0-0-0-|-0-0-0-0-2-2-2-2---||


  Gtrs II, III
   PM|      PM----|      PM-----|      PM----|      PM-
   E  E  E  E   E  E  E  E    E  E  E  E   E  E  E  E
|--------------------------|--------------------------|
|--------------------------|--------------------------|
|--------------------------|--------------------------|
|--------3------------3----|--------3------------5----|
|--3--3--3--3---3--3--3--3-|--3--3--3--3---5--5--5--5-|
|--3--3--3--3---3--3--3--3-|--3--3--3--3---5--5--5--5-|
|
| Gtr V
|  E  E  E  E   E  E  E  E    E  E  E  E   E  E  E  E
|--------------------------|--------------------------|
|-10----10-----10----10----|-10----10-----10----10----|
|----10----10-----10----10-|----10----10-----10----10-|
|--------------------------|--------------------------|
|--------------------------|--------------------------|
|--------------------------|--------------------------|
|
| Gtr IV
|  Q     E  Q.        E  E    Q     E  Q.        E  E
|--------8------------8----|--------8------------8----|
|--------------------------|--------------------------|
|--------------------------|--------------------------|
|--------------------------|--------------------------|
|--------------------------|--------------------------|
|--------------------------|--------------------------|


 ----|      PM----|      PM-----|      PM----|      PM
   E  E  E  E   E  E  E  E    E  E  E  E   E  E  E  E
|--------------------------|--------------------------|
|--------------------------|--------------------------|
|--------------------------|--------------------------|
|--------0------------0----|--------0------------2----|
|--0--0--0--0---0--0--0--0-|--0--0--0--0---3--3--3--3-|
|--0--0--0--0---0--0--0--0-|--0--0--0--0---2--2--2--2-|
|
|  E  E  E  E   E  E  E  E    E  E  E  E   E  E  E  E
|--------------------------|--------------------------|
|-10----10-----10----10----|-10----10-----10----10----|
|----10----10-----10----10-|----10----10-----10----10-|
|--------------------------|--------------------------|
|--------------------------|--------------------------|
|--------------------------|--------------------------|
|
|  Q     E  Q.        E  E    Q     E  Q.        E  E
|--------8------------8----|--------8------------8----|
|--------------------------|--------------------------|
|--------------------------|--------------------------|
|--------------------------|--------------------------|
|--------------------------|--------------------------|
|--------------------------|--------------------------|


   PM|      PM----|      PM-----|      PM|
   E  E  E  E   E  E  E  E    E  E  E  E E Q.
|--------------------------|---------------------|
|--------------------------|---------------------|
|--------------------------|---------------------|
|--------3------------3----|--------3----5-------|
|--3--3--3--3---3--3--3--3-|--3--3--3--3-5-------|
|--3--3--3--3---3--3--3--3-|--3--3--3--3-5-------|
|
|  E  E  E  E   E  E  E  E    E  E  E  E E Q.
|--------------------------|---------------------|
|-10----10-----10----10----|-10----10------------|
|----10----10-----10----10-|----10----10---------|
|--------------------------|-------------5-------|
|--------------------------|-------------5-------|
|--------------------------|-------------5-------|
|
|  Q     E  Q.        E  E    Q     E  H       E
|--------8------------8----|--------8------------|
|--------------------------|---------------------|
|--------------------------|---------------------|
|--------------------------|---------------------|
|--------------------------|---------------------|
|--------------------------|---------------------|


  Gtrs II, III
   E  E  E  E  E  E  E  E    E  E  E  E  E  E  E  E
|-------------------------|-------------------------|
|-------------------------|-------------------------|
|--2--2--2--3--3--3--3----|-------------------------|
|--2--2--2--3--3--3--3--3-|--3--3--3--3--3--3--3--3-|
|--0--0--0--1--1--1--1--3-|--3--3--3--3--3--3--3--3-|
|-----------------------3-|--3--3--3--3--3--3--3--3-|
|
| Gtr IV
|  E  E  E  E  E  E  E  E    E  E  E  E  E  E  E  E
|-------------------------|-------------------------|
|-------------------------|-------------------------|
|-14-14-14-15-15-15-15----|-------17----------17----|
|----------------------15-|-15-15----15-15-15----15-|
|-------------------------|-------------------------|
|-------------------------|-------------------------|


   E  E  E  E  E  E  E  E    E  E  E  E  E  E  E  E
|-------------------------|-------------------------|
|-------------------------|-------------------------|
|--2--2--2--3--3--3--3----|-------------------------|
|--2--2--2--3--3--3--3--3-|--3--3--3--3--3--3--3--3-|
|--0--0--0--1--1--1--1--3-|--3--3--3--3--3--3--3--3-|
|-----------------------3-|--3--3--3--3--3--3--3--3-|
|
|  E  E  E  E  E  E  E  E    E  E  E  E  E  E  E  E
|-------------------------|-------------------------|
|-------------------------|-------------------------|
|-14-14-14-15-15-15-15----|-------17----------17----|
|----------------------15-|-15-15----15-15-15----15-|
|-------------------------|-------------------------|
|-------------------------|-------------------------|


  Gtr II
   E  E  E  E  E  E  E  E    E  E  E  E  E  E  E  E
|-------------------------|-------------------------|
|-------------------------|-------------------------|
|-----------3--3--3--3----|-------------------------|
|--0--0--0--3--3--3--3--3-|--3--3--3--3--3--3--3--3-|
|--0--0--0--1--1--1--1--3-|--3--3--3--3--3--3--3--3-|
|--0--0--0--------------3-|--3--3--3--3--3--3--3--3-|
|
| Gtr III
|  E  E  E  E  E  E  E  E    E  E  E  E  E  E  E  E
|-------------------------|-------------------------|
|-------------------------|-------------------------|
|-10-10-10-12-12-10-10-14-|-14-10-10-12-12-10-10-10-|
|--x--x--x--x--x--x--x--x-|--x--x--x--x--x--x--x--x-|
|--8--8--8-10-10--8--8-12-|-12--8--8-10-10--8--8--8-|
|-------------------------|-------------------------|


  E E E E E E E E    E  E  E  E  E  E  E  E
|-----------------|-------------------------|
|-----------------|-------------------------|
|-----------------|-------------------------|
|-5-5-5-5-5-5-5-5-|--0--0--0--0--0--0--0--0-|
|-5-5-5-5-5-5-5-5-|--0--0--0--0--0--0--0--0-|
|-5-5-5-5-5-5-5-5-|--0--0--0--0--0--0--0--0-|
|
| E E E E E E E E    E  E  E  E  E  E  E  E
|-----------------|-------------------------|
|-----------------|-------------------------|
|-7-7-7-7-7-7-7-7-|-10-10-10-10-10-10-10-10-|
|-x-x-x-x-x-x-x-x-|--x--x--x--x--x--x--x--x-|
|-5-5-5-5-5-5-5-5-|--8--8--8--8--8--8--8--8-|
|-----------------|-------------------------|


                                 PM|   PM|   PM    PM|   PM--|  ~~~
  E E E E E E E E     W          E E E E E E E E   E E E E E E  Q
|-----------------|------------|-----------------|------------------|
|-----------------|------------|-----------------|------------------|
|-----------------|------------|-----------------|------------------|
|-2-2-2-2-2-2-2-2-|---5--------|-----3-----3---3-|-----3------------|
|-3-3-3-3-3-3-3-3-|---5--------|-----------------|------------------|
|-2-2-2-2-2-2-2-2-|---5--------|-3-3---3-3---3---|-3-3---3-3-0-[5]--|
|
| E E E E E E E E     W          W                 W
|-----------------|------------|-----------------|------------------|
|-----------------|------------|-----------------|------------------|
|-9-9-9-9-9-9-9-9-|-/12--------|-----------------|------------------|
|-x-x-x-x-x-x-x-x-|---x--------|-----------------|------------------|
|-7-7-7-7-7-7-7-7-|-/10--------|-----------------|------------------|
|-----------------|------------|-----------------|------------------|


    Gtr II
         PM                PM        PM            PM                 PM    PM
     E   E    E  E         E    E    E     E       E      E        E  E  E  E  Q
||---------------------------------------------|----------------------------------|
||o---------/11-10------------------------10---|--------/11-------10--------------|
||--10-(10)--------------(10)---9---(9)--------|-(10)----------------(9)-9-(9)-9--|
||---------------------------------------------|----------------------------------|
||o--------------------------------------------|----------------------------------|
||---------------------------------------------|----------------------------------|
|
|   Gtr III
|    PM          PM----|          PM                        PM-----------|
|    E   Q       T T T E      E   E     E    T     T  E     T T T  E  E  E  E  Q
||---------------------------------------------|----------------------------------|
||o--------------------------------------------|----------------------------------|
||---------------------------------------------|----------------------------------|
||---------------------------------------------|----------------------------------|
||o--3-----------3-3-3-3----------3------------|------------3-3-3--3--3--3--0--5--|
||---3-----------3-3-3-3----------3------------|------------3-3-3--3--3--3--0--5--|


                                PM            PM                PM     PM
   E   E    E  E       E   E    E     E       E    E        E   E   E  E  Q
|-----------------------------------------|-------------------------------------||
|---------/11-10---------------------10---|------/11-------10------13----13----o||
|-10-(10)------------------9---(9)--------|-(10)--------------(10)----10--------||
|-----------------------------------------|-------------------------------------||
|-----------------------------------------|------------------------------------o||
|-----------------------------------------|-------------------------------------||
|
|  PM          PM----|       PM                      PM-------|
|  E   Q       T T T E   E   E     E    T     E    T T T T  E   E   E  E  Q
|-----------------------------------------|-------------------------------------||
|-----------------------------------------|------------------------------------o||
|-----------------------------------------|-------------------------------------||
|-----------------------------------------|-------------------------------------||
|--0-----------0-0-0-0-------0------------|----------0-0-0--0---0---3--0--3----o||
|--0-----------0-0-0-0-------0------------|----------0-0-0--0---0---2--0--2-----||


  Gtrs IV, V
  PM   PM----|   PM          PM--------|
  E Q  T T T E E E E T   T E T T T E E E E Q
|----------------------|----------------------|
|----------------------|----------------------|
|----------------------|----------------------|
|----------------------|----------------------|
|-3----3-3-3-3---3-----|-----3-3-3-3-3-3-0-5--|
|-3----3-3-3-3---3-----|-----3-3-3-3-3-3-0-5--|


  PM   PM----|   PM          PM------|
  E Q  T T T E E E E T   E T T T T E E E E Q
|----------------------|----------------------|
|----------------------|----------------------|
|----------------------|----------------------|
|----------------------|----------------------|
|-0----0-0-0-0---0-----|-----0-0-0-0-0-3-0-3--|
|-0----0-0-0-0---0-----|-----0-0-0-0-0-2-0-2--|


  Gtr V
  PM   PM----|   PM          PM------|
  E Q  T T T E E E E T   T E T T T E E  E   E   E   E
|----------------------|-------------------------------|
|----------------------|-------------------------------|
|----------------------|-------------------------------|
|----------------------|-------------------------------|
|-3----3-3-3-3---3-----|-----3-3-3-3-3-<5>-<5>-----<5>-|
|-3----3-3-3-3---3-----|-----3-3-3-3-3-<5>-<5>-----<5>-|
|
| Gtr IV
| PM   PM----|   PM          PM------|
| E Q  T T T E E E E T   T E T T T E E  E   E   E   E
|----------------------|-----------------------<7>-----|
|----------------------|-------------------------------|
|----------------------|-------------------------------|
|----------------------|-------------------------------|
|-3----3-3-3-3---3-----|-----3-3-3-3-3-<5>-<5>-----<5>-|
|-3----3-3-3-3---3-----|-----3-3-3-3-3-<5>-<5>-----<5>-|


  Gtrs II, III
   E  E  E  E  E  E  E  E    E  E  E  E  E  E  E  E
|-------------------------|-------------------------|
|-------------------------|-------------------------|
|--2--2--2--3--3--3--3----|-------------------------|
|--2--2--2--3--3--3--3--3-|--3--3--3--3--3--3--3--3-|
|--0--0--0--1--1--1--1--3-|--3--3--3--3--3--3--3--3-|
|-----------------------3-|--3--3--3--3--3--3--3--3-|
|
| Gtr IV
|  E  E  E  E  E  E  E  E    E  E  E  E  E  E  E  E
|-------------------------|-------------------------|
|-------------------------|-------------------------|
|-14-14-14-15-15-15-15----|-------17----------17----|
|----------------------15-|-15-15----15-15-15----15-|
|-------------------------|-------------------------|
|-------------------------|-------------------------|


   E  E  E  E  E  E  E  E    E  E  E  E  E  E  E  E
|-------------------------|-------------------------|
|-------------------------|-------------------------|
|--2--2--2--3--3--3--3----|-------------------------|
|--2--2--2--3--3--3--3--3-|--3--3--3--3--3--3--3--3-|
|--0--0--0--1--1--1--1--3-|--3--3--3--3--3--3--3--3-|
|-----------------------3-|--3--3--3--3--3--3--3--3-|
|
|  E  E  E  E  E  E  E  E    E  E  E  E  E  E  E  E
|-------------------------|-------------------------|
|-------------------------|-------------------------|
|-14-14-14-15-15-15-15----|-------17----------17----|
|----------------------15-|-15-15----15-15-15----15-|
|-------------------------|-------------------------|
|-------------------------|-------------------------|


  Gtr II
   E  E  E  E  E  E  E  E    E  E  E  E  E  E  E  E
|-------------------------|-------------------------|
|-------------------------|-------------------------|
|-----------3--3--3--3----|-------------------------|
|--0--0--0--3--3--3--3--3-|--3--3--3--3--3--3--3--3-|
|--0--0--0--1--1--1--1--3-|--3--3--3--3--3--3--3--3-|
|--0--0--0--------------3-|--3--3--3--3--3--3--3--3-|
|
| Gtr III
|  E  E  E  E  E  E  E  E    E  E  E  E  E  E  E  E
|-------------------------|-------------------------|
|-------------------------|-------------------------|
|-10-10-10-12-12-10-10-14-|-14-10-10-12-12-10-10-10-|
|--x--x--x--x--x--x--x--x-|--x--x--x--x--x--x--x--x-|
|--8--8--8-10-10--8--8-12-|-12--8--8-10-10--8--8--8-|
|-------------------------|-------------------------|


  Gtr II
  E E E E E E E E    E  E  E  E  E  E  E  E
|-----------------|-------------------------|
|-----------------|-------------------------|
|-----------------|-------------------------|
|-5-5-5-5-5-5-5-5-|--0--0--0--0--0--0--0--0-|
|-5-5-5-5-5-5-5-5-|--0--0--0--0--0--0--0--0-|
|-5-5-5-5-5-5-5-5-|--0--0--0--0--0--0--0--0-|
|
| Gtr III
| E E E E E E E E    E  E  E  E  E  E  E  E
|-----------------|-------------------------|
|-----------------|-------------------------|
|-7-7-7-7-7-7-7-7-|-10-10-10-10-10-10-10-10-|
|-x-x-x-x-x-x-x-x-|--x--x--x--x--x--x--x--x-|
|-5-5-5-5-5-5-5-5-|--8--8--8--8--8--8--8--8-|
|-----------------|-------------------------|


  E E E E E E E E     E  E  E  E  E  E  E  E
|-----------------|--------------------------|
|-----------------|--------------------------|
|-----------------|--------------------------|
|-2-2-2-2-2-2-2-2-|---5--5--5--5--5--5--5--5-|
|-3-3-3-3-3-3-3-3-|---5--5--5--5--5--5--5--5-|
|-2-2-2-2-2-2-2-2-|---5--5--5--5--5--5--5--5-|
|
| E E E E E E E E     E  E  E  E  E  E  E  E
|-----------------|--------------------------|
|-----------------|--------------------------|
|-9-9-9-9-9-9-9-9-|-/12-12-12-12-12-12-12-12-|
|-x-x-x-x-x-x-x-x-|---x--x--x--x--x--x--x--x-|
|-7-7-7-7-7-7-7-7-|-/10-10-10-10-10-10-10-10-|
|-----------------|--------------------------|


   E  E  E  E  E  E  E  E    E  E  E  E  E E E E
|-------------------------|----------------------|
|-------------------------|----------------------|
|-------------------------|----------------------|
|--8--8--8--8--8--8--8--8-|--0--0--0--0--0-0-0-0-|
|--8--8--8--8--8--8--8--8-|--0--0--0--0--0-0-0-0-|
|--8--8--8--8--8--8--8--8-|--0--0--0--0--0-0-0-0-|
|
|  E  E  E  E  E  E  E  E    E  E  E  E  E E E E
|-------------------------|----------------------|
|-------------------------|----------------------|
|-15-15-15-15-15-15-15-15-|-10-10-10-10-10-9-9-9-|
|--x--x--x--x--x--x--x--x-|--x--x--x--x--x-x-x-x-|
|-13-13-13-13-13-13-13-13-|--8--8--8--8--8-7-7-7-|
|-------------------------|----------------------|


   E  E  E  E  E  E  E  E    E  E  E  E  E  E  E  E
|-------------------------|-------------------------|
|-------------------------|-------------------------|
|-------------------------|-------------------------|
|--8--8--8--8--8--8--8--8-|--3--3--3--3--3--3--3--3-|
|--8--8--8--8--8--8--8--8-|--3--3--3--3--3--3--3--3-|
|--8--8--8--8--8--8--8--8-|--3--3--3--3--3--3--3--3-|
|
|  E  E  E  E  E  E  E  E    E  E  E  E  E  E  E  E
|-------------------------|-------------------------|
|-------------------------|-------------------------|
|-15-15-15-15-15-15-15-15-|-17-14-14-12-12-10-10-10-|
|--x--x--x--x--x--x--x--x-|--x--x--x--x--x--x--x--x-|
|-13-13-13-13-13-13-13-13-|-15-12-12-10-10--8--8--8-|
|-------------------------|-------------------------|


                            Gtr IV
   E  E  E  E  E  E  E  E    E   E   E   E   E   E    Q
|-------------------------|-------------------------------|
|-------------------------|-------------------------------|
|-------------------------|-------------------------------|
|--8--8--8--8--8--8--8--8-|-<5>-<5>-----<5>-<5>-<5>-------|
|--8--8--8--8--8--8--8--8-|-<5>-<5>-----<5>-<5>-<5>-------|
|--8--8--8--8--8--8--8--8-|-<5>-<5>-----<5>-<5>-<5>-------|
|
|                           Gtr V
|  E  E  E  E  E  E  E  E    E   E   E   E   E   E    Q
|-------------------------|---------<7>-------------<12>--|
|-------------------------|-------------------------------|
|-15-15-15-15-15-15-15-15-|-------------------------------|
|--x--x--x--x--x--x--x--x-|-------------------------------|
|-13-13-13-13-13-13-13-13-|-<5>-<5>-----<5>-<5>-<5>-------|
|-------------------------|-<5>-<5>-----<5>-<5>-<5>-------|


  Gtr II
   E  E  E  E  E  E  E  E    E  E  E  E  E  E  E  E
|-------------------------|-----------------------------|
|-------------------------|-----------------------------|
|-------------------------|-----------------------------|
|--8--8--8--8--8--8--8--8-|--8--8--8--8--8--8--8--------|
|--8--8--8--8--8--8--8--8-|--8--8--8--8--8--8--8--------|
|--8--8--8--8--8--8--8--8-|--8--8--8--8--8--8--8--------|
|
| Gtr III
|  E  E  E  E  E  E  E  E    E  E  E  E  E  E  E  E
|-------------------------|----------------------11pb13-|
|-------------------------|-----------------------------|
|-15-15-15-15-15-15-15-15-|-15-15-15-15-15-15-15--------|
|--x--x--x--x--x--x--x--x-|--x--x--x--x--x--x--x--------|
|-13-13-13-13-13-13-13-13-|-13-13-13-13-13-13-13--------|
|-------------------------|-----------------------------|


    E      E E E Q  Q    E E Q  Q  Q    E E E E Q  Q    E E Q  Q  Q
|----------------------|--------------|---------------|--------------|
|----------------------|--------------|---------------|--------------|
|----------------------|--------------|---------------|--------------|
|----------------------|---3-3--3--3--|---------------|---3-3--3--3--|
|----------0-0-1-1--1--|--------------|---0-0-1-1--1--|--------------|
|----------------------|--------------|---------------|--------------|
|
|  +W                    W              W               W
|-(11)pb13-------------|--------------|---------------|--------------|
|----------------------|--------------|---------------|--------------|
|----------------------|--------------|---------------|--------------|
|----------------------|--------------|---------------|--------------|
|----------------------|--------------|---------------|--------------|
|----------------------|--------------|---------------|--------------|


  Gtrs II, III
                                                   PM----|
  E E E E Q  Q    E E Q  Q  Q    E E E E Q  Q    E E E E E Q.
|---------------|--------------|---------------|----------------|
|---------------|--------------|---------------|----------------|
|---------------|--------------|---------------|----------------|
|---------------|---3-3--3--3--|---------------|----------------|
|---0-0-1-1--1--|--------------|---0-0-1-1--1--|---3-3---3------|
|---------------|--------------|---------------|---3-3---3------|


  Gtr II
   E  E  E  E  E  E  E  E    E  E  E  E  E  E  E  E
|-------------------------|-------------------------|
|-------------------------|-------------------------|
|--2--2--2--3--3--3--3----|-------------------------|
|--2--2--2--3--3--3--3--3-|--3--3--3--3--3--3--3--3-|
|--0--0--0--1--1--1--1--3-|--3--3--3--3--3--3--3--3-|
|-----------------------3-|--3--3--3--3--3--3--3--3-|
|
| Gtr III
|  E  E  E  E  E  E  E  E    E  E  E  E  E  E  E  E
|-------------------------|-------------------------|
|-------------------------|-------------------------|
|-14-14-14-15-15-15-15----|-------17----------17----|
|----------------------15-|-15-15----15-15-15----15-|
|-------------------------|-------------------------|
|-------------------------|-------------------------|


   E  E  E  E  E  E  E  E    E  E  E  E  E  E  E  E
|-------------------------|-------------------------|
|-------------------------|-------------------------|
|--2--2--2--3--3--3--3----|-------------------------|
|--2--2--2--3--3--3--3--3-|--3--3--3--3--3--3--3--3-|
|--0--0--0--1--1--1--1--3-|--3--3--3--3--3--3--3--3-|
|-----------------------3-|--3--3--3--3--3--3--3--3-|
|
|  E  E  E  E  E  E  E  E    E  E  E  E  E  E  E  E
|-------------------------|-------------------------|
|-------------------------|-------------------------|
|-14-14-14-15-15-15-15----|-------17----------17----|
|----------------------15-|-15-15----15-15-15----15-|
|-------------------------|-------------------------|
|-------------------------|-------------------------|


   E  E  E  E  E  E  E  E    E  E  E  E  E  E  E  E
|-------------------------|-------------------------|
|-------------------------|-------------------------|
|-----------3--3--3--3----|-------------------------|
|--0--0--0--3--3--3--3--3-|--3--3--3--3--3--3--3--3-|
|--0--0--0--1--1--1--1--3-|--3--3--3--3--3--3--3--3-|
|--0--0--0--------------3-|--3--3--3--3--3--3--3--3-|
|
|  E  E  E  E  E  E  E  E    E  E  E  E  E  E  E  E
|-------------------------|-------------------------|
|-------------------------|-------------------------|
|-10-10-10-12-12-10-10-14-|-14-10-10-12-12-10-10-10-|
|--x--x--x--x--x--x--x--x-|--x--x--x--x--x--x--x--x-|
|--8--8--8-10-10--8--8-12-|-12--8--8-10-10--8--8--8-|
|-------------------------|-------------------------|


  E E E E E E E E    E  E  E  E  E  E  E  E
|-----------------|-------------------------|
|-----------------|-------------------------|
|-----------------|-------------------------|
|-5-5-5-5-5-5-5-5-|--0--0--0--0--0--0--0--0-|
|-5-5-5-5-5-5-5-5-|--0--0--0--0--0--0--0--0-|
|-5-5-5-5-5-5-5-5-|--0--0--0--0--0--0--0--0-|
|
| E E E E E E E E    E  E  E  E  E  E  E  E
|-----------------|-------------------------|
|-----------------|-------------------------|
|-7-7-7-7-7-7-7-7-|-10-10-10-10-10-10-10-10-|
|-x-x-x-x-x-x-x-x-|--x--x--x--x--x--x--x--x-|
|-5-5-5-5-5-5-5-5-|--8--8--8--8--8--8--8--8-|
|-----------------|-------------------------|


  Gtrs II, III
  PM-------------------------------------
  E Q  S S E E E E   E S S E Q  S S E E
|------------------|--------------------|
|------------------|--------------------|
|------------------|--------------------|
|------------------|--------------------|
|-7----8-8-8---3---|---3-3-3----3-3-3---|
|-7----8-8-8---3---|---3-3-3----3-3-3---|


 --------------------------|
  E Q  S S E E E E   E S S E E Q    Q
|------------------|---------------------|
|------------------|---------------------|
|------------------|---------------------|
|------------------|---------------------|
|-7----8-8-8---3---|---3-3-3---8\--/8\---|
|-7----8-8-8---3---|---3-3-3---8\---8\---|


  Gtr II
   Q.    E  Q   Q     +W           E E E E E E E E    E  E  E  E  E  E  E  E
|------------------|-------------|-----------------|-------------------------|
|------------------|-------------|-----------------|-------------------------|
|------------------|-------------|-----------------|-------------------------|
|--0-----8--8---3--|--(3)--------|-5-5-5-5-5-5-5-5-|--0--0--0--0--0--0--0--0-|
|--0-----8--8---3--|--(3)--------|-5-5-5-5-5-5-5-5-|--0--0--0--0--0--0--0--0-|
|--0-----8--8---3--|--(3)--------|-5-5-5-5-5-5-5-5-|--0--0--0--0--0--0--0--0-|
|
| Gtr III
|  Q.    E  Q   Q     +W           E E E E E E E E    E  E  E  E  E  E  E  E
|------------------|-------------|-----------------|-------------------------|
|------------------|-------------|-----------------|-------------------------|
|-10----12-12--10--|-(10)--------|-7-7-7-7-7-7-7-7-|-10-10-10-10-10-10-10-10-|
|--x-----x--x---x--|--(x)--------|-x-x-x-x-x-x-x-x-|--x--x--x--x--x--x--x--x-|
|--8----10-10---8--|--(8)--------|-5-5-5-5-5-5-5-5-|--8--8--8--8--8--8--8--8-|
|------------------|-------------|-----------------|-------------------------|


  E E E E E E E E    E  E  E  E  E  E  E  E   E E E E E E E E     W
|-----------------|-------------------------|-----------------|--------|
|-----------------|-------------------------|-----------------|--------|
|-----------------|-------------------------|-----------------|--------|
|-5-5-5-5-5-5-5-5-|--0--0--0--0--0--0--0--0-|-2-2-2-2-2-2-2-2-|---5----|
|-5-5-5-5-5-5-5-5-|--0--0--0--0--0--0--0--0-|-3-3-3-3-3-3-3-3-|---5----|
|-5-5-5-5-5-5-5-5-|--0--0--0--0--0--0--0--0-|-2-2-2-2-2-2-2-2-|---5----|
|
| E E E E E E E E    E  E  E  E  E  E  E  E   E E E E E E E E     W
|-----------------|-------------------------|-----------------|--------|
|-----------------|-------------------------|-----------------|--------|
|-7-7-7-7-7-7-9-9-|-10-10-10-10-10-10-10-10-|-9-9-9-9-9-9-9-9-|-/12----|
|-x-x-x-x-x-x-x-x-|--x--x--x--x--x--x--x--x-|-x-x-x-x-x-x-x-x-|---x----|
|-5-5-5-5-5-5-7-7-|--8--8--8--8--8--8--8--8-|-7-7-7-7-7-7-7-7-|-/10----|
|-----------------|-------------------------|-----------------|--------|


                 >
   +W            W                 +W
|-------------|------------------|-------------------|
|-------------|------------------|-------------------|
|-------------|------------------|-------------------|
|--(5)--------|-/3---------------|-(3)---------------|
|--(5)--------|-/3---------------|-(3)---------------|
|--(5)--------|-/3---------------|-(3)---------------|
|
|               Gtr I
|                <
|  +W            E E E E E E E E    E  E E E E E E E
|-------------|------------------|-------------------|
|-------------|------------------|-------------------|
|-(12)--------|------------------|-------------------|
|--(x)--------|------------------|-------------------|
|-(10)--------|--0-0-0-0-0-0-0-0-|--0--0-0-0-0-0-0-0-|
|-------------|--3-3-3-3-3-3-3-3-|--3--3-3-3-3-3-3-3-|


  Gtr I
  E E E E E E E E   E E E E E E E E   W
|-----------------|-----------------|------*|
|-----------------|-----------------|------*|
|-----------------|-----------------|------*|
|-----------------|-----------------|------*|
|-0-0-0-0-0-0-0-0-|-0-0-0-0-0-0-0-0-|-0----*|
|-3-3-3-3-3-3-3-3-|-3-3-3-3-3-3-3-3-|-3----*|




--------------------------------------------------------------------------------


Duration Legend
---------------
W - whole; H - half; Q - quarter; E - 8th; S - 16th; T - 32nd; X - 64th; a - acciaccatura
+ - note tied to previous; . - note dotted; .. - note double dotted
Uncapitalized letters represent notes that are staccato (1/2 duration)
Irregular groupings are notated above the duration line
Duration letters will always appear directly above the note/fret number it represents the
duration for.  Duration letters with no fret number below them represent rests.  Multi-
bar rests are notated in the form Wxn, where n is the number of bars to rest for.  Low
melody durations appear below the staff

Tablature Legend
----------------
 h   - hammer-on
 p   - pull-off
 b   - bend
 pb  - pre-bend
 r   - bend release (if no number after the r, then release immediately)
 /\  - slide into or out of (from/to "nowhere")
 s   - legato slide
 S   - shift slide
 - natural harmonic
[n]  - artificial harmonic
n(n) - tapped harmonic
 ~   - vibrato
 tr  - trill
 T   - tap
 TP  - trem. picking
 PM  - palm muting
\n/  - tremolo bar dip; n = amount to dip
 \n  - tremolo bar down
 n/  - tremolo bar up
/n\  - tremolo bar inverted dip
 =   - hold bend; also acts as connecting device for hammers/pulls
 <> - volume swell (louder/softer)
 x   - on rhythm slash represents muted slash
 o   - on rhythm slash represents single note slash

Misc Legend
-----------
 |  - bar
||  - double bar
||o - repeat start
o|| - repeat end
*|  - double bar (ending)
 :  - bar (freetime)
 $  - Segno
 &  - Coda
Tempo markers -  = BPM(8/16=s8/s16), where s8 = swing 8ths, s16 = swing 16ths



--------------------------------------------------------------------------------

** Generated using Power Tab Editor by Brad Larsen: The Official Power Tab Web Site
comments
print report bad tab
18 comments total. Showing first comments.
+4 reply
whitebluesboy wrote on May 26 2008, 01:33 pm

could you divide it up into an intro, verse, chorus, etc. section?

0 reply
Last_In_Line44 wrote on May 27 2008, 08:45 am

Good tab

+4 reply
DieGarbageMan wrote on July 5 2008, 12:00 pm

Great Tab, Poorly Organized.

I want to post or [tab]
guest
You may want to rate the tab now too:
select rating
Please do not post tabs as comments. Select "correction" instead!