Oops, an error
Loading. Please wait.

Speak Of The Devil Tab

ver2
ver2

Whole song

Interactive

More versions @911Tabs.com
8,454 views 1 this week
3 commentsread comments
1 2 3 4 5
accurate
x 1
Autoscroll
+/-
esc
set tempo
stop
Contributor
NEW! There's an official Ultimate Guitar app which is ideal
for learning songs when you're away from computer. Get the app
WARNING: You are trying to view
                                    content from Ultimate-Guitar.com
                                    in an unauthorized application,
                                    which is prohibited.

                                    Please use an official Ultimate
                                    Guitar Tabs application for iPhone,
                                    iPad or Android to access legitimate
                                    chords, guitar, bass, and drum tabs
                                    from Ultimate-Guitar.com database.

                                    Type "ultimate guitar tabs" in Apple
                                    App Store's or Android Market's
                                    search to find the application.
**plain text tab generated with powertab***






Transcribed by Sam Suplee (myspace.com/ludwig104)

 

 

Gtr I (C G C F A D) - 'Untitled'
Gtr II (C G C F A D) - 'Untitled'
Gtr III (C G C F A D) - 'Untitled'
Gtr IV (C G C F A D) - 'Untitled'


 Intro
  Q=180
 2/4
  Gtr I
  Q  Q    E E E E   E E E E   +E  E E E
|-------|---------|---------|-----------|
|-------|---------|---------|-----------|
|-------|---------|---------|-----------|
|----3--|-3-3-3-3-|-3-3-3-2-|-(2)-2-2---|
|-0--5--|-5-5-5-5-|-5-5-5-3-|-(3)-3-3-0-|
|-0-----|---------|---------|---------0-|
|
| Gtr II
| H       H         H          H
|-------|---------|---------|-----------|
|-------|---------|---------|-----------|
|-------|---------|---------|-----------|
|-------|---------|---------|-----------|
|-------|---------|---------|-----------|
|-------|---------|---------|-----------|


  +Q   Q    E E E E   E E E E   +E  E E E
|---------|---------|---------|-----------|
|---------|---------|---------|-----------|
|---------|---------|---------|-----------|
|------3--|-3-3-3-3-|-3-3-3-2-|-(2)-2-2---|
|-(0)--5--|-5-5-5-5-|-5-5-5-3-|-(3)-3-3-0-|
|-(0)-----|---------|---------|---------0-|
|
|  H        H         H          Q.     E
|---------|---------|---------|-----------|
|---------|---------|---------|-----------|
|---------|---------|---------|-----------|
|---------|---------|---------|---------0-|
|---------|---------|---------|---------0-|
|---------|---------|---------|---------0-|


                                            Gtr III
  +Q   Q     E  E E E    E  E E E   +E  E E E
|---------|-----------|-----------|-----------|
|---------|-----------|-----------|-----------|
|---------|-----------|-----------|---------3-|
|------3--|--3--3-3-3-|--3--3-3-2-|-(2)-2-2-3-|
|-(0)--5--|--5--5-5-5-|--5--5-5-3-|-(3)-3-3-1-|
|-(0)-----|-----------|-----------|-----------|
|
| Gtr II
| +H        +H          +H          +Q.     E
|---------|-----------|-----------|-----------|
|---------|-----------|-----------|-----------|
|---------|-----------|-----------|---------3-|
|-(0)-----|-(0)-------|-(0)-------|-(0)-----3-|
|-(0)-----|-(0)-------|-(0)-------|-(0)-----1-|
|-(0)-----|-(0)-------|-(0)-------|-(0)-------|


      Gtr III
                                      PM
  +E  E E E   +E  E E E   +E  E E E   Q.   E
|-------x---|-------x---|-----------|--------|
|-------x---|-------x---|-----------|--------|
|-(3)-3-x-3-|-(3)-3-x-2-|-(2)-2-2-2-|--------|
|-(3)-3-x-3-|-(3)-3-x-2-|-(2)-2-2-2-|--------|
|-(1)-1-x-1-|-(1)-1-x-0-|-(0)-0-0-0-|-3----0-|
|-------x---|-------x---|-----------|-3----0-|
|
|                                     PM
| +E  E E E   +E  E E E   +E  E E E   Q.   E
|-------x---|-------x---|-----------|--------|
|-------x---|-------x---|-----------|--------|
|-(3)-3-x-3-|-(3)-3-x-2-|-(2)-2-2-2-|--------|
|-(3)-3-x-3-|-(3)-3-x-2-|-(2)-2-2-2-|--------|
|-(1)-1-x-1-|-(1)-1-x-0-|-(0)-0-0-0-|-3----0-|
|-------x---|-------x---|-----------|-3----0-|


  +Q   Q    E E E E   E E E E   +E  E E E
|---------|---------|---------|-----------|
|---------|---------|---------|-----------|
|---------|---------|---------|-----------|
|------3--|-3-3-3-3-|-3-3-3-2-|-(2)-2-2---|
|-(0)--5--|-5-5-5-5-|-5-5-5-3-|-(3)-3-3-0-|
|-(0)-----|---------|---------|---------0-|
|
| +Q   Q    E E E E   E E E E   +E  E E E
|---------|---------|---------|-----------|
|---------|---------|---------|-----------|
|---------|---------|---------|-----------|
|------3--|-3-3-3-3-|-3-3-3-2-|-(2)-2-2---|
|-(0)--5--|-5-5-5-5-|-5-5-5-3-|-(3)-3-3-0-|
|-(0)-----|---------|---------|---------0-|


  +Q   Q    E E E E   E E E E   +E  E E E
|---------|---------|---------|-----------|
|---------|---------|---------|-----------|
|---------|---------|---------|-----------|
|------3--|-3-3-3-3-|-3-3-3-2-|-(2)-2-2---|
|-(0)--5--|-5-5-5-5-|-5-5-5-3-|-(3)-3-3-0-|
|-(0)-----|---------|---------|---------0-|
|
| +Q   Q    E E E E   E E E E   +E  E E E
|---------|---------|---------|-----------|
|---------|---------|---------|-----------|
|---------|---------|---------|-----------|
|------3--|-3-3-3-3-|-3-3-3-2-|-(2)-2-2---|
|-(0)--5--|-5-5-5-5-|-5-5-5-3-|-(3)-3-3-0-|
|-(0)-----|---------|---------|---------0-|


  +Q   Q    E E E E   E E E E   +E  E E E
|---------|---------|---------|-----------|
|---------|---------|---------|-----------|
|---------|---------|---------|---------3-|
|------3--|-3-3-3-3-|-3-3-3-2-|-(2)-2-2-3-|
|-(0)--5--|-5-5-5-5-|-5-5-5-3-|-(3)-3-3-1-|
|-(0)-----|---------|---------|-----------|
|
| +Q   Q    E E E E   E E E E   +E  E E E
|---------|---------|---------|-----------|
|---------|---------|---------|-----------|
|---------|---------|---------|---------3-|
|------3--|-3-3-3-3-|-3-3-3-2-|-(2)-2-2-3-|
|-(0)--5--|-5-5-5-5-|-5-5-5-3-|-(3)-3-3-1-|
|-(0)-----|---------|---------|-----------|


                                  PM
  +E  E E E   +E  E E E   +E  E E E   E E E E
|-------x---|-------x---|-----------|---------|
|-------x---|-------x---|-----------|---------|
|-(3)-3-x-3-|-(3)-3-x-2-|-(2)-2-2---|---------|
|-(3)-3-x-3-|-(3)-3-x-2-|-(2)-2-2---|---------|
|-(1)-1-x-1-|-(1)-1-x-0-|-(0)-0-0-0-|-3-3-3-0-|
|-------x---|-------x---|---------0-|-3-3-3-0-|
|
|                                 PM
| +E  E E E   +E  E E E   +E  E E E   E E E E
|-------x---|-------x---|-----------|---------|
|-------x---|-------x---|-----------|---------|
|-(3)-3-x-3-|-(3)-3-x-2-|-(2)-2-2---|---------|
|-(3)-3-x-3-|-(3)-3-x-2-|-(2)-2-2---|---------|
|-(1)-1-x-1-|-(1)-1-x-0-|-(0)-0-0-0-|-3-3-3-0-|
|-------x---|-------x---|---------0-|-3-3-3-0-|


 Verse
   PM--------------------------------------
  +E  E E E   E E E E   E E E E   E E E E
|-----------|---------|---------|---------|
|-----------|---------|---------|---------|
|-----------|---------|---------|---------|
|-----------|---------|---------|---------|
|-(0)-0-0-0-|-0-0-0-0-|-0-0-0-0-|-0-0-0-0-|
|-(0)-0-0-0-|-0-0-0-0-|-0-0-0-0-|-0-0-0-0-|
|
|  PM--------------------------------------
| +E  E E E   E E E E   E E E E   E E E E
|-----------|---------|---------|---------|
|-----------|---------|---------|---------|
|-----------|---------|---------|---------|
|-----------|---------|---------|---------|
|-(0)-0-0-0-|-0-0-0-0-|-0-0-0-0-|-0-0-0-0-|
|-(0)-0-0-0-|-0-0-0-0-|-0-0-0-0-|-0-0-0-0-|


 -----------------|
  E E E E   E E E E   E E E E   E E E E
|---------|---------|---------|----------|
|---------|---------|---------|----------|
|---------|---------|---------|----------|
|---------|---------|---------|----------|
|-0-0-0-0-|-0-0-0-0-|-0-3---6-|---5---0--|
|-0-0-0-0-|-0-0-0-0-|-0-3---6-|---5---0--|
|
|-----------------|
| E E E E   E E E E   E E E E   E E E E
|---------|---------|---------|----------|
|---------|---------|---------|----------|
|---------|---------|---------|----------|
|---------|---------|---------|----------|
|-0-0-0-0-|-0-0-0-0-|-0-3---6-|---5---0--|
|-0-0-0-0-|-0-0-0-0-|-0-3---6-|---5---0--|


   PM---------------------------------|
  +E  E E E   E E E E   E E E E   E E E E
|-----------|---------|---------|---------|
|-----------|---------|---------|---------|
|-----------|---------|---------|-------3-|
|-----------|---------|---------|-------3-|
|-(0)-0-0-0-|-0-0-0-0-|-0-0-0-0-|-0-0-0-1-|
|-(0)-0-0-0-|-0-0-0-0-|-0-0-0-0-|-0-0-0---|
|
|  PM---------------------------------|
| +E  E E E   E E E E   E E E E   E E E E
|-----------|---------|---------|---------|
|-----------|---------|---------|---------|
|-----------|---------|---------|-------3-|
|-----------|---------|---------|-------3-|
|-(0)-0-0-0-|-0-0-0-0-|-0-0-0-0-|-0-0-0-1-|
|-(0)-0-0-0-|-0-0-0-0-|-0-0-0-0-|-0-0-0---|


  +E  E E E   +E  E E E   +E  E E E   +E  E E E
|-----------|-----------|-----------|-----------|
|-----------|-----------|-----------|-----------|
|-(3)-3---3-|-(3)-3---5-|-(5)-5---2-|-(2)-2-----|
|-(3)-3---3-|-(3)-3---5-|-(5)-5---2-|-(2)-2-----|
|-(1)-1---1-|-(1)-1---3-|-(3)-3---0-|-(0)-0---0-|
|-------0---|-------0---|-------0---|-------0-0-|
|
| +E  E E E   +E  E E E   +E  E E E   +E  E E E
|-----------|-----------|-----------|-----------|
|-----------|-----------|-----------|-----------|
|-(3)-3---3-|-(3)-3---5-|-(5)-5---2-|-(2)-2-----|
|-(3)-3---3-|-(3)-3---5-|-(5)-5---2-|-(2)-2-----|
|-(1)-1---1-|-(1)-1---3-|-(3)-3---0-|-(0)-0---0-|
|-------0---|-------0---|-------0---|-------0-0-|


   PM--------------------------------------
  +E  E E E   E E E E   E E E E   E E E E
|-----------|---------|---------|---------|
|-----------|---------|---------|---------|
|-----------|---------|---------|---------|
|-----------|---------|---------|---------|
|-(0)-0-0-0-|-0-0-0-0-|-0-0-0-0-|-0-0-0-0-|
|-(0)-0-0-0-|-0-0-0-0-|-0-0-0-0-|-0-0-0-0-|
|
|  PM--------------------------------------
| +E  E E E   E E E E   E E E E   E E E E
|-----------|---------|---------|---------|
|-----------|---------|---------|---------|
|-----------|---------|---------|---------|
|-----------|---------|---------|---------|
|-(0)-0-0-0-|-0-0-0-0-|-0-0-0-0-|-0-0-0-0-|
|-(0)-0-0-0-|-0-0-0-0-|-0-0-0-0-|-0-0-0-0-|


 -----------------|
  E E E E   E E E E   E E E E   E E E E
|---------|---------|---------|----------|
|---------|---------|---------|----------|
|---------|---------|---------|----------|
|---------|---------|---------|----------|
|-0-0-0-0-|-0-0-0-0-|-0-3---6-|---5---0--|
|-0-0-0-0-|-0-0-0-0-|-0-3---6-|---5---0--|
|
|-----------------|
| E E E E   E E E E   E E E E   E E E E
|---------|---------|---------|----------|
|---------|---------|---------|----------|
|---------|---------|---------|----------|
|---------|---------|---------|----------|
|-0-0-0-0-|-0-0-0-0-|-0-3---6-|---5---0--|
|-0-0-0-0-|-0-0-0-0-|-0-3---6-|---5---0--|


   PM---------------------------------|
  +E  E E E   E E E E   E E E E   E E E E
|-----------|---------|---------|---------|
|-----------|---------|---------|---------|
|-----------|---------|---------|-------3-|
|-----------|---------|---------|-------3-|
|-(0)-0-0-0-|-0-0-0-0-|-0-0-0-0-|-0-0-0-1-|
|-(0)-0-0-0-|-0-0-0-0-|-0-0-0-0-|-0-0-0---|
|
|  PM---------------------------------|
| +E  E E E   E E E E   E E E E   E E E E
|-----------|---------|---------|---------|
|-----------|---------|---------|---------|
|-----------|---------|---------|-------3-|
|-----------|---------|---------|-------3-|
|-(0)-0-0-0-|-0-0-0-0-|-0-0-0-0-|-0-0-0-1-|
|-(0)-0-0-0-|-0-0-0-0-|-0-0-0-0-|-0-0-0---|


  +E  E E E   +E  E E E   +E  E E E   +E  E E  E
|-----------|-----------|-----------|------------|
|-----------|-----------|-----------|------------|
|-(3)-3---3-|-(3)-3---5-|-(5)-5---2-|-(2)-2----3-|
|-(3)-3---3-|-(3)-3---5-|-(5)-5---2-|-(2)-2----3-|
|-(1)-1---1-|-(1)-1---3-|-(3)-3---0-|-(0)-0----1-|
|-------0---|-------0---|-------0---|-------0----|
|
| +E  E E E   +E  E E E   +E  E E E   +E  E E  E
|-----------|-----------|-----------|------------|
|-----------|-----------|-----------|------------|
|-(3)-3---3-|-(3)-3---5-|-(5)-5---2-|-(2)-2----3-|
|-(3)-3---3-|-(3)-3---5-|-(5)-5---2-|-(2)-2----3-|
|-(1)-1---1-|-(1)-1---3-|-(3)-3---0-|-(0)-0----1-|
|-------0---|-------0---|-------0---|-------0----|
|
| Gtr IV
|  H           H           H           Q.      E
|-----------|-----------|-----------|------------|
|-----------|-----------|-----------|------------|
|-----------|-----------|-----------|---------10-|
|-----------|-----------|-----------|------------|
|-----------|-----------|-----------|----------8-|
|-----------|-----------|-----------|------------|


   H        +H        +H       +Q.   E   +H       +H       +H       +Q.   E
|--------|---------|---------|---------|--------|--------|--------|----------|
|--------|---------|---------|---------|--------|--------|--------|----------|
|--3-----|--(3)----|--(3)----|-(3)---5-|-(5)----|-(5)----|-(5)----|-(5)---7--|
|-(3)----|--(3)----|--(3)----|-(3)---5-|-(5)----|-(5)----|-(5)----|-(5)---7--|
|--1-----|--(1)----|--(1)----|-(1)---3-|-(3)----|-(3)----|-(3)----|-(3)---5--|
|--------|---------|---------|---------|--------|--------|--------|----------|
|
| +H        +H        +H       +Q.   E   +H       +H       +H       +Q.   E
|--------|---------|---------|---------|--------|--------|--------|----------|
|--------|---------|---------|---------|--------|--------|--------|----------|
|-(3)----|--(3)----|--(3)----|-(3)---5-|-(5)----|-(5)----|-(5)----|-(5)---7--|
|-(3)----|--(3)----|--(3)----|-(3)---5-|-(5)----|-(5)----|-(5)----|-(5)---7--|
|-(1)----|--(1)----|--(1)----|-(1)---3-|-(3)----|-(3)----|-(3)----|-(3)---5--|
|--------|---------|---------|---------|--------|--------|--------|----------|
|
| Gtr IV
|  H        +H        +H        Q.   E    H       +H        H        Q.   E
|--------|---------|---------|---------|--------|--------|--------|----------|
|--------|---------|---------|---------|--------|--------|--------|----------|
|-10-----|-(10)----|-(10)----|-14----9-|--9-----|-(9)----|--5-----|--5-------|
|--------|---------|---------|---------|--------|--------|--------|----------|
|--8-----|--(8)----|--(8)----|-12----7-|--7-----|-(7)----|--3-----|--3-------|
|--------|---------|---------|---------|--------|--------|--------|----------|


 Chorus
   E  E E E   E E E E   E E E E   E E E E
|-----------|---------|---------|---------|
|-----------|---------|---------|---------|
|-(7)-------|---------|---------|-------3-|
|-(7)-7-7-7-|-7-7-7-7-|-7-7-7-7-|-7-7-7-3-|
|--5--5-5-5-|-5-5-5-5-|-5-5-5-5-|-5-5-5-1-|
|-----------|---------|---------|---------|
|
| +E  E E E   E E E E   E E E E   E E E E
|-----------|---------|---------|---------|
|-----------|---------|---------|---------|
|-(7)-------|---------|---------|-------3-|
|-(7)-7-7-7-|-7-7-7-7-|-7-7-7-7-|-7-7-7-3-|
|-(5)-5-5-5-|-5-5-5-5-|-5-5-5-5-|-5-5-5-1-|
|-----------|---------|---------|---------|


  +E  E E E   E E E E   E E E E   E E E E
|-----------|---------|---------|------------|
|-----------|---------|---------|------------|
|-(3)-------|---------|---------|------------|
|-(3)-3-3-3-|-3-3-3-3-|-3-3-3-3-|-3-3-3-3----|
|-(1)-1-1-1-|-1-1-1-1-|-1-1-1-1-|-1-1-1-3----|
|-----------|---------|---------|-------3----|
|
| +E  E E E   E E E E   E E E E   E E E E
|-----------|---------|---------|------------|
|-----------|---------|---------|------------|
|-(3)-------|---------|---------|------------|
|-(3)-3-3-3-|-3-3-3-3-|-3-3-3-3-|-3-3-3-3----|
|-(1)-1-1-1-|-1-1-1-1-|-1-1-1-1-|-1-1-1-3----|
|-----------|---------|---------|-------3----|


  +E  E E E   E E E E   E E E E   E E E E
|-----------|---------|---------|---------|
|-----------|---------|---------|---------|
|-----------|---------|---------|-------5-|
|-(3)-3-3-3-|-3-3-3-3-|-3-3-3-3-|-3-3-3-5-|
|-(3)-3-3-3-|-3-3-3-3-|-3-3-3-3-|-3-3-3-3-|
|-(3)-3-3-3-|-3-3-3-3-|-3-3-3-3-|-3-3-3---|
|
| +E  E E E   E E E E   E E E E   E E E E
|-----------|---------|---------|---------|
|-----------|---------|---------|---------|
|-----------|---------|---------|-------5-|
|-(3)-3-3-3-|-3-3-3-3-|-3-3-3-3-|-3-3-3-5-|
|-(3)-3-3-3-|-3-3-3-3-|-3-3-3-3-|-3-3-3-3-|
|-(3)-3-3-3-|-3-3-3-3-|-3-3-3-3-|-3-3-3---|


  +E  E E E   E E E E   E E E E   E E E E
|-----------|---------|---------|------------|
|-----------|---------|---------|------------|
|-----------|---------|---------|-------7----|
|-(5)-5-5-5-|-5-5-5-5-|-5-5-5-5-|-5-5-5-7----|
|-(3)-3-3-3-|-3-3-3-3-|-3-3-3-3-|-3-3-3-5----|
|-----------|---------|---------|------------|
|
| +E  E E E   E E E E   E E E E   E E E E
|-----------|---------|---------|------------|
|-----------|---------|---------|------------|
|-----------|---------|---------|-------7----|
|-(5)-5-5-5-|-5-5-5-5-|-5-5-5-5-|-5-5-5-7----|
|-(3)-3-3-3-|-3-3-3-3-|-3-3-3-3-|-3-3-3-5----|
|-----------|---------|---------|------------|


  +E  E E E   E E E E   E E E E   E E E E
|-----------|---------|---------|---------|
|-----------|---------|---------|---------|
|-(7)-------|---------|---------|-------3-|
|-(7)-7-7-7-|-7-7-7-7-|-7-7-7-7-|-7-7-7-3-|
|-(5)-5-5-5-|-5-5-5-5-|-5-5-5-5-|-5-5-5-1-|
|-----------|---------|---------|---------|
|
| +E  E E E   E E E E   E E E E   E E E E
|-----------|---------|---------|---------|
|-----------|---------|---------|---------|
|-(7)-------|---------|---------|-------3-|
|-(7)-7-7-7-|-7-7-7-7-|-7-7-7-7-|-7-7-7-3-|
|-(5)-5-5-5-|-5-5-5-5-|-5-5-5-5-|-5-5-5-1-|
|-----------|---------|---------|---------|


  +E  E E E   E E E E   E E E E   E E E E
|-----------|---------|---------|----------|
|-----------|---------|---------|----------|
|-(3)-------|---------|---------|----------|
|-(3)-3-3-3-|-3-3-3-3-|-3-3-3-3-|-3-3-3-3--|
|-(1)-1-1-1-|-1-1-1-1-|-1-1-1-1-|-1-1-1-3--|
|-----------|---------|---------|-------3--|
|
| +E  E E E   E E E E   E E E E   E E E E
|-----------|---------|---------|----------|
|-----------|---------|---------|----------|
|-(3)-------|---------|---------|----------|
|-(3)-3-3-3-|-3-3-3-3-|-3-3-3-3-|-3-3-3-3--|
|-(1)-1-1-1-|-1-1-1-1-|-1-1-1-1-|-1-1-1-3--|
|-----------|---------|---------|-------3--|


  +E  E E E   E E E E   E E E E   E E E E
|-----------|---------|---------|---------|
|-----------|---------|---------|---------|
|-----------|---------|---------|-------5-|
|-(3)-3-3-3-|-3-3-3-3-|-3-3-3-3-|-3-3-3-5-|
|-(3)-3-3-3-|-3-3-3-3-|-3-3-3-3-|-3-3-3-3-|
|-(3)-3-3-3-|-3-3-3-3-|-3-3-3-3-|-3-3-3---|
|
| +E  E E E   E E E E   E E E E   E E E E
|-----------|---------|---------|---------|
|-----------|---------|---------|---------|
|-----------|---------|---------|-------5-|
|-(3)-3-3-3-|-3-3-3-3-|-3-3-3-3-|-3-3-3-5-|
|-(3)-3-3-3-|-3-3-3-3-|-3-3-3-3-|-3-3-3-3-|
|-(3)-3-3-3-|-3-3-3-3-|-3-3-3-3-|-3-3-3---|


  +E  E E E   E E E E   E E E E   E E E E
|-----------|---------|---------|----------|
|-----------|---------|---------|----------|
|-----------|---------|---------|----------|
|-(5)-5-5-5-|-5-5-5-5-|-5-5-5-5-|-5-5-5----|
|-(3)-3-3-3-|-3-3-3-3-|-3-3-3-3-|-3-3-3-0--|
|-----------|---------|---------|-------0--|
|
| +E  E E E   E E E E   E E E E   E E E E
|-----------|---------|---------|----------|
|-----------|---------|---------|----------|
|-----------|---------|---------|----------|
|-(5)-5-5-5-|-5-5-5-5-|-5-5-5-5-|-5-5-5----|
|-(3)-3-3-3-|-3-3-3-3-|-3-3-3-3-|-3-3-3-0--|
|-----------|---------|---------|-------0--|


 Verse
  +Q   Q     E  E E E    E  E E E   +E  E E E
|---------|-----------|-----------|-----------|
|---------|-----------|-----------|-----------|
|---------|-----------|-----------|-----------|
|------3--|--3--3-3-3-|--3--3-3-2-|-(2)-2-2---|
|-(0)--5--|--5--5-5-5-|--5--5-5-3-|-(3)-3-3-0-|
|-(0)-----|-----------|-----------|---------0-|
|
|  H        +H          +H          +Q.     E
|---------|-----------|-----------|-----------|
|---------|-----------|-----------|-----------|
|---------|-----------|-----------|-----------|
|--0------|-(0)-------|-(0)-------|-(0)-----0-|
|--0------|-(0)-------|-(0)-------|-(0)-----0-|
|--0------|-(0)-------|-(0)-------|-(0)-----0-|


  +Q   Q    E E E E   E E E E   +E  E E E
|---------|---------|---------|-----------|
|---------|---------|---------|-----------|
|---------|---------|---------|-----------|
|------3--|-3-3-3-3-|-3-3-3-2-|-(2)-2-2---|
|-(0)--5--|-5-5-5-5-|-5-5-5-3-|-(3)-3-3-0-|
|-(0)-----|---------|---------|---------0-|
|
|  H        H         H          Q.     E
|---------|---------|---------|-----------|
|---------|---------|---------|-----------|
|---------|---------|---------|-----------|
|---------|---------|---------|-----------|
|---------|---------|---------|---------0-|
|---------|---------|---------|---------0-|


   PM--------------------------------------
  +E  E E E   E E E E   E E E E   E E E E
|-----------|---------|---------|---------|
|-----------|---------|---------|---------|
|-----------|---------|---------|---------|
|-----------|---------|---------|---------|
|-(0)-0-0-0-|-0-0-0-0-|-0-0-0-0-|-0-0-0-0-|
|-(0)-0-0-0-|-0-0-0-0-|-0-0-0-0-|-0-0-0-0-|
|
|  PM--------------------------------------
| +E  E E E   E E E E   E E E E   E E E E
|-----------|---------|---------|---------|
|-----------|---------|---------|---------|
|-----------|---------|---------|---------|
|-----------|---------|---------|---------|
|-(0)-0-0-0-|-0-0-0-0-|-0-0-0-0-|-0-0-0-0-|
|-(0)-0-0-0-|-0-0-0-0-|-0-0-0-0-|-0-0-0-0-|


 -----------------|
  E E E E   E E E E   E E E E   E E E E
|---------|---------|---------|----------|
|---------|---------|---------|----------|
|---------|---------|---------|----------|
|---------|---------|---------|----------|
|-0-0-0-0-|-0-0-0-0-|-0-3---6-|---5---0--|
|-0-0-0-0-|-0-0-0-0-|-0-3---6-|---5---0--|
|
|-----------------|
| E E E E   E E E E   E E E E   E E E E
|---------|---------|---------|----------|
|---------|---------|---------|----------|
|---------|---------|---------|----------|
|---------|---------|---------|----------|
|-0-0-0-0-|-0-0-0-0-|-0-3---6-|---5---0--|
|-0-0-0-0-|-0-0-0-0-|-0-3---6-|---5---0--|


   PM---------------------------------|
  +E  E E E   E E E E   E E E E   E E E E
|-----------|---------|---------|---------|
|-----------|---------|---------|---------|
|-----------|---------|---------|-------3-|
|-----------|---------|---------|-------3-|
|-(0)-0-0-0-|-0-0-0-0-|-0-0-0-0-|-0-0-0-1-|
|-(0)-0-0-0-|-0-0-0-0-|-0-0-0-0-|-0-0-0---|
|
|  PM---------------------------------|
| +E  E E E   E E E E   E E E E   E E E E
|-----------|---------|---------|---------|
|-----------|---------|---------|---------|
|-----------|---------|---------|-------3-|
|-----------|---------|---------|-------3-|
|-(0)-0-0-0-|-0-0-0-0-|-0-0-0-0-|-0-0-0-1-|
|-(0)-0-0-0-|-0-0-0-0-|-0-0-0-0-|-0-0-0---|


  +E  E E E   +E  E E E   +E  E E E   +E  E E E
|-----------|-----------|-----------|-----------|
|-----------|-----------|-----------|-----------|
|-(3)-3---3-|-(3)-3---5-|-(5)-5---2-|-(2)-2-----|
|-(3)-3---3-|-(3)-3---5-|-(5)-5---2-|-(2)-2-----|
|-(1)-1---1-|-(1)-1---3-|-(3)-3---0-|-(0)-0---0-|
|-------0---|-------0---|-------0---|-------0-0-|
|
| +E  E E E   +E  E E E   +E  E E E   +E  E E E
|-----------|-----------|-----------|-----------|
|-----------|-----------|-----------|-----------|
|-(3)-3---3-|-(3)-3---5-|-(5)-5---2-|-(2)-2-----|
|-(3)-3---3-|-(3)-3---5-|-(5)-5---2-|-(2)-2-----|
|-(1)-1---1-|-(1)-1---3-|-(3)-3---0-|-(0)-0---0-|
|-------0---|-------0---|-------0---|-------0-0-|


   PM--------------------------------------
  +E  E E E   E E E E   E E E E   E E E E
|-----------|---------|---------|---------|
|-----------|---------|---------|---------|
|-----------|---------|---------|---------|
|-----------|---------|---------|---------|
|-(0)-0-0-0-|-0-0-0-0-|-0-0-0-0-|-0-0-0-0-|
|-(0)-0-0-0-|-0-0-0-0-|-0-0-0-0-|-0-0-0-0-|
|
|  PM--------------------------------------
| +E  E E E   E E E E   E E E E   E E E E
|-----------|---------|---------|---------|
|-----------|---------|---------|---------|
|-----------|---------|---------|---------|
|-----------|---------|---------|---------|
|-(0)-0-0-0-|-0-0-0-0-|-0-0-0-0-|-0-0-0-0-|
|-(0)-0-0-0-|-0-0-0-0-|-0-0-0-0-|-0-0-0-0-|


 -----------------|
  E E E E   E E E E   E E E E   E E E E
|---------|---------|---------|----------|
|---------|---------|---------|----------|
|---------|---------|---------|----------|
|---------|---------|---------|----------|
|-0-0-0-0-|-0-0-0-0-|-0-3---6-|---5---0--|
|-0-0-0-0-|-0-0-0-0-|-0-3---6-|---5---0--|
|
|-----------------|
| E E E E   E E E E   E E E E   E E E E
|---------|---------|---------|----------|
|---------|---------|---------|----------|
|---------|---------|---------|----------|
|---------|---------|---------|----------|
|-0-0-0-0-|-0-0-0-0-|-0-3---6-|---5---0--|
|-0-0-0-0-|-0-0-0-0-|-0-3---6-|---5---0--|


   PM---------------------------------|
  +E  E E E   E E E E   E E E E   E E E E
|-----------|---------|---------|---------|
|-----------|---------|---------|---------|
|-----------|---------|---------|-------3-|
|-----------|---------|---------|-------3-|
|-(0)-0-0-0-|-0-0-0-0-|-0-0-0-0-|-0-0-0-1-|
|-(0)-0-0-0-|-0-0-0-0-|-0-0-0-0-|-0-0-0---|
|
|  PM---------------------------------|
| +E  E E E   E E E E   E E E E   E E E E
|-----------|---------|---------|---------|
|-----------|---------|---------|---------|
|-----------|---------|---------|-------3-|
|-----------|---------|---------|-------3-|
|-(0)-0-0-0-|-0-0-0-0-|-0-0-0-0-|-0-0-0-1-|
|-(0)-0-0-0-|-0-0-0-0-|-0-0-0-0-|-0-0-0---|


  +E  E E E   +E  E E E   +E  E E E   +E  E  E E
|-----------|-----------|-----------|------------|
|-----------|-----------|-----------|------------|
|-(3)-3---3-|-(3)-3---5-|-(5)-5---2-|-(2)-2----3-|
|-(3)-3---3-|-(3)-3---5-|-(5)-5---2-|-(2)-2----3-|
|-(1)-1---1-|-(1)-1---3-|-(3)-3---0-|-(0)-0----1-|
|-------0---|-------0---|-------0---|--------0---|
|
| +E  E E E   +E  E E E   +E  E E E   +E  E  E E
|-----------|-----------|-----------|------------|
|-----------|-----------|-----------|------------|
|-(3)-3---3-|-(3)-3---5-|-(5)-5---2-|-(2)-2----3-|
|-(3)-3---3-|-(3)-3---5-|-(5)-5---2-|-(2)-2----3-|
|-(1)-1---1-|-(1)-1---3-|-(3)-3---0-|-(0)-0----1-|
|-------0---|-------0---|-------0---|--------0---|
|
| Gtr IV
|  H           H           H           Q.    E
|-----------|-----------|-----------|------------|
|-----------|-----------|-----------|------------|
|-----------|-----------|-----------|-------10---|
|-----------|-----------|-----------|------------|
|-----------|-----------|-----------|--------8---|
|-----------|-----------|-----------|------------|


                                                                    PM--|
  +H        +H        +H       +Q.   E   +H       +H       +H       E E E E
|--------|---------|---------|---------|--------|--------|--------|----------|
|--------|---------|---------|---------|--------|--------|--------|----------|
|-(3)----|--(3)----|--(3)----|-(3)---5-|-(5)----|-(5)----|-(5)----|-------7--|
|-(3)----|--(3)----|--(3)----|-(3)---5-|-(5)----|-(5)----|-(5)----|-0-0-0-7--|
|-(1)----|--(1)----|--(1)----|-(1)---3-|-(3)----|-(3)----|-(3)----|-0-0-0-5--|
|--------|---------|---------|---------|--------|--------|--------|-0-0-0----|
|
|                                                                   PM--|
| +H        +H        +H       +Q.   E   +H       +H       +H       E E E E
|--------|---------|---------|---------|--------|--------|--------|----------|
|--------|---------|---------|---------|--------|--------|--------|----------|
|-(3)----|--(3)----|--(3)----|-(3)---5-|-(5)----|-(5)----|-(5)----|-------7--|
|-(3)----|--(3)----|--(3)----|-(3)---5-|-(5)----|-(5)----|-(5)----|-0-0-0-7--|
|-(1)----|--(1)----|--(1)----|-(1)---3-|-(3)----|-(3)----|-(3)----|-0-0-0-5--|
|--------|---------|---------|---------|--------|--------|--------|-0-0-0----|
|
|  H        +H        +H        Q.   E   +H       +H        H       H
|--------|---------|---------|---------|--------|--------|--------|----------|
|--------|---------|---------|---------|--------|--------|--------|----------|
|-10-----|-(10)----|-(10)----|-14----9-|-(9)----|-(9)----|--5-----|----------|
|--------|---------|---------|---------|--------|--------|--------|----------|
|--8-----|--(8)----|--(8)----|-12----7-|-(7)----|-(7)----|--3-----|----------|
|--------|---------|---------|---------|--------|--------|--------|----------|


 Chorus
  +E  E E E   E E E E   E E E E   E E E E
|-----------|---------|---------|---------|
|-----------|---------|---------|---------|
|-(7)-------|---------|---------|-------3-|
|-(7)-7-7-7-|-7-7-7-7-|-7-7-7-7-|-7-7-7-3-|
|-(5)-5-5-5-|-5-5-5-5-|-5-5-5-5-|-5-5-5-1-|
|-----------|---------|---------|---------|
|
| +E  E E E   E E E E   E E E E   E E E E
|-----------|---------|---------|---------|
|-----------|---------|---------|---------|
|-(7)-------|---------|---------|-------3-|
|-(7)-7-7-7-|-7-7-7-7-|-7-7-7-7-|-7-7-7-3-|
|-(5)-5-5-5-|-5-5-5-5-|-5-5-5-5-|-5-5-5-1-|
|-----------|---------|---------|---------|


  +E  E E E   E E E E   E E E E   E E E E
|-----------|---------|---------|----------|
|-----------|---------|---------|----------|
|-(3)-------|---------|---------|----------|
|-(3)-3-3-3-|-3-3-3-3-|-3-3-3-3-|-3-3-3-3--|
|-(1)-1-1-1-|-1-1-1-1-|-1-1-1-1-|-1-1-1-3--|
|-----------|---------|---------|-------3--|
|
| +E  E E E   E E E E   E E E E   E E E E
|-----------|---------|---------|----------|
|-----------|---------|---------|----------|
|-(3)-------|---------|---------|----------|
|-(3)-3-3-3-|-3-3-3-3-|-3-3-3-3-|-3-3-3-3--|
|-(1)-1-1-1-|-1-1-1-1-|-1-1-1-1-|-1-1-1-3--|
|-----------|---------|---------|-------3--|


  +E  E E E   E E E E   E E E E   E E E E
|-----------|---------|---------|---------|
|-----------|---------|---------|---------|
|-----------|---------|---------|-------5-|
|-(3)-3-3-3-|-3-3-3-3-|-3-3-3-3-|-3-3-3-5-|
|-(3)-3-3-3-|-3-3-3-3-|-3-3-3-3-|-3-3-3-3-|
|-(3)-3-3-3-|-3-3-3-3-|-3-3-3-3-|-3-3-3---|
|
| +E  E E E   E E E E   E E E E   E E E E
|-----------|---------|---------|---------|
|-----------|---------|---------|---------|
|-----------|---------|---------|-------5-|
|-(3)-3-3-3-|-3-3-3-3-|-3-3-3-3-|-3-3-3-5-|
|-(3)-3-3-3-|-3-3-3-3-|-3-3-3-3-|-3-3-3-3-|
|-(3)-3-3-3-|-3-3-3-3-|-3-3-3-3-|-3-3-3---|


  +E  E E E   E E E E   E E E E   E E E E
|-----------|---------|---------|----------|
|-----------|---------|---------|----------|
|-----------|---------|---------|-------7--|
|-(5)-5-5-5-|-5-5-5-5-|-5-5-5-5-|-5-5-5-7--|
|-(3)-3-3-3-|-3-3-3-3-|-3-3-3-3-|-3-3-3-5--|
|-----------|---------|---------|----------|
|
| +E  E E E   E E E E   E E E E   E E E E
|-----------|---------|---------|----------|
|-----------|---------|---------|----------|
|-----------|---------|---------|-------7--|
|-(5)-5-5-5-|-5-5-5-5-|-5-5-5-5-|-5-5-5-7--|
|-(3)-3-3-3-|-3-3-3-3-|-3-3-3-3-|-3-3-3-5--|
|-----------|---------|---------|----------|


  +E  E E E   E E E E   E E E E   E E E E
|-----------|---------|---------|---------|
|-----------|---------|---------|---------|
|-(7)-------|---------|---------|-------3-|
|-(7)-7-7-7-|-7-7-7-7-|-7-7-7-7-|-7-7-7-3-|
|-(5)-5-5-5-|-5-5-5-5-|-5-5-5-5-|-5-5-5-1-|
|-----------|---------|---------|---------|
|
| +E  E E E   E E E E   E E E E   E E E E
|-----------|---------|---------|---------|
|-----------|---------|---------|---------|
|-(7)-------|---------|---------|-------3-|
|-(7)-7-7-7-|-7-7-7-7-|-7-7-7-7-|-7-7-7-3-|
|-(5)-5-5-5-|-5-5-5-5-|-5-5-5-5-|-5-5-5-1-|
|-----------|---------|---------|---------|


  +E  E E E   E E E E   E E E E   E E E E
|-----------|---------|---------|----------|
|-----------|---------|---------|----------|
|-(3)-------|---------|---------|----------|
|-(3)-3-3-3-|-3-3-3-3-|-3-3-3-3-|-3-3-3-3--|
|-(1)-1-1-1-|-1-1-1-1-|-1-1-1-1-|-1-1-1-3--|
|-----------|---------|---------|-------3--|
|
| +E  E E E   E E E E   E E E E   E E E E
|-----------|---------|---------|----------|
|-----------|---------|---------|----------|
|-(3)-------|---------|---------|----------|
|-(3)-3-3-3-|-3-3-3-3-|-3-3-3-3-|-3-3-3-3--|
|-(1)-1-1-1-|-1-1-1-1-|-1-1-1-1-|-1-1-1-3--|
|-----------|---------|---------|-------3--|


  +E  E E E   E E E E   E E E E   E E E E
|-----------|---------|---------|---------|
|-----------|---------|---------|---------|
|-----------|---------|---------|-------5-|
|-(3)-3-3-3-|-3-3-3-3-|-3-3-3-3-|-3-3-3-5-|
|-(3)-3-3-3-|-3-3-3-3-|-3-3-3-3-|-3-3-3-3-|
|-(3)-3-3-3-|-3-3-3-3-|-3-3-3-3-|-3-3-3---|
|
| +E  E E E   E E E E   E E E E   E E E E
|-----------|---------|---------|---------|
|-----------|---------|---------|---------|
|-----------|---------|---------|-------5-|
|-(3)-3-3-3-|-3-3-3-3-|-3-3-3-3-|-3-3-3-5-|
|-(3)-3-3-3-|-3-3-3-3-|-3-3-3-3-|-3-3-3-3-|
|-(3)-3-3-3-|-3-3-3-3-|-3-3-3-3-|-3-3-3---|


  +E  E E E   E E E E   E E E E   E E E E
|-----------|---------|---------|----------|
|-----------|---------|---------|----------|
|-----------|---------|---------|----------|
|-(5)-5-5-5-|-5-5-5-5-|-5-5-5-5-|-5-5-5----|
|-(3)-3-3-3-|-3-3-3-3-|-3-3-3-3-|-3-3-3-0--|
|-----------|---------|---------|-------0--|
|
| +E  E E E   E E E E   E E E E   E E E E
|-----------|---------|---------|----------|
|-----------|---------|---------|----------|
|-----------|---------|---------|----------|
|-(5)-5-5-5-|-5-5-5-5-|-5-5-5-5-|-5-5-5----|
|-(3)-3-3-3-|-3-3-3-3-|-3-3-3-3-|-3-3-3-0--|
|-----------|---------|---------|-------0--|


 Bridge
 4/4
  +Q   S S S S S S S E. E   +Q   S S S S S S S E S E
|-------------------------|--------------------------|
|-------------------------|--------------------------|
|-------------------------|--------------------------|
|-------------------------|------------------------3-|
|-(0)--0-0-0---0-0-0----0-|-(0)--0-0-0---0-0-0-----5-|
|-(0)--0-0-0---0-0-0----0-|-(0)--0-0-0---0-0-0-------|
|
|  W                        +W
|-------------------------|--------------------------|
|-------------------------|--------------------------|
|-------------------------|--------------------------|
|--0----------------------|--------------------------|
|--0----------------------|-(0)----------------------|
|--0----------------------|-(0)----------------------|


  +Q   S S S S S S S E. E   +Q    S S S S S S S E. E
|-------------------------|--------------------------|
|-------------------------|--------------------------|
|-------------------------|--------------------------|
|-(3)---------------------|------------------------0-|
|-(5)--0-0-0---0-0-0----0-|-(0)---0-0-0---0-0-0----0-|
|------0-0-0---0-0-0----0-|-(0)---0-0-0---0-0-0----0-|
|
| +W                        +H..                   E
|-------------------------|--------------------------|
|-------------------------|--------------------------|
|-------------------------|--------------------------|
|-------------------------|------------------------0-|
|-(0)---------------------|-(0)--------------------0-|
|-(0)---------------------|-(0)--------------------0-|


  Q  S S S S S S S E. E   +Q   S S S S S S S E S E
|-----------------------|--------------------------|
|-----------------------|--------------------------|
|-----------------------|--------------------------|
|-----------------------|------------------------3-|
|-0--0-0-0---0-0-0----0-|-(0)--0-0-0---0-0-0-----5-|
|-0--0-0-0---0-0-0----0-|-(0)--0-0-0---0-0-0-------|
|
| W                        W
|-----------------------|--------------------------|
|-----------------------|--------------------------|
|-----------------------|--------------------------|
|-----------------------|--------------------------|
|-----------------------|--------------------------|
|-----------------------|--------------------------|


  +Q   S S S S S S S E. E   H..       E
|-------------------------|-------------|
|-------------------------|-------------|
|-------------------------|-------------|
|-(3)---------------------|-----------0-|
|-(5)--0-0-0---0-0-0----0-|-----------0-|
|------0-0-0---0-0-0----0-|-----------0-|
|
|  W                        H..       E
|-------------------------|-------------|
|-------------------------|-------------|
|-------------------------|-------------|
|-------------------------|-----------0-|
|-------------------------|-----------0-|
|-------------------------|-----------0-|


  +Q   S S S S S S S E. E   +Q   S S S S S S S E S E
|-------------------------|--------------------------|
|-------------------------|--------------------------|
|-------------------------|--------------------------|
|-------------------------|------------------------3-|
|-(0)--0-0-0---0-0-0----0-|-(0)--0-0-0---0-0-0-----5-|
|-(0)--0-0-0---0-0-0----0-|-(0)--0-0-0---0-0-0-------|
|
| +Q   S S S S S S S E. E   +Q   S S S S S S S E S E
|-------------------------|--------------------------|
|-------------------------|--------------------------|
|-------------------------|--------------------------|
|-------------------------|------------------------3-|
|-(0)--0-0-0---0-0-0----0-|-(0)--0-0-0---0-0-0-----5-|
|-(0)--0-0-0---0-0-0----0-|-(0)--0-0-0---0-0-0-------|


  +Q   S S S S S S S E. E   +Q   S S S S S S S E. E
|-------------------------|-------------------------|
|-------------------------|-------------------------|
|-------------------------|-------------------------|
|-(3)---------------------|-----------------------3-|
|-(5)--0-0-0---0-0-0----0-|-(0)--0-0-0---0-0-0----5-|
|------0-0-0---0-0-0----0-|-(0)--0-0-0---0-0-0------|
|
| +Q   S S S S S S S E. E   +Q   S S S S S S S E. E
|-------------------------|-------------------------|
|-------------------------|-------------------------|
|-------------------------|-------------------------|
|-(3)---------------------|-----------------------3-|
|-(5)--0-0-0---0-0-0----0-|-(0)--0-0-0---0-0-0----5-|
|------0-0-0---0-0-0----0-|-(0)--0-0-0---0-0-0------|


  +Q   S S S S S S S E. E   +Q   S S S S S S S E. E
|-------------------------|-------------------------|
|-------------------------|-------------------------|
|-------------------------|-------------------------|
|-(3)---------------------|-----------------------3-|
|-(5)--0-0-0---0-0-0----0-|-(0)--0-0-0---0-0-0----5-|
|------0-0-0---0-0-0----0-|-(0)--0-0-0---0-0-0------|
|
| +Q   S S S S S S S E. E   +Q   S S S S S S S E. E
|-------------------------|-------------------------|
|-------------------------|-------------------------|
|-------------------------|-------------------------|
|-(3)---------------------|-----------------------3-|
|-(5)--0-0-0---0-0-0----0-|-(0)--0-0-0---0-0-0----5-|
|------0-0-0---0-0-0----0-|-(0)--0-0-0---0-0-0------|


  Q  S S S S S S S E. E
|--------------------------|
|--------------------------|
|--------------------------|
|-3------------------------|
|-5--0-0-0---0-0-0----0----|
|----0-0-0---0-0-0----0----|
|
| Q  S S S S S S S E. E
|--------------------------|
|--------------------------|
|--------------------------|
|-3------------------------|
|-5--0-0-0---0-0-0----0----|
|----0-0-0---0-0-0----0----|


   \2
   H..       E
|-----------------|
|-----------------|
|-----------------|
|-----------------|
|------------0----|
|-10---------0----|
|
|  \2
|  H..       E
|-----------------|
|-----------------|
|-----------------|
|-----------------|
|------------0----|
|-10---------0----|


  +Q   S S S S S S S E. E   +Q   S S S S S S S E S E
|-------------------------|--------------------------|
|-------------------------|--------------------------|
|-------------------------|--------------------------|
|-------------------------|------------------------3-|
|-(0)--0-0-0---0-0-0----0-|-(0)--0-0-0---0-0-0-----5-|
|-(0)--0-0-0---0-0-0----0-|-(0)--0-0-0---0-0-0-------|
|
| +Q   S S S S S S S E. E   +Q   S S S S S S S E S E
|-------------------------|--------------------------|
|-------------------------|--------------------------|
|-------------------------|--------------------------|
|-------------------------|------------------------3-|
|-(0)--0-0-0---0-0-0----0-|-(0)--0-0-0---0-0-0-----5-|
|-(0)--0-0-0---0-0-0----0-|-(0)--0-0-0---0-0-0-------|


  +Q   S S S S S S S E. E   +Q   S S S S S S S E. E
|-------------------------|-------------------------|
|-------------------------|-------------------------|
|-------------------------|-------------------------|
|-(3)---------------------|-----------------------3-|
|-(5)--0-0-0---0-0-0----0-|-(0)--0-0-0---0-0-0----5-|
|------0-0-0---0-0-0----0-|-(0)--0-0-0---0-0-0------|
|
| +Q   S S S S S S S E. E   +Q   S S S S S S S E. E
|-------------------------|-------------------------|
|-------------------------|-------------------------|
|-------------------------|-------------------------|
|-(3)---------------------|-----------------------3-|
|-(5)--0-0-0---0-0-0----0-|-(0)--0-0-0---0-0-0----5-|
|------0-0-0---0-0-0----0-|-(0)--0-0-0---0-0-0------|


  +Q   S S S S S S S E. E   +Q   S S S S S S S E. E
|-------------------------|-------------------------|
|-------------------------|-------------------------|
|-------------------------|-------------------------|
|-(3)---------------------|-----------------------3-|
|-(5)--0-0-0---0-0-0----0-|-(0)--0-0-0---0-0-0----5-|
|------0-0-0---0-0-0----0-|-(0)--0-0-0---0-0-0------|
|
| +Q   S S S S S S S E. E   +Q   S S S S S S S E. E
|-------------------------|-------------------------|
|-------------------------|-------------------------|
|-------------------------|-------------------------|
|-(3)---------------------|-----------------------3-|
|-(5)--0-0-0---0-0-0----0-|-(0)--0-0-0---0-0-0----5-|
|------0-0-0---0-0-0----0-|-(0)--0-0-0---0-0-0------|


  Q  S S S S S S S E. E
|--------------------------|
|--------------------------|
|--------------------------|
|-3------------------------|
|-5--0-0-0---0-0-0----0----|
|----0-0-0---0-0-0----0----|
|
| Q  S S S S S S S E. E
|--------------------------|
|--------------------------|
|--------------------------|
|-3------------------------|
|-5--0-0-0---0-0-0----0----|
|----0-0-0---0-0-0----0----|


 2/4
  H      +H       +H       +Q.   E   H      H      H      Q.   E
|------|--------|--------|---------|------|------|------|--------|
|------|--------|--------|---------|------|------|------|--------|
|-3----|-(3)----|-(3)----|-(3)---5-|------|------|------|------7-|
|-3----|-(3)----|-(3)----|-(3)---5-|------|------|------|------7-|
|-1----|-(1)----|-(1)----|-(1)---3-|------|------|------|------5-|
|------|--------|--------|---------|------|------|------|--------|
|
| H      +H       +H       +Q.   E   H      H      H      Q.   E
|------|--------|--------|---------|------|------|------|--------|
|------|--------|--------|---------|------|------|------|--------|
|-3----|-(3)----|-(3)----|-(3)---5-|------|------|------|------7-|
|-3----|-(3)----|-(3)----|-(3)---5-|------|------|------|------7-|
|-1----|-(1)----|-(1)----|-(1)---3-|------|------|------|------5-|
|------|--------|--------|---------|------|------|------|--------|


 Chorus
  +E  E E E   E E E E   E E E E   E E E E
|-----------|---------|---------|---------|
|-----------|---------|---------|---------|
|-(7)-------|---------|---------|-------3-|
|-(7)-7-7-7-|-7-7-7-7-|-7-7-7-7-|-7-7-7-3-|
|-(5)-5-5-5-|-5-5-5-5-|-5-5-5-5-|-5-5-5-1-|
|-----------|---------|---------|---------|
|
| +E  E E E   E E E E   E E E E   E E E E
|-----------|---------|---------|---------|
|-----------|---------|---------|---------|
|-(7)-------|---------|---------|-------3-|
|-(7)-7-7-7-|-7-7-7-7-|-7-7-7-7-|-7-7-7-3-|
|-(5)-5-5-5-|-5-5-5-5-|-5-5-5-5-|-5-5-5-1-|
|-----------|---------|---------|---------|


  +E  E E E   E E E E   E E E E   E E E E
|-----------|---------|---------|----------|
|-----------|---------|---------|----------|
|-(3)-------|---------|---------|----------|
|-(3)-3-3-3-|-3-3-3-3-|-3-3-3-3-|-3-3-3-3--|
|-(1)-1-1-1-|-1-1-1-1-|-1-1-1-1-|-1-1-1-3--|
|-----------|---------|---------|-------3--|
|
| +E  E E E   E E E E   E E E E   E E E E
|-----------|---------|---------|----------|
|-----------|---------|---------|----------|
|-(3)-------|---------|---------|----------|
|-(3)-3-3-3-|-3-3-3-3-|-3-3-3-3-|-3-3-3-3--|
|-(1)-1-1-1-|-1-1-1-1-|-1-1-1-1-|-1-1-1-3--|
|-----------|---------|---------|-------3--|


  +E  E E E   E E E E   E E E E   E E E E
|-----------|---------|---------|---------|
|-----------|---------|---------|---------|
|-----------|---------|---------|-------5-|
|-(3)-3-3-3-|-3-3-3-3-|-3-3-3-3-|-3-3-3-5-|
|-(3)-3-3-3-|-3-3-3-3-|-3-3-3-3-|-3-3-3-3-|
|-(3)-3-3-3-|-3-3-3-3-|-3-3-3-3-|-3-3-3---|
|
| +E  E E E   E E E E   E E E E   E E E E
|-----------|---------|---------|---------|
|-----------|---------|---------|---------|
|-----------|---------|---------|-------5-|
|-(3)-3-3-3-|-3-3-3-3-|-3-3-3-3-|-3-3-3-5-|
|-(3)-3-3-3-|-3-3-3-3-|-3-3-3-3-|-3-3-3-3-|
|-(3)-3-3-3-|-3-3-3-3-|-3-3-3-3-|-3-3-3---|


  +E  E E E   E E E E   E E E E   E E E E
|-----------|---------|---------|----------|
|-----------|---------|---------|----------|
|-----------|---------|---------|-------7--|
|-(5)-5-5-5-|-5-5-5-5-|-5-5-5-5-|-5-5-5-7--|
|-(3)-3-3-3-|-3-3-3-3-|-3-3-3-3-|-3-3-3-5--|
|-----------|---------|---------|----------|
|
| +E  E E E   E E E E   E E E E   E E E E
|-----------|---------|---------|----------|
|-----------|---------|---------|----------|
|-----------|---------|---------|-------7--|
|-(5)-5-5-5-|-5-5-5-5-|-5-5-5-5-|-5-5-5-7--|
|-(3)-3-3-3-|-3-3-3-3-|-3-3-3-3-|-3-3-3-5--|
|-----------|---------|---------|----------|


  +E  E E E   E E E E   E E E E   E E E E
|-----------|---------|---------|---------|
|-----------|---------|---------|---------|
|-(7)-------|---------|---------|-------3-|
|-(7)-7-7-7-|-7-7-7-7-|-7-7-7-7-|-7-7-7-3-|
|-(5)-5-5-5-|-5-5-5-5-|-5-5-5-5-|-5-5-5-1-|
|-----------|---------|---------|---------|
|
| +E  E E E   E E E E   E E E E   E E E E
|-----------|---------|---------|---------|
|-----------|---------|---------|---------|
|-(7)-------|---------|---------|-------3-|
|-(7)-7-7-7-|-7-7-7-7-|-7-7-7-7-|-7-7-7-3-|
|-(5)-5-5-5-|-5-5-5-5-|-5-5-5-5-|-5-5-5-1-|
|-----------|---------|---------|---------|


  +E  E E E   E E E E   E E E E   E E E E
|-----------|---------|---------|----------|
|-----------|---------|---------|----------|
|-(3)-------|---------|---------|----------|
|-(3)-3-3-3-|-3-3-3-3-|-3-3-3-3-|-3-3-3-3--|
|-(1)-1-1-1-|-1-1-1-1-|-1-1-1-1-|-1-1-1-3--|
|-----------|---------|---------|-------3--|
|
| +E  E E E   E E E E   E E E E   E E E E
|-----------|---------|---------|----------|
|-----------|---------|---------|----------|
|-(3)-------|---------|---------|----------|
|-(3)-3-3-3-|-3-3-3-3-|-3-3-3-3-|-3-3-3-3--|
|-(1)-1-1-1-|-1-1-1-1-|-1-1-1-1-|-1-1-1-3--|
|-----------|---------|---------|-------3--|


  +E  E E E   E E E E   E E E E   E E E E
|-----------|---------|---------|---------|
|-----------|---------|---------|---------|
|-----------|---------|---------|-------5-|
|-(3)-3-3-3-|-3-3-3-3-|-3-3-3-3-|-3-3-3-5-|
|-(3)-3-3-3-|-3-3-3-3-|-3-3-3-3-|-3-3-3-3-|
|-(3)-3-3-3-|-3-3-3-3-|-3-3-3-3-|-3-3-3---|
|
| +E  E E E   E E E E   E E E E   E E E E
|-----------|---------|---------|---------|
|-----------|---------|---------|---------|
|-----------|---------|---------|-------5-|
|-(3)-3-3-3-|-3-3-3-3-|-3-3-3-3-|-3-3-3-5-|
|-(3)-3-3-3-|-3-3-3-3-|-3-3-3-3-|-3-3-3-3-|
|-(3)-3-3-3-|-3-3-3-3-|-3-3-3-3-|-3-3-3---|


  +E  E E E   E E E E   E E E E   E E E E
|-----------|---------|---------|----------|
|-----------|---------|---------|----------|
|-----------|---------|---------|-------7--|
|-(5)-5-5-5-|-5-5-5-5-|-5-5-5-5-|-5-5-5-7--|
|-(3)-3-3-3-|-3-3-3-3-|-3-3-3-3-|-3-3-3-5--|
|-----------|---------|---------|----------|
|
| +E  E E E   E E E E   E E E E   E E E E
|-----------|---------|---------|----------|
|-----------|---------|---------|----------|
|-----------|---------|---------|-------7--|
|-(5)-5-5-5-|-5-5-5-5-|-5-5-5-5-|-5-5-5-7--|
|-(3)-3-3-3-|-3-3-3-3-|-3-3-3-3-|-3-3-3-5--|
|-----------|---------|---------|----------|


  +E  E E E   E E E E   E E E E   E E E E
|-----------|---------|---------|---------|
|-----------|---------|---------|---------|
|-(7)-------|---------|---------|-------3-|
|-(7)-7-7-7-|-7-7-7-7-|-7-7-7-7-|-7-7-7-3-|
|-(5)-5-5-5-|-5-5-5-5-|-5-5-5-5-|-5-5-5-1-|
|-----------|---------|---------|---------|
|
| +E  E E E   E E E E   E E E E   E E E E
|-----------|---------|---------|---------|
|-----------|---------|---------|---------|
|-(7)-------|---------|---------|-------3-|
|-(7)-7-7-7-|-7-7-7-7-|-7-7-7-7-|-7-7-7-3-|
|-(5)-5-5-5-|-5-5-5-5-|-5-5-5-5-|-5-5-5-1-|
|-----------|---------|---------|---------|


  +E  E E E   E E E E   E E E E   E E E E
|-----------|---------|---------|----------|
|-----------|---------|---------|----------|
|-(3)-------|---------|---------|----------|
|-(3)-3-3-3-|-3-3-3-3-|-3-3-3-3-|-3-3-3-3--|
|-(1)-1-1-1-|-1-1-1-1-|-1-1-1-1-|-1-1-1-3--|
|-----------|---------|---------|-------3--|
|
| +E  E E E   E E E E   E E E E   E E E E
|-----------|---------|---------|----------|
|-----------|---------|---------|----------|
|-(3)-------|---------|---------|----------|
|-(3)-3-3-3-|-3-3-3-3-|-3-3-3-3-|-3-3-3-3--|
|-(1)-1-1-1-|-1-1-1-1-|-1-1-1-1-|-1-1-1-3--|
|-----------|---------|---------|-------3--|


  +E  E E E   E E E E   E E E E   E E E E
|-----------|---------|---------|---------|
|-----------|---------|---------|---------|
|-----------|---------|---------|-------5-|
|-(3)-3-3-3-|-3-3-3-3-|-3-3-3-3-|-3-3-3-5-|
|-(3)-3-3-3-|-3-3-3-3-|-3-3-3-3-|-3-3-3-3-|
|-(3)-3-3-3-|-3-3-3-3-|-3-3-3-3-|-3-3-3---|
|
| +E  E E E   E E E E   E E E E   E E E E
|-----------|---------|---------|---------|
|-----------|---------|---------|---------|
|-----------|---------|---------|-------5-|
|-(3)-3-3-3-|-3-3-3-3-|-3-3-3-3-|-3-3-3-5-|
|-(3)-3-3-3-|-3-3-3-3-|-3-3-3-3-|-3-3-3-3-|
|-(3)-3-3-3-|-3-3-3-3-|-3-3-3-3-|-3-3-3---|


  +E  E E E   E E E E   E E E E   E E E E
|-----------|---------|---------|----------|
|-----------|---------|---------|----------|
|-----------|---------|---------|-------7--|
|-(5)-5-5-5-|-5-5-5-5-|-5-5-5-5-|-5-5-5-7--|
|-(3)-3-3-3-|-3-3-3-3-|-3-3-3-3-|-3-3-3-5--|
|-----------|---------|---------|----------|
|
| +E  E E E   E E E E   E E E E   E E E E
|-----------|---------|---------|----------|
|-----------|---------|---------|----------|
|-----------|---------|---------|-------7--|
|-(5)-5-5-5-|-5-5-5-5-|-5-5-5-5-|-5-5-5-7--|
|-(3)-3-3-3-|-3-3-3-3-|-3-3-3-3-|-3-3-3-5--|
|-----------|---------|---------|----------|


  +E  E E E   E E E E   E E E E   E E E E
|-----------|---------|---------|---------|
|-----------|---------|---------|---------|
|-(7)-------|---------|---------|-------3-|
|-(7)-7-7-7-|-7-7-7-7-|-7-7-7-7-|-7-7-7-3-|
|-(5)-5-5-5-|-5-5-5-5-|-5-5-5-5-|-5-5-5-1-|
|-----------|---------|---------|---------|
|
| +E  E E E   E E E E   E E E E   E E E E
|-----------|---------|---------|---------|
|-----------|---------|---------|---------|
|-(7)-------|---------|---------|-------3-|
|-(7)-7-7-7-|-7-7-7-7-|-7-7-7-7-|-7-7-7-3-|
|-(5)-5-5-5-|-5-5-5-5-|-5-5-5-5-|-5-5-5-1-|
|-----------|---------|---------|---------|


  +E  E E E   E E E E   E E E E   E E E E
|-----------|---------|---------|----------|
|-----------|---------|---------|----------|
|-(3)-------|---------|---------|----------|
|-(3)-3-3-3-|-3-3-3-3-|-3-3-3-3-|-3-3-3-3--|
|-(1)-1-1-1-|-1-1-1-1-|-1-1-1-1-|-1-1-1-3--|
|-----------|---------|---------|-------3--|
|
| +E  E E E   E E E E   E E E E   E E E E
|-----------|---------|---------|----------|
|-----------|---------|---------|----------|
|-(3)-------|---------|---------|----------|
|-(3)-3-3-3-|-3-3-3-3-|-3-3-3-3-|-3-3-3-3--|
|-(1)-1-1-1-|-1-1-1-1-|-1-1-1-1-|-1-1-1-3--|
|-----------|---------|---------|-------3--|


  +E  E E E   E E E E   E E E E   E E E E
|-----------|---------|---------|---------|
|-----------|---------|---------|---------|
|-----------|---------|---------|-------5-|
|-(3)-3-3-3-|-3-3-3-3-|-3-3-3-3-|-3-3-3-5-|
|-(3)-3-3-3-|-3-3-3-3-|-3-3-3-3-|-3-3-3-3-|
|-(3)-3-3-3-|-3-3-3-3-|-3-3-3-3-|-3-3-3---|
|
| +E  E E E   E E E E   E E E E   E E E E
|-----------|---------|---------|---------|
|-----------|---------|---------|---------|
|-----------|---------|---------|-------5-|
|-(3)-3-3-3-|-3-3-3-3-|-3-3-3-3-|-3-3-3-5-|
|-(3)-3-3-3-|-3-3-3-3-|-3-3-3-3-|-3-3-3-3-|
|-(3)-3-3-3-|-3-3-3-3-|-3-3-3-3-|-3-3-3---|


  +E  E E E   E E E E   E E E E   E E E E
|-----------|---------|---------|----------|
|-----------|---------|---------|----------|
|-----------|---------|---------|----------|
|-(5)-5-5-5-|-5-5-5-5-|-5-5-5-5-|-5-5-5----|
|-(3)-3-3-3-|-3-3-3-3-|-3-3-3-3-|-3-3-3-0--|
|-----------|---------|---------|-------0--|
|
| +E  E E E   E E E E   E E E E   E E E E
|-----------|---------|---------|----------|
|-----------|---------|---------|----------|
|-----------|---------|---------|----------|
|-(5)-5-5-5-|-5-5-5-5-|-5-5-5-5-|-5-5-5----|
|-(3)-3-3-3-|-3-3-3-3-|-3-3-3-3-|-3-3-3-0--|
|-----------|---------|---------|-------0--|


 Kickass end part
  +E  E E E    E  E E E    E  E E E    E  E E E   Q  E E   E E E E
|-----------|-----------|-----------|-----------|--------|---------|
|-----------|-----------|-----------|-----------|--------|---------|
|-----------|-----------|-----------|-----------|--------|---------|
|-----------|--7--------|-----------|-----7-----|-0------|-7-------|
|-(0)---8---|-------8---|-----7---8-|-----------|-0--8---|-----8---|
|-(0)-0---0-|-----0---0-|--0----0---|--0----0-0-|-0----0-|---0---0-|
|
| +H          +H          +H          +H          Q  Q     H
|-----------|-----------|-----------|-----------|--------|---------|
|-----------|-----------|-----------|-----------|--------|---------|
|-----------|-----------|-----------|-----------|--------|---------|
|-----------|-----------|-----------|-----------|-0------|---------|
|-(0)-------|-(0)-------|-(0)-------|-(0)-------|-0------|---------|
|-(0)-------|-(0)-------|-(0)-------|-(0)-------|-0------|---------|


  S S  E E  E   E  E E E
|-------------|-------------|
|-------------|-------------|
|-------------|-------------|
|--------7----|------0-0----|
|-7-8-10---10-|-8--7---0----|
|-------------|--------0----|
|
| H             Q.     E
|-------------|-------------|
|-------------|-------------|
|-------------|-------------|
|-------------|--------0----|
|-------------|--------0----|
|-------------|--------0----|


  +E  E E E   E E E E   E E E E   E E E E   Q  E E   E E E E
|-----------|---------|---------|---------|--------|---------|
|-----------|---------|---------|---------|--------|---------|
|-----------|---------|---------|---------|--------|---------|
|-----------|-7-------|---------|---7-----|-0------|-7-------|
|-(0)---8---|-----8---|---7---8-|---------|-0--8---|-----8---|
|-(0)-0---0-|---0---0-|-0---0---|-0---0-0-|-0----0-|---0---0-|
|
| +E  E E E   E E E E   E E E E   E E E E   Q  E E   E E E E
|-----------|---------|---------|---------|--------|---------|
|-----------|---------|---------|---------|--------|---------|
|-----------|---------|---------|---------|--------|---------|
|-----------|-7-------|---------|---7-----|-0------|-7-------|
|-(0)---8---|-----8---|---7---8-|---------|-0--8---|-----8---|
|-(0)-0---0-|---0---0-|-0---0---|-0---0-0-|-0----0-|---0---0-|


  S S  E E  E   E E E E   +H
|-------------|---------|--------*|
|-------------|---------|--------*|
|-------------|---------|--------*|
|--------7----|-----0-0-|-(0)----*|
|-7-8-10---10-|-8-7---0-|-(0)----*|
|-------------|-------0-|-(0)----*|
|
| S S  E E  E   E E E E   +H
|-------------|---------|--------*|
|-------------|---------|--------*|
|-------------|---------|--------*|
|--------7----|-----0-0-|-(0)----*|
|-7-8-10---10-|-8-7---0-|-(0)----*|
|-------------|-------0-|-(0)----*|




--------------------------------------------------------------------------------


Duration Legend
---------------
W - whole; H - half; Q - quarter; E - 8th; S - 16th; T - 32nd; X - 64th; a - acciaccatura
+ - note tied to previous; . - note dotted; .. - note double dotted
Uncapitalized letters represent notes that are staccato (1/2 duration)
Irregular groupings are notated above the duration line
Duration letters will always appear directly above the note/fret number it represents the
duration for.  Duration letters with no fret number below them represent rests.  Multi-
bar rests are notated in the form Wxn, where n is the number of bars to rest for.  Low
melody durations appear below the staff

Tablature Legend
----------------
 h   - hammer-on
 p   - pull-off
 b   - bend
 pb  - pre-bend
 r   - bend release (if no number after the r, then release immediately)
 /\  - slide into or out of (from/to "nowhere")
 s   - legato slide
 S   - shift slide
<n> - natural harmonic
[n]  - artificial harmonic
n(n) - tapped harmonic
 ~   - vibrato
 tr  - trill
 T   - tap
 TP  - trem. picking
 PM  - palm muting
\n/  - tremolo bar dip; n = amount to dip
 \n  - tremolo bar down
 n/  - tremolo bar up
/n\  - tremolo bar inverted dip
 =   - hold bend; also acts as connecting device for hammers/pulls
 <> - volume swell (louder/softer)
 x   - on rhythm slash represents muted slash
 o   - on rhythm slash represents single note slash

Misc Legend
-----------
 |  - bar
||  - double bar
||o - repeat start
o|| - repeat end
*|  - double bar (ending)
 :  - bar (freetime)
 $  - Segno
 &  - Coda
Tempo markers - <E/E./Q/Q./H/H.> = BPM(8/16=s8/s16), where s8 = swing 8ths, s16 = swing 16ths



--------------------------------------------------------------------------------

** Generated using Power Tab Editor by Brad Larsen: The Official Power Tab Web Site
comments
We did not receive enough feedback on this tab! Please rate:
print report bad tab
1 2 3 4 5
3 comments total.
0 reply
Tasman wrote on August 12 2008, 04:58 am

4 Eighth notes ≠ bar.

0 reply
afi931 wrote on September 2 2008, 01:56 pm

here's something. THEY HAVE 2 GUITAR PLAYERS. not 4.

0 reply
Niki (guitar) wrote on December 20 2008, 12:23 am

Afi931, it's called overdubbing. Meaning they record multiple guitar parts for the song, usually just extra fillers to make it a little more interesting.

I want to post or [tab]
guest
You may want to rate the tab now too:
select rating
Please do not post tabs as comments. Select "correction" instead!