Oops, an error
Loading. Please wait.

Sticks And Bricks Tab

ver2
ver2

Whole song

More versions @911Tabs.com
4,673 views 1 this week
no commentswrite comment
1 2 3 4 5
poor
x 1
add to favorites launch autoscroll
font size
0
reset
Autoscroll
+/-
esc
set tempo
stop
Contributor
Difficulty
Tuning
intermediate
B F# B E G# C#
WARNING: You are trying to view
                                    content from Ultimate-Guitar.com
                                    in an unauthorized application,
                                    which is prohibited.

                                    Please use an official Ultimate
                                    Guitar Tabs application for iPhone,
                                    iPad or Android to access legitimate
                                    chords, guitar, bass, and drum tabs
                                    from Ultimate-Guitar.com database.

                                    Type "ultimate guitar tabs" in Apple
                                    App Store's or Android Market's
                                    search to find the application.
Sticks & Bricks by A Day To Remember

Tuning: Drop B

Intro
|------------------------------------------|
|------------------------------------------|
|------------------------------------------|
|------------------------------------------|
|-0-------1--1-------0--1--0-------------0-|
|-0-------1--1-------0--1--0--0--0-0-0-0-0-|

|---------------------------------------------|
|---------------------------------------------|
|---------------------------------------------|
|---------------------------------------------|
|-1--0-----------------0--1--0--------------0-|
|-1--0--0-0-0--0-0-0---0--1--0---0--0-0-0-0-0-|

|----------------------------------------------|
|----------------------------------------------|
|----------------------------------------------|
|----------------------------------------------|
|-4-4-4-4-1-1-1---0--1--0--------------0--1--0-|
|-4-4-4-4-1-1-1---0--1--0---0--0-0-0-0-0--1--0-|

|------------------------------------------------------|
|------------------------------------------------------|
|------------------------------------------------------|
|------------------------------------------------------|
|----------------0--1--0--------------0--4-4-4-4-1-1-1-|
|-0-0-0--0-0-0---0--1--0---0--0-0-0-0-0--4-4-4-4-1-1-1-|


Verse
|--------------------------------------------------|
|--------------------------------------------------|
|--------------------------------------------------|
|--------------------------------------------------|
|------------------1-----0-----1-----0-----1--4--1-|
|-0-0-0--0-0-0--0--1--0--0--0--1--0--0--0--1--4--1-|

|-------------------------------------------------|
|-------------------------------------------------|
|-------------------------------------------------|
|-------------------------------------------------|
|------------------1-----0-------------1--4--4--4-|
|-0-0-0--0-0-0--0--1--0--0---0--1-1-1--1--4--4--4-|

|--------------------------------------------------|
|--------------------------------------------------|
|--------------------------------------------------|
|--------------------------------------------------|
|------------------1-----0-----1-----0-----1--4--1-|
|-0-0-0--0-0-0--0--1--0--0--0--1--0--0--0--1--4--1-|

|-------------------------------------------------|
|-------------------------------------------------|
|-------------------------------------------------|
|-------------------------------------------------|
|------------------1-----0-------------1--4--4--4-|
|-0-0-0--0-0-0--0--1--0--0---0--1-1-1--1--4--4--4-|

Pre-Chorus
|--------------------------------------------|
|--------------------------------------------|
|--------------------------------------------|
|--------------------------------------------|
|--------------------------------------------|
|-0-0-0-0-0--0-0-0-0-0--0-0-0-0-0--0-0-0-0-0-|

|------------------------------------------------|
|------------------------------------------------|
|------------------------------------------------|
|------------------------------------------------|
|------------------------------------------------|
|-0-0-0-0-0-0-0-0--0-0-0-0-0--0-0-0-0-0--0-0-0-0-|

|-----------------------------------------------------|
|-----------------------------------------------------|
|-----------------------------------------------------|
|-----------------------------------------------------|
|-----------------------------------------------------|
|-0--0-0-0-0-0--0-0-0-0-0-0-0-0--4-4-4-4-4--4-4-4-4-4-|

|---------------------------------------------------|
|---------------------------------------------------|
|---------------------------------------------------|
|---------------------------------------------------|
|---------------------------------------------------|
|-4-4-4-4--4--4-4-4-4-4--4-4-4-4-4-4-4-4--7-7-7-7-7-|

|--------------------------------------------------|
|--------------------------------------------------|
|--------------------------------------------------|
|--------------------------------------------------|
|--------------------------------------------------|
|-7-7-7-7-7--7-7-7-7-7--7-7-7-7-7--7-7-7-7-7-7-7-7-|

Chorus
|---------------------------------------------------|
|---------------------------------------------------|
|---------------------------------------------------|
|---------------------------------------------------|
|-12--12--7---7-8---8-8--8-8-8-8---15--15-15--15-10-|
|-12--12--7---7-8---8-8--8-8-8-8---15--15-15--15-10-|

|------------------------------------------------------|
|------------------------------------------------------|
|------------------------------------------------------|
|------------------------------------------------------|
|-10-10-10-10-10-10-10--12--12--7---7-8---8-8-8-8---15-|
|-10-10-10-10-10-10-10--12--12--7---7-8---8-8-8-8---15-|

|-------------------------------------|
|-------------------------------------|
|-------------------------------------|
|-------------------------------------|
|-15-15--15-10---10-10-10-10-10-10-10-|
|-15-15--15-10---10-10-10-10-10-10-10-|


Verse
|-----------------------------------------------------|
|-----------------------------------------------------|
|-----------------------------------------------------|
|-----------------------------------------------------|
|-0--1--0--------------0--1--0----------------0--1--0-|
|-0--1--0---0--0-0-0-0-0--------0-0-0--0-0-0--0--1--0-|

|------------------------------------------------------|
|------------------------------------------------------|
|------------------------------------------------------|
|------------------------------------------------------|
|------------0---4-4-4-4-1-1-1---0--1--0-------------0-|
|-0--0-0-0-0-0---4-4-4-4-1-1-1---0--1--0--0--0-0-0-0-0-|

|---------------------------------------------|
|---------------------------------------------|
|---------------------------------------------|
|---------------------------------------------|
|-1--0-----------------0--1--0--------------0-|
|-1--0--0-0-0--0-0-0---0--1--0---0--0-0-0-0-0-|

|-----------------------------------------|
|-----------------------------------------|
|-----------------------------------------|
|-----------------------------------------|
|-4-4-4-4-1-1-1-------------------1-----0-|
|-4-4-4-4-1-1-1--0-0-0--0-0-0--0--1--0--0-|

|--------------------------------------------------|
|--------------------------------------------------|
|--------------------------------------------------|
|--------------------------------------------------|
|----1-----0-----1--4--1-------------------1-----0-|
|-0--1--0--0--0--1--4--1--0-0-0--0-0-0--0--1--0--0-|

|------------------------------------------------------|
|------------------------------------------------------|
|------------------------------------------------------|
|------------------------------------------------------|
|-----------1--4--4--4-------------------1-----0-----1-|
|-0--1-1-1--1--4--4--4--0-0-0--0-0-0--0--1--0--0--0--1-|

|--------------------------------------------------------|
|--------------------------------------------------------|
|--------------------------------------------------------|
|--------------------------------------------------------|
|----0-----1--4--1-------------------1-----0-----------3-|
|-0--0--0--1--4--1--0-0-0--0-0-0--0--1--0--0--0--1-1-1---|


Chorus
|------------------------------------------------------|
|------------------------------------------------------|
|------------------------------------------------------|
|------------------------------------------------------|
|-12--12--7---7-8---8--8---8-8-8-8---15--15-15--15--10-|
|-12--12--7---7-8---8--8---8-8-8-8---15--15-15--15--10-|

|-----------------------------------------------|
|-----------------------------------------------|
|-----------------------------------------------|
|-----------------------------------------------|
|-10-10-10-10-10-10-10---12--12--7---7-8---8--8-|
|-10-10-10-10-10-10-10---12--12--7---7-8---8--8-|

|----------------------------------------------------|
|----------------------------------------------------|
|----------------------------------------------------|
|----------------------------------------------------|
|-8-8-8-8---15--15-15--15--10---10-10-10-10-10-10-10-|
|-8-8-8-8---15--15-15--15--10---10-10-10-10-10-10-10-|

|-----------------------------------------------------|
|-----------------------------------------------------|
|-----------------------------------------------------|
|-----------------------------------------------------|
|-12--12--7---7-8---8--8---8-8-8-8---15--15-15--15-10-|
|-12--12--7---7-8---8--8---8-8-8-8---15--15-15--15-10-|

|-----------------------------------------------|
|-----------------------------------------------|
|-----------------------------------------------|
|-----------------------------------------------|
|-10-10-10-10-10-10-10---12--12--7---7-8---8--8-|
|-10-10-10-10-10-10-10---12--12--7---7-8---8--8-|

|--------------------------------------------------|
|--------------------------------------------------|
|--------------------------------------------------|
|--------------------------------------------------|
|-8-8-8-8---15--15-15--15-10--10-10-10-10-10-10-10-|
|-8-8-8-8---15--15-15--15-10--10-10-10-10-10-10-10-|

|----------------------------------------------------|
|----------------------------------------------------|
|----------------------------------------------------|
|----------------------------------------------------|
|-12--12--7---7-8---8--8--8-8-8-8---15--15-15--15-10-|
|-12--12--7---7-8---8--8--8-8-8-8---15--15-15--15-10-|

|-------------------------------------------------------|
|-------------------------------------------------------|
|-------------------------------------------------------|
|-------------------------------------------------------|
|-10-10-10-10-10-10-10---12--12--7--7-8---8--8--8-8-8-8-|
|-10-10-10-10-10-10-10---12--12--7--7-8---8--8--8-8-8-8-|

|----------------------------------------------------|
|----------------------------------------------------|
|----------------------------------------------------|
|----------------------------------------------------|
|-15--15-15--15--10--10-10-10-10-10-10-10--12--12--7-|
|-15--15-15--15--10--10-10-10-10-10-10-10--12--12--7-|

|----------------------------------------|
|----------------------------------------|
|----------------------------------------|
|----------------------------------------|
|-7-8---8--8--8-8-8-8---15--15-15--15-10-|
|-7-8---8--8--8-8-8-8---15--15-15--15-10-|

|-------------------------|
|-------------------------|
|-------------------------|
|-------------------------|
|-10-10-10-10-10-10-10--0-|
|-10-10-10-10-10-10-10--0-|

Breakdown
|-------------------------------------------------|
|-------------------------------------------------|
|-------------------------------------------------|
|-------------------------------------------------|
|-4--1-----0-----1--4--1---1--0-------------------|
|-4--1--0--0--0--1--4--1---1--0---0-0-0-0-0-0-0-0-|

|---------------------------------------------------|
|---------------------------------------------------|
|---------------------------------------------------|
|---------------------------------------------------|
|-------------------------------------------------1-|
|-1--0---0-0-0-0-0-0-0-0--1--0---0-0-0-0-0-0-0-0--1-|

|---------------------------------------------------|
|---------------------------------------------------|
|---------------------------------------------------|
|---------------------------------------------------|
|-4--1--0--------------------1--0-------------------|
|-4--1--0---0-0-0-0-0-0-0-0--1--0---0-0-0-0-0-0-0-0-|

|-------------------------------------------------------|
|-------------------------------------------------------|
|-------------------------------------------------------|
|-------------------------------------------------------|
|-1--0--------------------4--1-----0-----1--4--1---1--0-|
|-1--0---0-0-0-0-0-0-0-0--4--1--0--0--0--1--4--1---1--0-|

|-----------------------------------------------|
|-----------------------------------------------|
|-----------------------------------------------|
|-----------------------------------------------|
|------------------1--0--------------------1--0-|
|-0-0-0-0-0-0-0-0--1--0---0-0-0-0-0-0-0-0--1--0-|

|-----------------------------------------|
|-----------------------------------------|
|-----------------------------------------|
|-----------------------------------------|
|------------------1--0-------------------|
|-0-0-0-0-0-0-0-0--1--0---0-0-0-0-0-0-0-0-|

|-------------------------------------------------|
|-------------------------------------------------|
|-------------------------------------------------|
|-------------------------------------------------|
|-4--1-----0-----1--4--1---1--0-------------------|
|-4--1--0--0--0--1--4--1---1--0---0-0-0-0-0-0-0-0-|

|---------------------------------------------------------|
|---------------------------------------------------------|
|---------------------------------------------------------|
|---------------------------------------------------------|
|-1--0-------------------1--0-------------------4-4-4-4-4-|
|-1--0--0-0-0-0-0-0-0-0--1--0--0-0-0-0-0-0-0-0--4-4-4-4-4-|

Chorus
|---------------------------------------------------|
|---------------------------------------------------|
|---------------------------------------------------|
|---------------------------------------------------|
|-12--12--7---7-8---8-8--8-8-8-8---15--15-15--15-10-|
|-12--12--7---7-8---8-8--8-8-8-8---15--15-15--15-10-|

|------------------------------------------------------|
|------------------------------------------------------|
|------------------------------------------------------|
|------------------------------------------------------|
|-10-10-10-10-10-10-10--12--12--7---7-8---8-8-8-8---15-|
|-10-10-10-10-10-10-10--12--12--7---7-8---8-8-8-8---15-|

|-------------------------------------|
|-------------------------------------|
|-------------------------------------|
|-------------------------------------|
|-15-15--15-10---10-10-10-10-10-10-10-|
|-15-15--15-10---10-10-10-10-10-10-10-|

|-----------------------------------------------------|
|-----------------------------------------------------|
|-----------------------------------------------------|
|-----------------------------------------------------|
|-0--1--0--------------0---1--0------------------0--1-|
|-0--1--0---0--0-0-0-0-0---1--0---0-0-0--0-0-0---0--1-|

Outro
|----------------------------------|
|----------------------------------|
|----------------------------------|
|----------------------------------|
|-0--------------0---4-4-4-4-1-1-1-|
|-0---0--0-0-0-0-0---4-4-4-4-1-1-1-|
comments
We did not receive enough feedback on this tab! Please rate:
1 2 3 4 5
I want to post or [tab]
guest
You may want to rate the tab now too:
select rating
Please do not post tabs as comments. Select "correction" instead!