Oops, an error
Loading. Please wait.

The Downfall Of Us All Tab

ver6
1,501 views 1 this week
no commentswrite comment
1 2 3 4 5
worth learning
x 1
Autoscroll
+/-
esc
set tempo
stop
Contributor
Difficulty
Tuning
novice
C G C F A D
WARNING: You are trying to view
                                    content from Ultimate-Guitar.com
                                    in an unauthorized application,
                                    which is prohibited.

                                    Please use an official Ultimate
                                    Guitar Tabs application for iPhone,
                                    iPad or Android to access legitimate
                                    chords, guitar, bass, and drum tabs
                                    from Ultimate-Guitar.com database.

                                    Type "ultimate guitar tabs" in Apple
                                    App Store's or Android Market's
                                    search to find the application.
The Downfall Of Us All
A Day To Remember
Homesick (2009)

The Downfall Of Us All:  written by Jeremy McKinnon, Neil Westfall, Tom 
Denney, Joshua Woodward, and Alex Shellnut

GTR I - Drop C Tuning (d,A,F,C,G,C)
GTR II - Drop C Tuning (d,A,F,C,G,C)

Intro

  GTR I
d|-------------------------------------------------|
A|-------------------------------------------------|
F|-------------------------------------------------|
C|-------------------------------------------------|
G|--0--0--0--0--0--0--0--0--0--0--------0--0-------|
C|--0--0--0--0--0--0--0--0--0--0--------0--0-------|
 |  .  .  .  .  .  .  .  .  .  .        .  .
 |GTR II
d|-------------------------------------------------|
A|-------------------------------------------------|
F|-------------------------------------------------|
C|-------------------------------------------------|
G|--0--0--0--0--0--0--0--0--0--0--------0--0-------|
C|--0--0--0--0--0--0--0--0--0--0--------0--0-------|
    .  .  .  .  .  .  .  .  .  .        .  .

  GTR I
d|-------------------------------------------------|
A|-------------------------------------------------|
F|-------------------------------------------------|
C|-------------------------------------------------|
G|--------0-----0-----0-----0--0--------0--0-------|
C|--------0-----0-----0-----0--0--------0--0-------|
 |        .     .     .     .  .        .  .
 |GTR II
d|-------------------------------------------------|
A|-------------------------------------------------|
F|-------------------------------------------------|
C|-------------------------------------------------|
G|--------0-----0-----0-----0--0--------0--0-------|
C|--------0-----0-----0-----0--0--------0--0-------|
          .     .     .     .  .        .  .

  GTR I
d|-------------------------------------------------|
A|-------------------------------------------------|
F|-------------------------------------------------|
C|-------------------------------------------------|
G|--9--9--9--9--9--9--9--9--9--9--------9--9-------|
C|--9--9--9--9--9--9--9--9--9--9--------9--9-------|
 |  .  .  .  .  .  .  .  .  .  .        .  .
 |GTR II
d|-------------------------------------------------|
A|-------------------------------------------------|
F|-------------------------------------------------|
C|-------------------------------------------------|
G|--9--9--9--9--9--9--9--9--9--9--------9--9-------|
C|--9--9--9--9--9--9--9--9--9--9--------9--9-------|
    .  .  .  .  .  .  .  .  .  .        .  .

  GTR I
d|-------------------------------------------------|
A|-------------------------------------------------|
F|-------------------------------------------------|
C|-------------------------------------------------|
G|--5--5--------5--5--------5--5--------------4----|
C|--5--5--------5--5--------5--5--------5h-7-------|
 |  .  .        .  .        .  .
 |GTR II
d|-------------------------------------------------|
A|-------------------------------------------------|
F|-------------------------------------------------|
C|-------------------------------------------------|
G|--5--5--------5--5--------5--5--------------4----|
C|--5--5--------5--5--------5--5--------5h-7-------|
    .  .        .  .        .  .

  GTR I
d|-------------------------------------------------|
A|-------------------------------------------------|
F|-------------------------------------------------|
C|-------------------------------------------------|
G|--0--0--0--0--0--0--0--0--0--0--------0--0-------|
C|--0--0--0--0--0--0--0--0--0--0--------0--0-------|
 |  .  .  .  .  .  .  .  .  .  .        .  .
 |GTR II
d|-------------------------------------------------|
A|-------------------------------------------------|
F|-------------------------------------------------|
C|-------------------------------------------------|
G|--0--0--0--0--0--0--0--0--0--0--------0--0-------|
C|--0--0--0--0--0--0--0--0--0--0--------0--0-------|
    .  .  .  .  .  .  .  .  .  .        .  .

  GTR I
d|-------------------------------------------------|
A|-------------------------------------------------|
F|-------------------------------------------------|
C|-------------------------------------------------|
G|--------0-----0-----0-----0--0--------0--0-------|
C|--------0-----0-----0-----0--0--------0--0-------|
 |        .     .     .     .  .        .  .
 |GTR II
d|-------------------------------------------------|
A|-------------------------------------------------|
F|-------------------------------------------------|
C|-------------------------------------------------|
G|--------0-----0-----0-----0--0--------0--0-------|
C|--------0-----0-----0-----0--0--------0--0-------|
          .     .     .     .  .        .  .

  GTR I
d|-------------------------------------------------|
A|-------------------------------------------------|
F|-------------------------------------------------|
C|-------------------------------------------------|
G|--9--9--9--9--9--9--9--9--9--9--------9--9-------|
C|--9--9--9--9--9--9--9--9--9--9--------9--9-------|
 |  .  .  .  .  .  .  .  .  .  .        .  .
 |GTR II
d|-------------------------------------------------|
A|-------------------------------------------------|
F|-------------------------------------------------|
C|-------------------------------------------------|
G|--9--9--9--9--9--9--9--9--9--9--------9--9-------|
C|--9--9--9--9--9--9--9--9--9--9--------9--9-------|
    .  .  .  .  .  .  .  .  .  .        .  .

  GTR I
d|-------------------------------------------------|
A|-------------------------------------------------|
F|-------------------------------------------------|
C|-------------------------------------------------|
G|--5--5--------5--5--------5--5--------5--5--5--5-|
C|--5--5--------5--5--------5--5--------5--5--5--5-|
 |  .  .        .  .        .  .        .  .  .  .
 |GTR II
d|-------------------------------------------------|
A|-------------------------------------------------|
F|-------------------------------------------------|
C|-------------------------------------------------|
G|--5--5--------5--5--------5--5--------5--5--5--5-|
C|--5--5--------5--5--------5--5--------5--5--5--5-|
    .  .        .  .        .  .        .  .  .  .

Verse

  GTR I
d|-------------------------------------------------|
A|-------------------------------------------------|
F|-------------------------------------------------|
C|--0----------------------------------------------|
G|--0----------------------------------------------|
C|--0----------------------------------------------|
 |
 |GTR II
d|-------------------------------------------------|
A|-------------------------------------------------|
F|-11----------------------------------------------|
C|--x----------------------------------------------|
G|--9----------------------------------------------|
C|--0----------------------------------------------|

  GTR I
d|-------------------------------------------------|
A|-------------------------------------------------|
F|-------------------------------------------------|
C|--9-----------------------5----------------------|
G|--9-----------------------5----------------------|
C|--9-----------------------5----------------------|
 |
 |GTR II
d|-------------------------------------------------|
A|-------------------------------------------------|
F|-11----------------------14----------------------|
C|--x-----------------------x----------------------|
G|--9----------------------12----------------------|
C|--0-----------------------0----------------------|

  GTR I
d|-------------------------------------------------|
A|-------------------------------------------------|
F|-------------------------------------------------|
C|--0----------------------------------------------|
G|--0----------------------------------------------|
C|--0----------------------------------------------|
 |
 |GTR II
d|-------------------------------------------------|
A|-------------------------------------------------|
F|-11----------------------------------------------|
C|--x----------------------------------------------|
G|--9----------------------------------------------|
C|--0----------------------------------------------|

  GTR I
d|-------------------------------------------------|
A|-------------------------------------------------|
F|-------------------------------------------------|
C|--9-----------------------5----------------------|
G|--9-----------------------5----------------------|
C|--9-----------------------5----------------------|
 |
 |GTR II
d|-------------------------------------------------|
A|-------------------------------------------------|
F|-11----------------------14----------------------|
C|--x-----------------------x----------------------|
G|--9----------------------12----------------------|
C|--0-----------------------0----------------------|

Pre Chorus

  GTR I
d|-------------------------------------------------|
A|-------------------------------------------------|
F|-------------------------------------------------|
C|--9-----9-----9-----9-----9-----9-----9-----8----|
C|--9-----9-----9-----9-----9-----9-----9-----8----|
C|--9-----9-----9-----9-----9-----9-----9-----8----|
 |
 |GTR II
d|-------------------------------------------------|
A|-------------------------------------------------|
F|-------------------------------------------------|
C|--9-----9-----9-----9-----9-----9-----9-----8----|
C|--9-----9-----9-----9-----9-----9-----9-----8----|
C|--9-----9-----9-----9-----9-----9-----9-----8----|

  GTR I
d|-------------------------------------------------|
A|-------------------------------------------------|
F|-------------------------------------------------|
C|--------8-----8-----8-----8-----8-----8-----8----|
G|--------8-----8-----8-----8-----8-----8-----8----|
C|--------8-----8-----8-----8-----8-----8-----8----|
 |
 |GTR II
d|-------------------------------------------------|
A|-------------------------------------------------|
F|-------------------------------------------------|
C|--------8-----8-----8-----8-----8-----8-----8----|
G|--------8-----8-----8-----8-----8-----8-----8----|
C|--------8-----8-----8-----8-----8-----8-----8----|

  GTR I
d|-------------------------------------------------|
A|-------------------------------------------------|
F|-------------------------------------------------|
C|--5-----5-----5-----5-----5-----5-----5-----5----|
G|--5-----5-----5-----5-----5-----5-----5-----5----|
C|--5-----5-----5-----5-----5-----5-----5-----5----|
 |
 |GTR II
d|-------------------------------------------------|
A|-------------------------------------------------|
F|-------------------------------------------------|
C|--5-----5-----5-----5-----5-----5-----5-----5----|
G|--5-----5-----5-----5-----5-----5-----5-----5----|
C|--5-----5-----5-----5-----5-----5-----5-----5----|

  GTR I
d|-------------------------------------------------|
A|-------------------------------------------------|
F|-------------------------------------------------|
C|-------------------------------------------------|
G|-------------------------------------------------|
C|--0-----0-----2-----4-----2-----2----0-----0-----|
 |
 |GTR II
d|-------------------------------------------------|
A|-------------------------------------------------|
F|-------------------------------------------------|
C|-------------------------------------------------|
G|-------------------------------------------------|
C|--0-----0-----2-----4-----2-----2----0-----0-----|

  GTR I
d|-------------------------------------------------|
A|-------------------------------------------------|
F|-------------------------------------------------|
C|--9-----9-----9-----9-----9-----9-----9-----8----|
C|--9-----9-----9-----9-----9-----9-----9-----8----|
C|--9-----9-----9-----9-----9-----9-----9-----8----|
 |
 |GTR II
d|-------------------------------------------------|
A|-------------------------------------------------|
F|-------------------------------------------------|
C|--9-----9-----9-----9-----9-----9-----9-----8----|
C|--9-----9-----9-----9-----9-----9-----9-----8----|
C|--9-----9-----9-----9-----9-----9-----9-----8----|

  GTR I
d|-------------------------------------------------|
A|-------------------------------------------------|
F|-------------------------------------------------|
C|--------------------------------5-----5-----5----|
G|--------5-----5-----5-----5-----5-----5-----5----|
C|--------5-----5-----5-----5-----5-----5-----5----|
 |        .     .     .      
 |GTR II
d|-------------------------------------------------|
A|-------------------------------------------------|
F|-------------------------------------------------|
C|--------------------------------5-----5-----5----|
G|--------5-----5-----5-----5-----5-----5-----5----|
C|--------5-----5-----5-----5-----5-----5-----5----|
          .     .     .      

Chorus

  GTR I
d|-------------------------------------------------|
A|-------------------------------------------------|
F|-------------------------------------------------|
C|--0--0--0--2--2--0--0--5--5--0--0--7--7--7--7--7-|
G|--0--0--0--2--2--0--0--5--5--0--0--7--7--7--7--7-|
C|--0--0--0--2--2--0--0--5--5--0--0--7--7--7--7--7-|
 |
 |GTR II
d|-------------------------------------------------|
A|-------------------------------------------------|
F|--7--7--7--9--9--7--7-12-12--7--7-14-14-14-14-14-|
C|--x--x--x--x--x--x--x--x--x--x--x--x--x--x--x--x-|
G|--5--5--5--7--7--5--5-10-10--5--5-12-12-12-12-12-|
C|-------------------------------------------------|

  GTR I
d|-------------------------------------------------|
A|-------------------------------------------------|
F|-------------------------------------------------|
C|--0--0--0--2--2--2--2--0--5--5--5--5--5--5--5--5-|
G|--0--0--0--2--2--2--2--0--5--5--5--5--5--5--5--5-|
C|--0--0--0--2--2--2--2--0--5--5--5--5--5--5--5--5-|
 |
 |GTR II
d|-------------------------------------------------|
A|-------------------------------------------------|
F|--7--7--7--9--9--9--9--7-12-12-12-12-12-12-12-12-|
C|--x--x--x--x--x--x--x--x--x--x--x--x--x--x--x--x-|
G|--5--5--5--7--7--7--7--5-10-10-10-10-10-10-10-10-|
C|-------------------------------------------------|

  GTR I
d|-------------------------------------------------|
A|-------------------------------------------------|
F|-------------------------------------------------|
C|--0--0--0--2--2--0--0--5--5--0--0--7--7--7--7--7-|
G|--0--0--0--2--2--0--0--5--5--0--0--7--7--7--7--7-|
C|--0--0--0--2--2--0--0--5--5--0--0--7--7--7--7--7-|
 |
 |GTR II
d|-------------------------------------------------|
A|-------------------------------------------------|
F|--7--7--7--9--9--7--7-12-12--7--7-14-14-14-14-14-|
C|--x--x--x--x--x--x--x--x--x--x--x--x--x--x--x--x-|
G|--5--5--5--7--7--5--5-10-10--5--5-12-12-12-12-12-|
C|-------------------------------------------------|

  GTR I
d|-------------------------------------------------|
A|-------------------------------------------------|
F|-------------------------------------------------|
C|--0--0--0--2--2--2--2--0--5--5--5--5--5--5--5--5-|
G|--0--0--0--2--2--2--2--0--5--5--5--5--5--5--5--5-|
C|--0--0--0--2--2--2--2--0--5--5--5--5--5--5--5--5-|
 |
 |GTR II
d|-------------------------------------------------|
A|-------------------------------------------------|
F|--7--7--7--9--9--9--9--7-12-12-12-12-12-12-12-12-|
C|--x--x--x--x--x--x--x--x--x--x--x--x--x--x--x--x-|
G|--5--5--5--7--7--7--7--5-10-10-10-10-10-10-10-10-|
C|-------------------------------------------------|

  GTR I
d|-------------------------------------------------|
A|-------------------------------------------------|
F|-------------------------------------------------|
C|--2--2--2--2--2--2--2--0--5--5-------------------|
G|--2--2--2--2--2--2--2--0--5--5-------------------|
C|--2--2--2--2--2--2--2--0--5--5-------------------|
 |
 |GTR II
d|-------------------------------------------------|
A|-------------------------------------------------|
F|--9--9--9--9--9--9--9--7-12-12-------------------|
C|--x--x--x--x--x--x--x--x--x--x-------------------|
G|--7--7--7--7--7--7--7--5-10-10-------------------|
C|-------------------------------------------------|

Pre Verse

  GTR I
d|-------------------------------------------------|
A|-------------------------------------------------|
F|-------------------------------------------------|
C|-------------------------------------------------|
G|--0--0--0--0--0--0--0--0--0--0--------0--0-------|
C|--0--0--0--0--0--0--0--0--0--0--------0--0-------|
 |  .  .  .  .  .  .  .  .  .  .        .  .
 |GTR II
d|-------------------------------------------------|
A|-------------------------------------------------|
F|-------------------------------------------------|
C|-------------------------------------------------|
G|--0--0--0--0--0--0--0--0--0--0--------0--0-------|
C|--0--0--0--0--0--0--0--0--0--0--------0--0-------|
    .  .  .  .  .  .  .  .  .  .        .  .

  GTR I
d|-------------------------------------------------|
A|-------------------------------------------------|
F|-------------------------------------------------|
C|-------------------------------------------------|
G|--------0-----0-----0-----0--0--------0--0-------|
C|--------0-----0-----0-----0--0--------0--0-------|
 |        .     .     .     .  .        .  .
 |GTR II
d|-------------------------------------------------|
A|-------------------------------------------------|
F|-------------------------------------------------|
C|-------------------------------------------------|
G|--------0-----0-----0-----0--0--------0--0-------|
C|--------0-----0-----0-----0--0--------0--0-------|
          .     .     .     .  .        .  .

  GTR I
d|-------------------------------------------------|
A|-------------------------------------------------|
F|-------------------------------------------------|
C|-------------------------------------------------|
G|--9--9--9--9--9--9--9--9--9--9--------9--9-------|
C|--9--9--9--9--9--9--9--9--9--9--------9--9-------|
 |  .  .  .  .  .  .  .  .  .  .        .  .
 |GTR II
d|-------------------------------------------------|
A|-------------------------------------------------|
F|-------------------------------------------------|
C|-------------------------------------------------|
G|--9--9--9--9--9--9--9--9--9--9--------9--9-------|
C|--9--9--9--9--9--9--9--9--9--9--------9--9-------|
    .  .  .  .  .  .  .  .  .  .        .  .

  GTR I
d|-------------------------------------------------|
A|-------------------------------------------------|
F|-------------------------------------------------|
C|-------------------------------------------------|
G|--5--5--------5--5--------5--5--------------4----|
C|--5--5--------5--5--------5--5--------5h-7-------|
 |  .  .        .  .        .  .
 |GTR II
d|-------------------------------------------------|
A|-------------------------------------------------|
F|-------------------------------------------------|
C|-------------------------------------------------|
G|--5--5--------5--5--------5--5--------------4----|
C|--5--5--------5--5--------5--5--------5h-7-------|
    .  .        .  .        .  .

  GTR I
d|-------------------------------------------------|
A|-------------------------------------------------|
F|-------------------------------------------------|
C|-------------------------------------------------|
G|--0--0--0--0--0--0--0--0--0--0--------0--0-------|
C|--0--0--0--0--0--0--0--0--0--0--------0--0-------|
 |  .  .  .  .  .  .  .  .  .  .        .  .
 |GTR II
d|-------------------------------------------------|
A|-------------------------------------------------|
F|-------------------------------------------------|
C|-------------------------------------------------|
G|--0--0--0--0--0--0--0--0--0--0--------0--0-------|
C|--0--0--0--0--0--0--0--0--0--0--------0--0-------|
    .  .  .  .  .  .  .  .  .  .        .  .

  GTR I
d|-------------------------------------------------|
A|-------------------------------------------------|
F|-------------------------------------------------|
C|-------------------------------------------------|
G|--------0-----0-----0-----0--0--------0--0-------|
C|--------0-----0-----0-----0--0--------0--0-------|
 |        .     .     .     .  .        .  .
 |GTR II
d|-------------------------------------------------|
A|-------------------------------------------------|
F|-------------------------------------------------|
C|-------------------------------------------------|
G|--------0-----0-----0-----0--0--------0--0-------|
C|--------0-----0-----0-----0--0--------0--0-------|
          .     .     .     .  .        .  .

  GTR I
d|-------------------------------------------------|
A|-------------------------------------------------|
F|-------------------------------------------------|
C|-------------------------------------------------|
G|--9--9--9--9--9--9--9--9--9--9--------9--9-------|
C|--9--9--9--9--9--9--9--9--9--9--------9--9-------|
 |  .  .  .  .  .  .  .  .  .  .        .  .
 |GTR II
d|-------------------------------------------------|
A|-------------------------------------------------|
F|-------------------------------------------------|
C|-------------------------------------------------|
G|--9--9--9--9--9--9--9--9--9--9--------9--9-------|
C|--9--9--9--9--9--9--9--9--9--9--------9--9-------|
    .  .  .  .  .  .  .  .  .  .        .  .

  GTR I
d|-------------------------------------------------|
A|-------------------------------------------------|
F|-------------------------------------------------|
C|-------------------------------------------------|
G|--5--5--------5--5--------x\---------------------|
C|--5--5--------5--5--------x\---------------------|
 |  .  .        .  .                              
 |GTR II
d|-------------------------------------------------|
A|-------------------------------------------------|
F|-------------------------------------------------|
C|-------------------------------------------------|
G|--5--5--------5--5--------x\---------------------|
C|--5--5--------5--5--------x\---------------------|
    .  .        .  .                              

Verse 2

  GTR I
d|-------------------------------------------------|
A|-------------------------------------------------|
F|-------------------------------------------------|
C|--0----------------------------------------------|
G|--0----------------------------------------------|
C|--0----------------------------------------------|
 |
 |GTR II
d|-------------------------------------------------|
A|-------------------------------------------------|
F|-------------------------------------------------|
C|-------------------------------------------------|
G|-------------------------------------------------|
C|-------------------------------------------------|

  GTR I
d|-------------------------------------------------|
A|-------------------------------------------------|
F|-------------------------------------------------|
C|--9-----------------------5----------------------|
G|--9-----------------------5----------------------|
C|--9-----------------------5----------------------|
 |
 |GTR II
d|-------------------------------------------------|
A|-------------------------------------------------|
F|-------------------------------------------------|
C|-------------------------------------------------|
G|-------------------------------------------------|
C|-------------------------------------------------|

  GTR I
d|-------------------------------------------------|
A|-------------------------------------------------|
F|-------------------------------------------------|
C|-------------------------------------------------|
G|--0--0-------------------------------------------|
C|--0--0-------------------------------------------|
 |  .  .
 |GTR II
d|-------------------------------------------------|
A|-------------------------------------------------|
F|-------------------------------------------------|
C|--0--0--4h-5--0--0--5p-4--0--0--7p-4--0--0--5p-4-|
G|-------------------------------------------------|
C|-------------------------------------------------|
    .  .        .  .        .  .        .  .

  GTR I
d|-------------------------------------------------|
A|-------------------------------------------------|
F|-------------------------------------------------|
C|-------------------------------------------------|
G|--0--0-------------------------------------------|
C|--0--0-------------------------------------------|
 |  .  .
 |GTR II
d|-------------------------------------------------|
A|-------------------------------------------------|
F|-------------------------------------------------|
C|--0--0--4h-5--0--0--5p-4--0--0--2h-4--0--0--4p-2-|
G|-------------------------------------------------|
C|-------------------------------------------------|
    .  .        .  .        .  .        .  .

  GTR I
d|-------------------------------------------------|
A|-------------------------------------------------|
F|-------------------------------------------------|
C|-------------------------------------------------|
G|--9--9--------------------9--9-------------------|
C|--9--9--------------------9--9-------------------|
 |  .  .                    .  .
 |GTR II
d|-------------------------------------------------|
A|-------------------------------------------------|
F|-------------------------------------------------|
C|--0--0--4h-5--0--0--5p-4--0--0--7p-4--0--0--5p-4-|
G|-------------------------------------------------|
C|-------------------------------------------------|
    .  .        .  .        .  .        .  .

d|-------------------------------------------------|
A|-------------------------------------------------|
F|-------------------------------------------------|
C|-------------------------------------------------|
G|--5--5--------------------5--5-------12\---------|
C|--5--5--------------------5--5-------12\---------|
 |  .  .                    .  . 
 |GTR II
d|-------------------------------------------------|
A|-------------------------------------------------|
F|-------------------------------------------------|
C|--0--0--4h-5--0--0--5p-4--0--0--2h-4-------------|
G|-------------------------------------------------|
C|-------------------------------------------------|
    .  .        .  .        .  .            

Pre Chorus 2

  GTR I
d|-------------------------------------------------|
A|-------------------------------------------------|
F|-------------------------------------------------|
C|--9-----9-----9-----9-----9-----9-----9-----8----|
C|--9-----9-----9-----9-----9-----9-----9-----8----|
C|--9-----9-----9-----9-----9-----9-----9-----8----|
 |
 |GTR II
d|-------------------------------------------------|
A|-------------------------------------------------|
F|-------------------------------------------------|
C|--9-----9-----9-----9-----9-----9-----9-----8----|
C|--9-----9-----9-----9-----9-----9-----9-----8----|
C|--9-----9-----9-----9-----9-----9-----9-----8----|

  GTR I
d|-------------------------------------------------|
A|-------------------------------------------------|
F|-------------------------------------------------|
C|--------8-----8-----8-----8-----8-----8-----8----|
G|--------8-----8-----8-----8-----8-----8-----8----|
C|--------8-----8-----8-----8-----8-----8-----8----|
 |
 |GTR II
d|-------------------------------------------------|
A|-------------------------------------------------|
F|-------------------------------------------------|
C|--------8-----8-----8-----8-----8-----8-----8----|
G|--------8-----8-----8-----8-----8-----8-----8----|
C|--------8-----8-----8-----8-----8-----8-----8----|

  GTR I
d|-------------------------------------------------|
A|-------------------------------------------------|
F|-------------------------------------------------|
C|--5-----5-----5-----5-----5-----5-----5-----5----|
G|--5-----5-----5-----5-----5-----5-----5-----5----|
C|--5-----5-----5-----5-----5-----5-----5-----5----|
 |
 |GTR II
d|-------------------------------------------------|
A|-------------------------------------------------|
F|-------------------------------------------------|
C|--5-----5-----5-----5-----5-----5-----5-----5----|
G|--5-----5-----5-----5-----5-----5-----5-----5----|
C|--5-----5-----5-----5-----5-----5-----5-----5----|

  GTR I
d|-------------------------------------------------|
A|-------------------------------------------------|
F|-------------------------------------------------|
C|-------------------------------------------------|
G|-------------------------------------------------|
C|--0-----0-----2-----4-----2-----2----0-----0-----|
 |
 |GTR II
d|-------------------------------------------------|
A|-------------------------------------------------|
F|-------------------------------------------------|
C|-------------------------------------------------|
G|-------------------------------------------------|
C|--0-----0-----2-----4-----2-----2----0-----0-----|

  GTR I
d|-------------------------------------------------|
A|-------------------------------------------------|
F|-------------------------------------------------|
C|--9-----9-----------9--9--9-----9--------9-----8-|
C|--9-----9-----------9--9--9-----9--------9-----8-|
C|--9-----9-----------9--9--9-----9--------9-----8-|
 |
 |GTR II
d|-------------------------------------------------|
A|-------------------------------------------------|
F|-------------------------------------------------|
C|--9-----9-----------9--9--9-----9--------9-----8-|
C|--9-----9-----------9--9--9-----9--------9-----8-|
C|--9-----9-----------9--9--9-----9--------9-----8-|

  GTR I
d|-------------------------------------------------|
A|-------------------------------------------------|
F|-------------------------------------------------|
C|-------------------------------------------------|
G|-------------------------------------------------|
C|-------------------------------------------------|
 |                           
 |GTR II
d|-------------------------------------------------|
A|-------------------------------------------------|
F|-------------------------------------------------|
C|-------------------------------------------------|
G|-------------------------------------------------|
C|-------------------------------------------------|
                             
Chorus

  GTR I
d|-------------------------------------------------|
A|-------------------------------------------------|
F|-------------------------------------------------|
C|--0--0--0--2--2--0--0--5--5--0--0--7--7--7--7--7-|
G|--0--0--0--2--2--0--0--5--5--0--0--7--7--7--7--7-|
C|--0--0--0--2--2--0--0--5--5--0--0--7--7--7--7--7-|
 |
 |GTR II
d|-------------------------------------------------|
A|-------------------------------------------------|
F|--7--7--7--9--9--7--7-12-12--7--7-14-14-14-14-14-|
C|--x--x--x--x--x--x--x--x--x--x--x--x--x--x--x--x-|
G|--5--5--5--7--7--5--5-10-10--5--5-12-12-12-12-12-|
C|-------------------------------------------------|

  GTR I
d|-------------------------------------------------|
A|-------------------------------------------------|
F|-------------------------------------------------|
C|--0--0--0--2--2--2--2--0--5--5--5--5--5--5--5--5-|
G|--0--0--0--2--2--2--2--0--5--5--5--5--5--5--5--5-|
C|--0--0--0--2--2--2--2--0--5--5--5--5--5--5--5--5-|
 |
 |GTR II
d|-------------------------------------------------|
A|-------------------------------------------------|
F|--7--7--7--9--9--9--9--7-12-12-12-12-12-12-12-12-|
C|--x--x--x--x--x--x--x--x--x--x--x--x--x--x--x--x-|
G|--5--5--5--7--7--7--7--5-10-10-10-10-10-10-10-10-|
C|-------------------------------------------------|

  GTR I
d|-------------------------------------------------|
A|-------------------------------------------------|
F|-------------------------------------------------|
C|--0--0--0--2--2--0--0--5--5--0--0--7--7--7--7--7-|
G|--0--0--0--2--2--0--0--5--5--0--0--7--7--7--7--7-|
C|--0--0--0--2--2--0--0--5--5--0--0--7--7--7--7--7-|
 |
 |GTR II
d|-------------------------------------------------|
A|-------------------------------------------------|
F|--7--7--7--9--9--7--7-12-12--7--7-14-14-14-14-14-|
C|--x--x--x--x--x--x--x--x--x--x--x--x--x--x--x--x-|
G|--5--5--5--7--7--5--5-10-10--5--5-12-12-12-12-12-|
C|-------------------------------------------------|

  GTR I
d|-------------------------------------------------|
A|-------------------------------------------------|
F|-------------------------------------------------|
C|--0--0--0--2--2--2--2--0--5--5--5--5--5--5--5--5-|
G|--0--0--0--2--2--2--2--0--5--5--5--5--5--5--5--5-|
C|--0--0--0--2--2--2--2--0--5--5--5--5--5--5--5--5-|
 |
 |GTR II
d|-------------------------------------------------|
A|-------------------------------------------------|
F|--7--7--7--9--9--9--9--7-12-12-12-12-12-12-12-12-|
C|--x--x--x--x--x--x--x--x--x--x--x--x--x--x--x--x-|
G|--5--5--5--7--7--7--7--5-10-10-10-10-10-10-10-10-|
C|-------------------------------------------------|

  GTR I
d|-------------------------------------------------|
A|-------------------------------------------------|
F|-------------------------------------------------|
C|--2--2--2--2--2--2--2--0--5--5--5--5--5--5--5--5-|
G|--2--2--2--2--2--2--2--0--5--5--5--5--5--5--5--5-|
C|--2--2--2--2--2--2--2--0--5--5--5--5--5--5--5--5-|
 |
 |GTR II
d|-------------------------------------------------|
A|-------------------------------------------------|
F|--9--9--9--9--9--9--9--7-12-12-12-12-12-12-12-12-|
C|--x--x--x--x--x--x--x--x--x--x--x--x--x--x--x--x-|
G|--7--7--7--7--7--7--7--5-10-10-10-10-10-10-10-10-|
C|-------------------------------------------------|

Bridge 1

  GTR I
d|-------------------------------------------------|
A|-------------------------------------------------|
F|-------------------------------------------------|
C|--0-----0-----0-----0-----0----------------------|
G|--0-----0-----0-----0-----0----10-----9----------|
C|--0-----0-----0-----0-----0----------------------|
 |
 |GTR II
d|--------------5----------------------------------|
A|--------5-----------5-----------8-----7----------|
F|--7-----------------------7----------------------|
C|-------------------------------------------------|
G|-------------------------------------------------|
C|-------------------------------------------------|

  GTR I
d|-------------------------------------------------|
A|-------------------------------------------------|
F|-------------------------------------------------|
C|--0-----0-----0-----0----------------------------|
G|--0-----0-----0-----0----10-----9----------------|
C|--0-----0-----0-----0----------------------------|
 |
 |GTR II
d|--------5----------------------------------------|
A|--------------5-----------8-----7----------------|
F|--7-----------------7----------------------------|
C|-------------------------------------------------|
G|-------------------------------------------------|
C|-------------------------------------------------|

  GTR I
d|-------------------------------------------------|
A|-------------------------------------------------|
F|-------------------------------------------------|
C|--5-----5-----5-----5-----5----------------------|
G|--5-----5-----5-----5-----5----10-----9----------|
C|--5-----5-----5-----5-----5----------------------|
 |
 |GTR II
d|--------------5----------------------------------|
A|--------5-----------5-----------8-----7----------|
F|--7-----------------------7----------------------|
C|-------------------------------------------------|
G|-------------------------------------------------|
C|-------------------------------------------------|

  GTR I
d|-------------------------------------------------|
A|-------------------------------------------------|
F|-------------------------------------------------|
C|--7-----7-----7-----7----------------------------|
G|--7-----7-----7-----7-----4-----4-----5----------|
C|--7-----7-----7-----7----------------------------|
 |
 |GTR II
d|--------5----------------------------------------|
A|--------------5----------------------------------|
F|--7-----------------7-----6-----6-----7----------|
C|-------------------------------------------------|
G|-------------------------------------------------|
C|-------------------------------------------------|

  GTR I
d|-------------------------------------------------|
A|-------------------------------------------------|
F|-------------------------------------------------|
C|--0-----0-----0-----0-----0----------------------|
G|--0-----0-----0-----0-----0----10-----9----------|
C|--0-----0-----0-----0-----0----------------------|
 |
 |GTR II
d|--------------5----------------------------------|
A|--------5-----------5-----------8-----7----------|
F|--7-----------------------7----------------------|
C|-------------------------------------------------|
G|-------------------------------------------------|
C|-------------------------------------------------|

  GTR I
d|-------------------------------------------------|
A|-------------------------------------------------|
F|-------------------------------------------------|
C|--0-----0-----0-----0----------------------------|
G|--0-----0-----0-----0----10-----9----------------|
C|--0-----0-----0-----0----------------------------|
 |
 |GTR II
d|--------5----------------------------------------|
A|--------------5-----------8-----7----------------|
F|--7-----------------7----------------------------|
C|-------------------------------------------------|
G|-------------------------------------------------|
C|-------------------------------------------------|

  GTR I
d|-------------------------------------------------|
A|-------------------------------------------------|
F|-------------------------------------------------|
C|--5-----5-----5-----5-----5----------------------|
G|--5-----5-----5-----5-----5----10-----9----------|
C|--5-----5-----5-----5-----5----------------------|
 |
 |GTR II
d|--------------5----------------------------------|
A|--------5-----------5-----------8-----7----------|
F|--7-----------------------7----------------------|
C|-------------------------------------------------|
G|-------------------------------------------------|
C|-------------------------------------------------|

  GTR I
d|-------------------------------------------------|
A|-------------------------------------------------|
F|-------------------------------------------------|
C|--7-----7-----7-----7----------------------------|
G|--7-----7-----7-----7-----4-----4-----5----------|
C|--7-----7-----7-----7----------------------------|
 |
 |GTR II
d|--------5----------------------------------------|
A|--------------5----------------------------------|
F|--7-----------------7-----6-----6-----7----------|
C|-------------------------------------------------|
G|-------------------------------------------------|
C|-------------------------------------------------|

Bridge 2

  GTR I
d|-------------------------------------------------|
A|-------------------------------------------------|
F|-------------------------------------------------|
C|-------------------------------------------------|
G|--0--0--0--0--0--0--0--0--0----10-----9----------|
C|--0--0--0--0--0--0--0--0--0----------------------|
 |  .  .  .  .  .  .  .  .  .
 |GTR II
d|-------------------------------------------------|
A|-------------------------------------------------|
F|-------------------------------------------------|
C|-------------------------------------------------|
G|--0--0--0--0--0--0--0--0--0-----4-----5----------|
C|--0--0--0--0--0--0--0--0--0----------------------|
    .  .  .  .  .  .  .  .  .

  GTR I
d|-------------------------------------------------|
A|-------------------------------------------------|
F|-------------------------------------------------|
C|-------------------------------------------------|
G|--0--0--0--0--0--0--0----10-----9----------------|
C|--0--0--0--0--0--0--0----------------------------|
 |  .  .  .  .  .  .  .      
 |GTR II
d|-------------------------------------------------|
A|-------------------------------------------------|
F|-------------------------------------------------|
C|-------------------------------------------------|
G|--0--0--0--0--0--0--0-----4-----5----------------|
C|--0--0--0--0--0--0--0----------------------------|
    .  .  .  .  .  .  .      

  GTR I
d|-------------------------------------------------|
A|-------------------------------------------------|
F|-------------------------------------------------|
C|-------------------------------------------------|
G|--5--5--5--5--5--5--5--5--5----10-----9----------|
C|--5--5--5--5--5--5--5--5--5----------------------|
 |  .  .  .  .  .  .  .  .  .
 |GTR II
d|-------------------------------------------------|
A|-------------------------------------------------|
F|-------------------------------------------------|
C|-------------------------------------------------|
G|--5--5--5--5--5--5--5--5--5-----4-----5----------|
C|--5--5--5--5--5--5--5--5--5----------------------|
    .  .  .  .  .  .  .  .  .

  GTR I
d|-------------------------------------------------|
A|-------------------------------------------------|
F|-------------------------------------------------|
C|-------------------------------------------------|
G|--7--7--------7--7--------------7-----7--7-------|
C|--7--7--------7--7--------------7-----7--7-------|
 |  .  .        .  .              .     .  .
 |GTR II
d|-------------------------------------------------|
A|-------------------------------------------------|
F|-------------------------------------------------|
C|-------------------------------------------------|
G|--7--7--------7--7--------------7-----7--7-------|
C|--7--7--------7--7--------------7-----7--7-------|
    .  .        .  .              .     .  .

  GTR I
d|-------------------------------------------------|
A|-------------------------------------------------|
F|-------------------------------------------------|
C|-------------------------------------------------|
G|--0--0--0--0--0--0--0--0--0----10-----9----------|
C|--0--0--0--0--0--0--0--0--0----------------------|
 |  .  .  .  .  .  .  .  .  .
 |GTR II
d|-------------------------------------------------|
A|-------------------------------------------------|
F|-------------------------------------------------|
C|-------------------------------------------------|
G|--0--0--0--0--0--0--0--0--0-----4-----5----------|
C|--0--0--0--0--0--0--0--0--0----------------------|
    .  .  .  .  .  .  .  .  .

  GTR I
d|-------------------------------------------------|
A|-------------------------------------------------|
F|-------------------------------------------------|
C|-------------------------------------------------|
G|--0--0--0--0--0--0--0----10-----9----------------|
C|--0--0--0--0--0--0--0----------------------------|
 |  .  .  .  .  .  .  .      
 |GTR II
d|-------------------------------------------------|
A|-------------------------------------------------|
F|-------------------------------------------------|
C|-------------------------------------------------|
G|--0--0--0--0--0--0--0-----4-----5----------------|
C|--0--0--0--0--0--0--0----------------------------|
    .  .  .  .  .  .  .      

  GTR I
d|-------------------------------------------------|
A|-------------------------------------------------|
F|-------------------------------------------------|
C|-------------------------------------------------|
G|--5--5--5--5--5--5--5--5--5----10-----9----------|
C|--5--5--5--5--5--5--5--5--5----------------------|
 |  .  .  .  .  .  .  .  .  .
 |GTR II
d|-------------------------------------------------|
A|-------------------------------------------------|
F|-------------------------------------------------|
C|-------------------------------------------------|
G|--5--5--5--5--5--5--5--5--5-----4-----5----------|
C|--5--5--5--5--5--5--5--5--5----------------------|
    .  .  .  .  .  .  .  .  .

  GTR I
d|-------------------------------------------------|
A|-------------------------------------------------|
F|-------------------------------------------------|
C|-------------------------------------------------|
G|--7--7--------7--7--------------7-----7--7-------|
C|--7--7--------7--7--------------7-----7--7-------|
 |  .  .        .  .              .     .  .
 |GTR II
d|-------------------------------------------------|
A|-------------------------------------------------|
F|-------------------------------------------------|
C|-------------------------------------------------|
G|--7--7--------7--7--------------7-----7--7-------|
C|--7--7--------7--7--------------7-----7--7-------|
    .  .        .  .              .     .  .

Chorus 3

  GTR I
d|-------------------------------------------------|
A|-------------------------------------------------|
F|-------------------------------------------------|
C|-------------------------------------------------|
G|-------------------------------------------------|
C|--0--0--0--2--2--0--0--5--5--0--0--7--7--7--7--7-|
 |
 |GTR II
d|-------------------------------------------------|
A|-------------------------------------------------|
F|-------------------------------------------------|
C|-------------------------------------------------|
G|-------------------------------------------------|
C|-------------------------------------------------|

  GTR I
d|-------------------------------------------------|
A|-------------------------------------------------|
F|-------------------------------------------------|
C|-------------------------------------------------|
G|-------------------------------------------------|
C|--0--0--0--2--2--2--2--0--5--5--5--5--5--5--5--5-|
 |
 |GTR II
d|-------------------------------------------------|
A|-------------------------------------------------|
F|-------------------------------------------------|
C|-------------------------------------------------|
G|-------------------------------------------------|
C|-------------------------------------------------|

  GTR I
d|-------------------------------------------------|
A|-------------------------------------------------|
F|-------------------------------------------------|
C|--0--0--0--2--2--0--0--5--5--0--0--7--7--7--7--7-|
G|--0--0--0--2--2--0--0--5--5--0--0--7--7--7--7--7-|
C|--0--0--0--2--2--0--0--5--5--0--0--7--7--7--7--7-|
 |
 |GTR II
d|-------------------------------------------------|
A|-------------------------------------------------|
F|--7--7--7--9--9--7--7-12-12--7--7-14-14-14-14-14-|
C|--x--x--x--x--x--x--x--x--x--x--x--x--x--x--x--x-|
G|--5--5--5--7--7--5--5-10-10--5--5-12-12-12-12-12-|
C|-------------------------------------------------|

  GTR I
d|-------------------------------------------------|
A|-------------------------------------------------|
F|-------------------------------------------------|
C|--0--0--0--2--2--2--2--0--5--5--5--5--5--5--5--5-|
G|--0--0--0--2--2--2--2--0--5--5--5--5--5--5--5--5-|
C|--0--0--0--2--2--2--2--0--5--5--5--5--5--5--5--5-|
 |
 |GTR II
d|-------------------------------------------------|
A|-------------------------------------------------|
F|--7--7--7--9--9--9--9--7-12-12-12-12-12-12-12-12-|
C|--x--x--x--x--x--x--x--x--x--x--x--x--x--x--x--x-|
G|--5--5--5--7--7--7--7--5-10-10-10-10-10-10-10-10-|
C|-------------------------------------------------|

  GTR I
d|-------------------------------------------------|
A|-------------------------------------------------|
F|-------------------------------------------------|
C|--0--0--0--2--2--0--0--5--5--0--0--7--7--7--7--7-|
G|--0--0--0--2--2--0--0--5--5--0--0--7--7--7--7--7-|
C|--0--0--0--2--2--0--0--5--5--0--0--7--7--7--7--7-|
 |
 |GTR II
d|-------------------------------------------------|
A|-------------------------------------------------|
F|--7--7--7--9--9--7--7-12-12--7--7-14-14-14-14-14-|
C|--x--x--x--x--x--x--x--x--x--x--x--x--x--x--x--x-|
G|--5--5--5--7--7--5--5-10-10--5--5-12-12-12-12-12-|
C|-------------------------------------------------|

  GTR I
d|-------------------------------------------------|
A|-------------------------------------------------|
F|-------------------------------------------------|
C|--0--0--0--2--2--2--2--0--5--5--5--5--5--5--5--5-|
G|--0--0--0--2--2--2--2--0--5--5--5--5--5--5--5--5-|
C|--0--0--0--2--2--2--2--0--5--5--5--5--5--5--5--5-|
 |
 |GTR II
d|-------------------------------------------------|
A|-------------------------------------------------|
F|--7--7--7--9--9--9--9--7-12-12-12-12-12-12-12-12-|
C|--x--x--x--x--x--x--x--x--x--x--x--x--x--x--x--x-|
G|--5--5--5--7--7--7--7--5-10-10-10-10-10-10-10-10-|
C|-------------------------------------------------|

  GTR I
d|-------------------------------------------------|
A|-------------------------------------------------|
F|-------------------------------------------------|
C|--0--0--0--2--2--0--0--5--5--0--0--7--7--7--7--7-|
G|--0--0--0--2--2--0--0--5--5--0--0--7--7--7--7--7-|
C|--0--0--0--2--2--0--0--5--5--0--0--7--7--7--7--7-|
 |
 |GTR II
d|-------------------------------------------------|
A|-------------------------------------------------|
F|--7--7--7--9--9--7--7-12-12--7--7-14-14-14-14-14-|
C|--x--x--x--x--x--x--x--x--x--x--x--x--x--x--x--x-|
G|--5--5--5--7--7--5--5-10-10--5--5-12-12-12-12-12-|
C|-------------------------------------------------|

  GTR I
d|-------------------------------------------------|
A|-------------------------------------------------|
F|-------------------------------------------------|
C|--0--0--0--2--2--2--2--0--5--5--5--5--5--5--5--5-|
G|--0--0--0--2--2--2--2--0--5--5--5--5--5--5--5--5-|
C|--0--0--0--2--2--2--2--0--5--5--5--5--5--5--5--5-|
 |
 |GTR II
d|-------------------------------------------------|
A|-------------------------------------------------|
F|--7--7--7--9--9--9--9--7-12-12-12-12-12-12-12-12-|
C|--x--x--x--x--x--x--x--x--x--x--x--x--x--x--x--x-|
G|--5--5--5--7--7--7--7--5-10-10-10-10-10-10-10-10-|
C|-------------------------------------------------|

  GTR I
d|-------------------------------------------------|
A|-------------------------------------------------|
F|-------------------------------------------------|
C|--2--2--2--2--2--2--2--0--5--5--5--5--5--5--5--5-|
G|--2--2--2--2--2--2--2--0--5--5--5--5--5--5--5--5-|
C|--2--2--2--2--2--2--2--0--5--5--5--5--5--5--5--5-|
 |
 |GTR II
d|-------------------------------------------------|
A|-------------------------------------------------|
F|--9--9--9--9--9--9--9--7-12-12-12-12-12-12-12-12-|
C|--x--x--x--x--x--x--x--x--x--x--x--x--x--x--x--x-|
G|--7--7--7--7--7--7--7--5-10-10-10-10-10-10-10-10-|
C|-------------------------------------------------|

  GTR I
d|-------------------------------------------------|
A|-------------------------------------------------|
F|-------------------------------------------------|
C|--2--2--2--2--2--2--2--0--5----------------------|
G|--2--2--2--2--2--2--2--0--5----------------------|
C|--2--2--2--2--2--2--2--0--5----------------------|
 |
 |GTR II
d|-------------------------------------------------|
A|-------------------------------------------------|
F|--9--9--9--9--9--9--9--7-12----------------------|
C|--x--x--x--x--x--x--x--x--x----------------------|
G|--7--7--7--7--7--7--7--5-10----------------------|
C|-------------------------------------------------|

Outro

  GTR I
d|-------------------------------------------------|
A|-------------------------------------------------|
F|-------------------------------------------------|
C|-------------------------------------------------|
G|--0--0--0--0--0--0--0--0--0--0--------0--0-------|
C|--0--0--0--0--0--0--0--0--0--0--------0--0-------|
 |  .  .  .  .  .  .  .  .  .  .        .  .
 |GTR II
d|-------------------------------------------------|
A|-------------------------------------------------|
F|-------------------------------------------------|
C|-------------------------------------------------|
G|--0--0--0--0--0--0--0--0--0--0--------0--0-------|
C|--0--0--0--0--0--0--0--0--0--0--------0--0-------|
    .  .  .  .  .  .  .  .  .  .        .  .

  GTR I
d|-------------------------------------------------|
A|-------------------------------------------------|
F|-------------------------------------------------|
C|-------------------------------------------------|
G|--------0-----0-----0-----0--0--------0--0-------|
C|--------0-----0-----0-----0--0--------0--0-------|
 |        .     .     .     .  .        .  .
 |GTR II
d|-------------------------------------------------|
A|-------------------------------------------------|
F|-------------------------------------------------|
C|-------------------------------------------------|
G|--------0-----0-----0-----0--0--------0--0-------|
C|--------0-----0-----0-----0--0--------0--0-------|
          .     .     .     .  .        .  .

  GTR I
d|-------------------------------------------------|
A|-------------------------------------------------|
F|-------------------------------------------------|
C|-------------------------------------------------|
G|--0--0--0--0--0--0--0--0--0--0--------0--0-------|
C|--0--0--0--0--0--0--0--0--0--0--------0--0-------|
 |  .  .  .  .  .  .  .  .  .  .        .  .
 |GTR II
d|-------------------------------------------------|
A|-------------------------------------------------|
F|-------------------------------------------------|
C|-------------------------------------------------|
G|--0--0--0--0--0--0--0--0--0--0--------0--0-------|
C|--0--0--0--0--0--0--0--0--0--0--------0--0-------|
    .  .  .  .  .  .  .  .  .  .        .  .

  GTR I
d|-------------------------------------------------|
A|-------------------------------------------------|
F|-------------------------------------------------|
C|-------------------------------------------------|
G|--0--0--------0--0--------0-----0--0-----0--0----|
C|--0--0--------0--0--------0-----0--0-----0--0----|
 |  .  .        .  .        .     .  .     .  .
 |GTR II
d|-------------------------------------------------|
A|-------------------------------------------------|
F|-------------------------------------------------|
C|-------------------------------------------------|
G|--0--0--------0--0--------0-----0--0-----0--0----|
C|--0--0--------0--0--------0-----0--0-----0--0----|
    .  .        .  .        .     .  .     .  .

  GTR I
d|-------------------------------------------------|
A|-------------------------------------------------|
F|-------------------------------------------------|
C|-------------------------------------------------|
G|--0--0--0--0--0--0--0--0--0--0--------0--0-------|
C|--0--0--0--0--0--0--0--0--0--0--------0--0-------|
 |  .  .  .  .  .  .  .  .  .  .        .  .
 |GTR II
d|-------------------------------------------------|
A|-------------------------------------------------|
F|-------------------------------------------------|
C|-------------------------------------------------|
G|--0--0--0--0--0--0--0--0--0--0--------0--0-------|
C|--0--0--0--0--0--0--0--0--0--0--------0--0-------|
    .  .  .  .  .  .  .  .  .  .        .  .

  GTR I
d|-------------------------------------------------|
A|-------------------------------------------------|
F|-------------------------------------------------|
C|-------------------------------------------------|
G|--------0-----0-----0-----0--0--------0--0-------|
C|--------0-----0-----0-----0--0--------0--0-------|
 |        .     .     .     .  .        .  .
 |GTR II
d|-------------------------------------------------|
A|-------------------------------------------------|
F|-------------------------------------------------|
C|-------------------------------------------------|
G|--------0-----0-----0-----0--0--------0--0-------|
C|--------0-----0-----0-----0--0--------0--0-------|
          .     .     .     .  .        .  .

  GTR I
d|-------------------------------------------------|
A|-------------------------------------------------|
F|-------------------------------------------------|
C|-------------------------------------------------|
G|--0--0--0--0--0--0--0--0--0--0--------0--0-------|
C|--0--0--0--0--0--0--0--0--0--0--------0--0-------|
 |  .  .  .  .  .  .  .  .  .  .        .  .
 |GTR II
d|-------------------------------------------------|
A|-------------------------------------------------|
F|-------------------------------------------------|
C|-------------------------------------------------|
G|--0--0--0--0--0--0--0--0--0--0--------0--0-------|
C|--0--0--0--0--0--0--0--0--0--0--------0--0-------|
    .  .  .  .  .  .  .  .  .  .        .  .

  GTR I
d|-------------------------------------------------|
A|-------------------------------------------------|
F|-------------------------------------------------|
C|-------------------------------------------------|
G|--0--0--------0--0--------0-----0--0-----0--0----|
C|--0--0--------0--0--------0-----0--0-----0--0----|
 |  .  .        .  .        .     .  .     .  .
 |GTR II
d|-------------------------------------------------|
A|-------------------------------------------------|
F|-------------------------------------------------|
C|-------------------------------------------------|
G|--0--0--------0--0--------0-----0--0-----0--0----|
C|--0--0--------0--0--------0-----0--0-----0--0----|
    .  .        .  .        .     .  .     .  .


| /  slide up
| \  slide down
| h  hammer-on
| p  pull-off
| ~  vibrato
| +  harmonic
| x  Mute note
===============================================================================

comments
We did not receive enough feedback on this tab! Please rate:
print report bad tab
1 2 3 4 5
I want to post or [tab]
guest
You may want to rate the tab now too:
select rating
Please do not post tabs as comments. Select "correction" instead!