Oops, an error
Loading. Please wait.

Violence Enough Is Enough Bass Tab

ver1
ver1

Whole song

Interactive

More versions @911Tabs.com
2,632 views 21 this week
1 commentread comment
1 2 3 4 5
excellent!
x 3
Autoscroll
+/-
esc
set tempo
stop
Difficulty
Tuning
intermediate
A# F A# D# G C
Hey! There's an official Ultimate Guitar app which is ideal
for learning songs when you're away from computer. Get the app
WARNING: You are trying to view
                                    content from Ultimate-Guitar.com
                                    in an unauthorized application,
                                    which is prohibited.

                                    Please use an official Ultimate
                                    Guitar Tabs application for iPhone,
                                    iPad or Android to access legitimate
                                    chords, guitar, bass, and drum tabs
                                    from Ultimate-Guitar.com database.

                                    Type "ultimate guitar tabs" in Apple
                                    App Store's or Android Market's
                                    search to find the application.
Bass

Legend
L - tied note
x - dead note
h - hammer on/pull off
b - bend
s - slide
~ - vibrato
g - ghost note
> - accentuated note
t - trill
M - palm mute
. - staccato
P - popping (bass)
S - slapping (bass)
+ - tapping
W - wide vibrato
< - fade in
w - whammy bar
= - tremolo picking
v - brush up
^ - brush down
V - pick stroke up
n - pick stroke down

                                                     <
D#|-------------------|-------------------|-------------------|
A#|-------------------|-------------------|-------------------|
F |-------------------|-------------------|-------------------|
A#|-------------------|-------------------|-------------------|


-------------------|-------------------|-------------------|-------------------|
-------------------|-------------------|-------------------|-------------------|
-------------------|-------------------|-------------------|-------------------|
-------------------|-------------------|-------------------|--0L---------------|


-------------------|-------------------|
-------------------|-------------------|
-------------------|-------------------|
--0L---------------|--0----------------|


----------------------------------------------------------------|
----------------------------------------------------------------|
----------------------------------------------------------------|
--0--0--0--0--0--0--0--0--0-----0-----0-----0-------------------|


----------------------------------------|
----------------------------------------|
----------------------------------------|
-----0-----0--0--0--0--0----------------|


----------------------------------------------------------------|
----------------------------------------------------------------|
----------------------------------------------------------------|
--5--5--5--5--5--5--5--5--5-----5-----5-----5-------------------|


----------------------------------------|
----------------------------------------|
----------------------------------------|
-----5-----5--5--5--5--5----------------|


----------------------------------------------------------------|
----------------------------------------------------------------|
----------------------------------------------------------------|
--8--8--8--8--8--8--8--8--8-----8-----8-----8-------------------|


----------------------------------------|
----------------------------------------|
----------------------------------------|
-----8-----8--8--8--8--8----------------|


----------------------------------------------------------------|
----------------------------------------------------------------|
----------------------------------------------------------------|
--7--7--7--7--7--7--7--7--7-----7-----7-----7-------------------|


----------------------------------------|
----------------------------------------|
----------------------------------------|
-----7-----7--7--7--7--7----------------|


----------------------------------------------------------------|
----------------------------------------------------------------|
----------------------------------------------------------------|
--0--0--0--0--0--0--0--0--0-----0-----0-----0-------------------|


----------------------------------------|
----------------------------------------|
----------------------------------------|
-----0-----0--0--0--0--0----------------|


----------------------------------------------------------------|
----------------------------------------------------------------|
----------------------------------------------------------------|
--5--5--5--5--5--5--5--5--5-----5-----5-----5-------------------|


----------------------------------------|
----------------------------------------|
----------------------------------------|
-----5-----5--5--5--5--5----------------|


----------------------------------------------------------------|
----------------------------------------------------------------|
----------------------------------------------------------------|
--8--8--8--8--8--8--8--8--8-----8-----8-----8-------------------|


----------------------------------------|
----------------------------------------|
----------------------------------------|
-----8-----8--8--8--8--8----------------|


----------------------------------------------------------------|
----------------------------------------------------------------|
----------------------------------------------------------------|
--7--7--7--7--7--7--7--7--7-----7-----7-----7-------------------|


----------------------------------------|
----------------------------------------|
----------------------------------------|
-----7-----7--7--7--7--7----------------|


----------------------------------------|
----------------------------------------|
----------------------------------------|
--0--0--0--0--0--0--0--0----------------|


----------------------------------------|
----------------------------------------|
----------------------------------------|
--0--0--0--0--0--0--0--0----------------|


----------------------------------------|
----------------------------------------|
----------------------------------------|
--0--0--0--0--0--0--0--0----------------|


----------------------------------------|
----------------------------------------|
----------------------------------------|
--0--0--0--0--0--0--0--0----------------|


----------------------------------------|
----------------------------------------|
----------------------------------------|
--8--8--8--8--8--8--8--8----------------|


----------------------------------------|
----------------------------------------|
----------------------------------------|
--8--8--8--8--8--8--8--8----------------|


----------------------------------------|
----------------------------------------|
----------------------------------------|
--7--7--7--7--7--7--7--7----------------|


----------------------------------------|
----------------------------------------|
----------------------------------------|
--7--7--7--7--7--7--7--7----------------|


----------------------------------------------------------------|
----------------------------------------------------------------|
----------------------------------------------------------------|
--0--0--0-----0--0--0-----------0-----------0-------------------|


----------------------------------------------------------------|
----------------------------------------------------------------|
----------------------------------------------------------------|
--0--0--0-----0--0--0-----0--0--0-----0--0--0-------------------|


----------------------------------------------------------------|
----------------------------------------------------------------|
----------------------------------------------------------------|
--0--0--0-----0--0--0-----------0-----------0-------------------|


----------------------------------------------------------------|
----------------------------------------------------------------|
----------------------------------------------------------------|
--0--0--0-----0--0--0-----0-----0-----0-----0-------------------|


----------------------------------------------------------------|
----------------------------------------------------------------|
----------------------------------------------------------------|
--8--8--8-----8--8--8-----------8-----------8-------------------|


----------------------------------------------------------------|
----------------------------------------------------------------|
----------------------------------------------------------------|
--8--8--8-----8--8--8-----8--8--8-----8--8--8-------------------|


----------------------------------------------------------------|
----------------------------------------------------------------|
----------------------------------------------------------------|
--7--7--7-----7--7--7-----------7-----------7-------------------|


----------------------------------------------------------------|
----------------------------------------------------------------|
----------------------------------------------------------------|
--7--7--7-----7--7--7-----7-----7-----7-----7-------------------|


----------------------------------------|
----------------------------------------|
----------------------------------------|
--5--5--5--5--5--5--5--5----------------|


----------------------------------------|
----------------------------------------|
----------------------------------------|
--5--5--5--5--5--5--5--5----------------|


----------------------------------------|
----------------------------------------|
----------------------------------------|
--8--8--8--8--8--8--8--8----------------|


----------------------------------------|
----------------------------------------|
----------------------------------------|
--8--8--8--8--8--8--8--8----------------|


----------------------------------------|
----------------------------------------|
----------------------------------------|
--0--0--0--0--0--0--0--0----------------|


----------------------------------------|
----------------------------------------|
----------------------------------------|
--0--0--0--0--0--0--0--0----------------|


----------------------------------------|
----------------------------------------|
----------------------------------------|
--10-10-10-10-10-10-10-10---------------|


----------------------------------------|
----------------------------------------|
----------------------------------------|
--10-10-10-10-10-10-10-10---------------|


----------------------------------------|
----------------------------------------|
----------------------------------------|
--5--5--5--5--5--5--5--5----------------|


----------------------------------------|-------------------|
----------------------------------------|-------------------|
----------------------------------------|-------------------|
--5--5--5--5--5--5--5--5----------------|--8L---------------|


-------------------|
-------------------|
-------------------|
--8----------------|


----------------------------------------------------------------|
----------------------------------------------------------------|
----------------------------------------------------------------|
--0--0--0--0--0--0--0--0--0-----0-----0-----0-------------------|


----------------------------------------|
----------------------------------------|
----------------------------------------|
-----0-----0--0--0--0--0----------------|


----------------------------------------------------------------|
----------------------------------------------------------------|
----------------------------------------------------------------|
--5--5--5--5--5--5--5--5--5-----5-----5-----5-------------------|


----------------------------------------|
----------------------------------------|
----------------------------------------|
-----5-----5--5--5--5--5----------------|


----------------------------------------------------------------|
----------------------------------------------------------------|
----------------------------------------------------------------|
--8--8--8--8--8--8--8--8--8-----8-----8-----8-------------------|


----------------------------------------|
----------------------------------------|
----------------------------------------|
-----8-----8--8--8--8--8----------------|


----------------------------------------------------------------|
----------------------------------------------------------------|
----------------------------------------------------------------|
--7--7--7--7--7--7--7--7--7-----7-----7-----7-------------------|


----------------------------------------|
----------------------------------------|
----------------------------------------|
-----7-----7--7--7--7--7----------------|


----------------------------------------------------------------|
----------------------------------------------------------------|
----------------------------------------------------------------|
--0--0--0--0--0--0--0--0--0-----0-----0-----0-------------------|


----------------------------------------|
----------------------------------------|
----------------------------------------|
-----0-----0--0--0--0--0----------------|


----------------------------------------------------------------|
----------------------------------------------------------------|
----------------------------------------------------------------|
--5--5--5--5--5--5--5--5--5-----5-----5-----5-------------------|


----------------------------------------|
----------------------------------------|
----------------------------------------|
-----5-----5--5--5--5--5----------------|


----------------------------------------------------------------|
----------------------------------------------------------------|
----------------------------------------------------------------|
--8--8--8--8--8--8--8--8--8-----8-----8-----8-------------------|


----------------------------------------|
----------------------------------------|
----------------------------------------|
-----8-----8--8--8--8--8----------------|


----------------------------------------------------------------|
----------------------------------------------------------------|
----------------------------------------------------------------|
--7--7--7--7--7--7--7--7--7-----7-----7-----7-------------------|


----------------------------------------|
----------------------------------------|
----------------------------------------|
-----7-----7--7--7--7--7----------------|


----------------------------------------|-------------------|
----------------------------------------|-------------------|
----------------------------------------|-------------------|
-----------------0-----0----------------|-------------------|


----------------------------------------|
----------------------------------------|
----------------------------------------|
--0--0--0--0--0--0--0--0----------------|


----------------------------------------|
----------------------------------------|
----------------------------------------|
--0--0--0--0--0--0--0--0----------------|


----------------------------------------|
----------------------------------------|
----------------------------------------|
--0--0--0--0--0--0--0--0----------------|


----------------------------------------|
----------------------------------------|
----------------------------------------|
--0--0--0--0--0--0--0--0----------------|


----------------------------------------|
----------------------------------------|
----------------------------------------|
--8--8--8--8--8--8--8--8----------------|


----------------------------------------|
----------------------------------------|
----------------------------------------|
--8--8--8--8--8--8--8--8----------------|


----------------------------------------|
----------------------------------------|
----------------------------------------|
--7--7--7--7--7--7--7--7----------------|


----------------------------------------|----------------------------|
----------------------------------------|----------------------------|
----------------------------------------|----------------------------|
--7--7--7--7--7--7--7--7----------------|--0-------------------------|


----------------------------------------------------------------|
----------------------------------------------------------------|
----------------------------------------------------------------|
--------------------0-----0--0--0--0--0--0--0--0----------------|


----------------------------------------|
----------------------------------------|
----------------------------------------|
--0-------------------------------------|


----------------------------------------|
----------------------------------------|
----------------------------------------|
-----------0--1--1--1--1----------------|


----------------------------------------|
----------------------------------------|
----------------------------------------|
--0-----0-----0--0----------------------|


----------------------------------------------------------------|
----------------------------------------------------------------|
----------------------------------------------------------------|
--------------------------0--0--0--0--0--0--0--0----------------|


----------------------------------------|-------------------|
----------------------------------------|-------------------|
----------------------------------------|-------------------|
--0-----0-----0--0----------------------|-------------------|


----------------------------------------|
----------------------------------------|
----------------------------------------|
--5--5--5--5--5--5--5--5----------------|


----------------------------------------|
----------------------------------------|
----------------------------------------|
--5--5--5--5--5--5--5--5----------------|


----------------------------------------|
----------------------------------------|
----------------------------------------|
--8--8--8--8--8--8--8--8----------------|


----------------------------------------|
----------------------------------------|
----------------------------------------|
--8--8--8--8--8--8--8--8----------------|


----------------------------------------|
----------------------------------------|
----------------------------------------|
--0--0--0--0--0--0--0--0----------------|


----------------------------------------|
----------------------------------------|
----------------------------------------|
--0--0--0--0--0--0--0--0----------------|


----------------------------------------|
----------------------------------------|
----------------------------------------|
--10-10-10-10-10-10-10-10---------------|


----------------------------------------|
----------------------------------------|
----------------------------------------|
--10-10-10-10-10-10-10-10---------------|


----------------------------------------|
----------------------------------------|
----------------------------------------|
--5--5--5--5--5--5--5--5----------------|


----------------------------------------|-------------------|
----------------------------------------|-------------------|
----------------------------------------|-------------------|
--5--5--5--5--5--5--5--5----------------|--8L---------------|


-------------------|
-------------------|
-------------------|
--8----------------|


----------------------------------------------------------------|
----------------------------------------------------------------|
----------------------------------------------------------------|
--0--0--0--0--0--0--0--0--0-----0-----0-----0-------------------|


----------------------------------------|
----------------------------------------|
----------------------------------------|
-----0-----0--0--0--0--0----------------|


----------------------------------------------------------------|
----------------------------------------------------------------|
----------------------------------------------------------------|
--5--5--5--5--5--5--5--5--5-----5-----5-----5-------------------|


----------------------------------------|
----------------------------------------|
----------------------------------------|
-----5-----5--5--5--5--5----------------|


----------------------------------------------------------------|
----------------------------------------------------------------|
----------------------------------------------------------------|
--8--8--8--8--8--8--8--8--8-----8-----8-----8-------------------|


----------------------------------------|
----------------------------------------|
----------------------------------------|
-----8-----8--8--8--8--8----------------|


----------------------------------------------------------------|
----------------------------------------------------------------|
----------------------------------------------------------------|
--7--7--7--7--7--7--7--7--7-----7-----7-----7-------------------|


----------------------------------------|
----------------------------------------|
----------------------------------------|
-----7-----7--7--7--7--7----------------|


----------------------------------------------------------------|
----------------------------------------------------------------|
----------------------------------------------------------------|
--0--0--0--0--0--0--0--0--0-----0-----0-----0-------------------|


----------------------------------------|
----------------------------------------|
----------------------------------------|
-----0-----0--0--0--0--0----------------|


----------------------------------------------------------------|
----------------------------------------------------------------|
----------------------------------------------------------------|
--5--5--5--5--5--5--5--5--5-----5-----5-----5-------------------|


----------------------------------------|
----------------------------------------|
----------------------------------------|
-----5-----5--5--5--5--5----------------|


----------------------------------------------------------------|
----------------------------------------------------------------|
----------------------------------------------------------------|
--8--8--8--8--8--8--8--8--8-----8-----8-----8-------------------|


----------------------------------------|
----------------------------------------|
----------------------------------------|
-----8-----8--8--8--8--8----------------|


----------------------------------------------------------------|
----------------------------------------------------------------|
----------------------------------------------------------------|
--7--7--7--7--7--7--7--7--7-----7-----7-----7-------------------|


----------------------------------------|
----------------------------------------|
----------------------------------------|
-----7-----7--7--7--7--7----------------|


----------------------------------------------------------------|
----------------------------------------------------------------|
----------------------------------------------------------------|
--0--0--0-----0--0--0-----0--0--0-----0--0--0-------------------|


----------------------------------------------------------------|
----------------------------------------------------------------|
----------------------------------------------------------------|
--0--0--0-----0--0--0-----0--0-----0--0-----0--0----------------|


----------------------------------------------------------------|
----------------------------------------------------------------|
----------------------------------------------------------------|
--0--0--0-----0--0--0-----0--0--0-----0--0--0-------------------|


----------------------------------------------------------------|
----------------------------------------------------------------|
----------------------------------------------------------------|
--0--0--0-----0--0--0-----0--0--0-----0--0--0--0----------------|


----------------------------------------------------------------|
----------------------------------------------------------------|
----------------------------------------------------------------|
--0--0--0--0--0--0--0--0--0--0--0--0--0--0--0--0----------------|


----------------------------------------------------------------|
----------------------------------------------------------------|
----------------------------------------------------------------|
--0--0--0--0--0--0--0--0--0--0--0--0--0--0--0--0----------------|


----------------------------------------|-------------------|
----------------------------------------|-------------------|
----------------------------------------|-------------------|
--0-------------------------------------|-------------------|


----------------------------------------------------------------|
----------------------------------------------------------------|
----------------------------------------------------------------|
--0--0-----0--0-----------------------------0-------------------|


----------------------------------------------------------------|
----------------------------------------------------------------|
----------------------------------------------------------------|
--0--0-----0--0-----0-----0--0-----0--0-----0-------------------|


----------------------------------------------------------------|
----------------------------------------------------------------|
----------------------------------------------------------------|
--0--0-----0--0-----------------------------0-------------------|


----------------------------------------------------------------|
----------------------------------------------------------------|
----------------------------------------------------------------|
--0--0-----0--0-----0--0--0--0--0--0--0--0--0--0----------------|


----------------------------------------------------------------|
----------------------------------------------------------------|
----------------------------------------------------------------|
--0--0-----0--0-----------------------------0-------------------|


----------------------------------------------------------------|
----------------------------------------------------------------|
----------------------------------------------------------------|
--0--0-----0--0-----0-----0--0-----0--0-----0-------------------|


----------------------------------------------------------------|
----------------------------------------------------------------|
----------------------------------------------------------------|
--0--0-----0--0-----------------------------0-------------------|


----------------------------------------------------------------|
----------------------------------------------------------------|
----------------------------------------------------------------|
--0--0-----0--0-----0--0--0--0--0--0--0-------------------------|


----------------------------------------------------------------|
----------------------------------------------------------------|
----------------------------------------------------------------|
--0--0-----0--0-----------------------------0-------------------|


----------------------------------------------------------------|
----------------------------------------------------------------|
----------------------------------------------------------------|
--0--0-----0--0-----0--0--0--0-----0--0-----0-------------------|


----------------------------------------------------------------|
----------------------------------------------------------------|
----------------------------------------------------------------|
--0--0-----0--0-----------------------------0-------------------|


----------------------------------------------------------------|
----------------------------------------------------------------|
----------------------------------------------------------------|
--0--0-----0--0-----0--0--0--0--0--0--0--0--0--0----------------|


----------------------------------------------------------------|
----------------------------------------------------------------|
----------------------------------------------------------------|
--0--0-----0--0-----------------------------0-------------------|


----------------------------------------------------------------|
----------------------------------------------------------------|
----------------------------------------------------------------|
--0--0-----0--0-----0-----0--0-----0--0-----0-------------------|


----------------------------------------------------------------|
----------------------------------------------------------------|
----------------------------------------------------------------|
--0--0-----0--0-----------------------------0-------------------|


----------------------------------------------------------------|
----------------------------------------------------------------|
----------------------------------------------------------------|
--0--0-----0--0-----0--0--0--0--0--0--0--0--0--0----------------|


-------------------|-------------------|-------------------|-------------------|
-------------------|-------------------|-------------------|-------------------|
-------------------|-------------------|-------------------|-------------------|
-------------------|-------------------|-------------------|-------------------|


-------------------|-------------------|-------------------|-------------------|
-------------------|-------------------|-------------------|-------------------|
-------------------|-------------------|-------------------|-------------------|
-------------------|-------------------|--7----------------|--7----------------|


----------------------------------------------------------------|
----------------------------------------------------------------|
----------------------------------------------------------------|
--0--0--0--0--0--0--0--0--0-----0-----0-----0-------------------|


----------------------------------------|
----------------------------------------|
----------------------------------------|
-----0-----0--0--0--0--0----------------|


----------------------------------------------------------------|
----------------------------------------------------------------|
----------------------------------------------------------------|
--5--5--5--5--5--5--5--5--5-----5-----5-----5-------------------|


----------------------------------------|
----------------------------------------|
----------------------------------------|
-----5-----5--5--5--5--5----------------|


----------------------------------------------------------------|
----------------------------------------------------------------|
----------------------------------------------------------------|
--8--8--8--8--8--8--8--8--8-----8-----8-----8-------------------|


----------------------------------------|
----------------------------------------|
----------------------------------------|
-----8-----8--8--8--8--8----------------|


----------------------------------------------------------------|
----------------------------------------------------------------|
----------------------------------------------------------------|
--7--7--7--7--7--7--7--7--7-----7-----7-----7-------------------|


----------------------------------------|
----------------------------------------|
----------------------------------------|
-----7-----7--7--7--7--7----------------|


----------------------------------------------------------------|
----------------------------------------------------------------|
----------------------------------------------------------------|
--0--0-----0--0-----------------------------0-------------------|


----------------------------------------------------------------|
----------------------------------------------------------------|
----------------------------------------------------------------|
--0--0-----0--0-----0--0--0--0-----0--0-----0--0----------------|


----------------------------------------------------------------|
----------------------------------------------------------------|
----------------------------------------------------------------|
--0--0-----0--0-----------------------------0-------------------|


----------------------------------------------------------------|
----------------------------------------------------------------|
----------------------------------------------------------------|
--0--0-----0--0-----0--0--0--0-----0--0-----0-------------------|


-------------------||
-------------------||
-------------------||
-------------------||
comments
We did not receive enough feedback on this tab! Please rate:
print report bad tab
1 2 3 4 5
1 comment total.
+1 reply
maxpowweer wrote on March 4 2014, 08:15 am

Wow, this is a loooong tab. Should try and condense it a bit. Verse - chorus - bridge etc

I want to post or [tab]
guest
You may want to rate the tab now too:
select rating
Please do not post tabs as comments. Select "correction" instead!