Oops, an error
Loading. Please wait.

What Seperates Me From You Tab

2,112 views 12 this week
1 commentread comment
1 2 3 4 5
accurate
x 1
Autoscroll
+/-
esc
set tempo
stop
Contributor
Hey! There's an official Ultimate Guitar app which is ideal
for learning songs when you're away from computer. Get the app
WARNING: You are trying to view
                                    content from Ultimate-Guitar.com
                                    in an unauthorized application,
                                    which is prohibited.

                                    Please use an official Ultimate
                                    Guitar Tabs application for iPhone,
                                    iPad or Android to access legitimate
                                    chords, guitar, bass, and drum tabs
                                    from Ultimate-Guitar.com database.

                                    Type "ultimate guitar tabs" in Apple
                                    App Store's or Android Market's
                                    search to find the application.
A Day to Remember
What Separates Me from You
2010
Victory Records

1. Sticks & Bricks
2. All I Want
3. Its Complicated
4. This Is the House That Doubt Built
5. 2nd Sucks
6. Better off This Way
7. All Signs Point to Lauderdale
8. You Be Tails, I'll Be Sonic
9. Out Of Time
10. If I Leave


1. Sticks & Bricks
A#FA#D#GC

Intro
Both
|----------------|
|----------------|
|----------------|
|----------------|
|-0--------1---1-|
|-0--------1---1-|

Then
|---------------------|----|---------------|
|---------------------|----|---------------|
|---------------------|----|---------------|
|---------------------|----|---------------|
|-0-1-0-------------0-|-x4-|-4-4-4-4-1-1-1-| x2
|-0-1-0--0--0-0-0-0-0-|----|-4-4-4-4-1-1-1-|

Verse
Both
|---------------------------------------|
|---------------------------------------|
|---------------------------------------|
|---------------------------------------|
|-----------------1---0---1---0---1-4-1-| x4
|-0-0-0--0-0-0--0-1-0-0-0-1-0-0-0-1-4-1-|

Pre Chorus
GTR1
|-------------------|
|-------------------|
|-------------------|
|-------------------|
|-0-x56-4-x28-7-x28-|
|-0-----4-----7-----|

GTR2
|---------------|
|---------------|
|---------------|
|---------/-/-/-|
|-5-xlots-/-/-/-|
|---------/-/-/-|

Chorus
GTR1
|-------------------------------|
|-------------------------------|
|-------------------------------|
|-12--12--7-7--8----15----10----|
|-12--12--7-7--8-x7-15-x4-10-x8-| x2
|-12--12--7-7--8----15----10----|

GTR2
|-5-----8-----8-----8-----8-------8-----8-----5-----5-----5-------|
|---6-----6-----6-----6-----6---6---6-----6-----6-----6-----6---6-|
|-----7-----7-----7-----7-----7-------7-----7-----7-----7-----7---|
|-----------------------------------------------------------------|
|-----------------------------------------------------------------| x2
|-----------------------------------------------------------------|

Repeat Intro
Repeat Verse
Repeat Chorus x2
Breakdown
Both
|-----------|----|-----------------|
|-----------|----|-----------------|
|-----------|----|-----------------|
|-----------|----|-----------------|
|-----------|-x3-|-4-1---0---1-4-1-|
|-1-0--0-x8-|----|-4-1-0-0-0-1-4-1-|

|-----------|----|-----------------|
|-----------|----|-----------------|
|-----------|----|-----------------|
|-----------|----|-----------------|
|-----------|-x3-|-1---4-----1---0-|
|-1-0--0-x8-|----|-1---4-----1---0-|

|-----------|----|-----------------|
|-----------|----|-----------------|
|-----------|----|-----------------|
|-----------|----|-----------------|
|-----------|-x3-|-4-1---0---1-4-1-| x3
|-1-0--0-x8-|----|-4-1-0-0-0-1-4-1-|

|-----------|----|------|
|-----------|----|------|
|-----------|----|------|
|-----------|----|------|
|-----------|-x3-|-4-x6-|
|-1-0--0-x8-|----|-4----|

Repeat Chorus
Outro
|---------------------|----|---------------|
|---------------------|----|---------------|
|---------------------|----|---------------|
|---------------------|----|---------------|
|-0-1-0-------------0-|-x4-|-4-4-4-4-1-1-1-|
|-0-1-0--0--0-0-0-0-0-|----|-4-4-4-4-1-1-1-|

I am fuelled by all forms of failure. I paid the price, so I'll take what's mine. Bet ya
didn't see that one coming? Cause I do as I please, and apologize for nothing.

My time is flying, but I'm still second to none. Always shining the brightest, when I'm
placed under the gun. So here I stand the only son of a working class man. I won't be
held back. I can't be held down

Where were you when my walls came falling down? You tried to hide, you stood close by,
and didn't make a sound. Where you were you it all came back around? The reasons why you
passed me by will always hold you down.

Find some paper, and I'll go grab you a pen. You can start taking notes on how this all
started again. Been dead last, but found my way to the front. With my inspirational
quotes on why I never gave up.

If you can't stand the pressure, stay the fuck out of my way. I know my place. This one
goes out to everyone who's lied to my face. My heart is filled with hate.

I'm making a difference. I'm taking a chance. You can say what you want about me. But no
one can tell me I can't.


2. All I Have
CGCFAD

Intro
GTR1
|-----------------|
|-----------------|
|-------5----7----|
|-2-----5-x8-0----|
|-2-x16-3----0-x8-|
|-2----------0----|

GTR2
|-------------------------------------------------------------|
|-------------13p12-------------13p12-------------10h12p10----|
|-12---7--9---------12-14p12----------12-14p12-------------12-|
|---x8-----x8----------------14----------------14-------------|
|-10---5--7---------------------------------------------------|
|-------------------------------------------------------------|

Verse
GTR1 - Enters
|------------|
|------------|
|------------|
|-/-2-x-lots-|
|-/-2--------|
|-/-2--------|

GTR2 - Enters
|------------|
|------------|
|---9--------|
|-/---x-lots-|
|-/-7--------|
|-/----------|

Pre-Chorus
GTR1
|------------------------------------|
|------------------------------------|
|-5---------7---------5---------7----|
|-5-x8-5----7-x8-2----5-x8-5-x8-7----|
|-3----5-x8-5----2-x8-3----5----5-x8-|
|------5---------2---------5---------|

GTR2
|--------------------------------------|
|--------------------------------------|
|-5--/12--\7--/12---11---5--/12--\7----|
|--x8---x8--x8---x4---x4--x8---x8---x8-|
|-3--/10--\5--/10---9----3--/10--\5----|
|--------------------------------------|

Chorus
Both
|---------------------------|
|---------------------------|
|-------------7-----5----7\-|
|-2-----5-----7-x16-5-x8-7\-|
|-2-x16-5-x16-5-----3----5\-|
|-2-----5-------------------|

Repeat Intro
Verse 2
GTR1
|------------------------|
|------------------------|
|------------------------|
|------------------------|
|-2-x16-10-x8-12-x8-0-x8-|
|-2-----10----12----0----|
  .     .     .     .
GTR2
|---------|
|---------|
|-12------|
|---xlots-|
|-10------|
|---------|

Pre-Chorus
GTR1                                                   [ Different ]
|--------------------------------|
|--------------------------------|
|-5---------7---------5----5-----|
|-5-x8-5----7-x8-2----5-x8-3-x16-|
|-3----5-x8-5----2-x8-3----3-----|
|------5---------2---------------|

GTR2
|---------------------------------------|
|---------------------------------------|
|-5--/12--\7--/12---11---5--/12--\11----|
|--x8---x8--x8---x4---x4--x8---x8---x12-|
|-3--/10--\5--/10---9----3--/10--\9-----|
|---------------------------------------|

Repeat Chorus
Bridge
GTR1
|------------------------------------|----|----------|
|------------------------------------|----|----------|
|-9-9-9--8-8-8---------5-5-5-5/7-7-7-|----|-9---11---|
|---------------0-0-0----------------|----|--x8---x8-|
|-7-7-7--6-6-6--0-0-0--3-3-3-3/5-5-5-|-x3-|-7---9----|
|---------------0-0-0----------------|----|----------|

GTR2
|--------------------------------|
|--------------------------------|
|-16----16-16-16-16-16b-17-17-17-|
|---x8---------------------------|
|-14----14-14-14-14-14b-15-15-15-|
|--------------------------------|

Breakdown
GTR1
|---------------------------|----------------------------|---------------------------|------------|
|---------------------------|----------------------------|---------------------------|------------|
|-------------5-5-5-5-------|-------------5-5-5-5--7-7-7-|-------------5-5-5-5-------|------------|
|-2~--1~--0~--5-5-5-5-0-0-0-|-2~--1~--0~--5-5-5-5--7-7-7-|-2~--1~--0~--5-5-5-5-0-0-0-|-7----10----|
|-2~--1~--0~--3-3-3-3-0-0-0-|-2~--1~--0~--3-3-3-3--5-5-5-|-2~--1~--0~--3-3-3-3-0-0-0-|-7-x8-10-x8-|
|-2~--1~--0~----------0-0-0-|-2~--1~--0~-----------------|-2~--1~--0~----------0-0-0-|-7----10----|

GTR2
|--------------------------------|
|--------------------------------|
|-16----16-16-16-16-16b-17-17-17-|
|---x8---------------------------|
|-14----14-14-14-14-14b-15-15-15-| x3
|--------------------------------|

|---------------------------------------------------------------------|
|---------------------------------------------------------------------|
|--16----16-16-16-16-16/-12-12-12---9----12-12-12-12--11-11-11-11--9~-|
|----x8------------------------------x8-------------------------------|
|--14----14-14-14-14-14/-10-10-10---7----10-10-10-10--9--9--9--9---7~-|
|---------------------------------------------------------------------|

Break
Repeat Chorus
Repeat Breakdown

I'm always screaming my lungs out till my head starts spinning. Playing my songs is the
way I cope with life. Won't keep my voice down. Know the words I speak are the thoughts
I think out loud. I like to keep things honest. I'm a safe bet like your lives staked on 
it. For real. I'd hate to keep you all wondering. I'm constant like the seasons, and I
will never be forgotten man.

Let's leave no words unspoken and save regrets for the broken. Will you even look back
when you think of me?

All I want is a place to call my own, to mend the hearts of everyone who feels alone
whoa you know to keep your hopes up high and your head down low.

Still got something left to prove. It tends to keep things moving. While everyone around
me says my last days are looming overhead but just what the hell do they think they
know? I keep my head above the water while they drown in the undertow.

If you take it from me, live your life for yourself. Cause when it's all said and done
you don't need anyone else.

So let's get back to when everything seemed perfect. Not a worry in the world, so tell
me was this all worth it? I get what I want, so everyone’s always judging me. I’m not
afraid of anything, and I've got the whole world in front of me.

3. Its Complicated
C#G#C#F#A#D#

Intro/Verse
GTR1
|----------------------|
|-10----8----7----5----|
|-7-x16-7-x8-7-x8-6-x8-|
|-9-----5----5----7----|
|----------------------|
|----------------------|

GTR2
|-------------------------|
|-------------------------|
|-------------------------|
|-9-----5-----0-----7-----|
|-9-x16-5-x16-0-x16-7-x16-|
|-9-----5-----0-----7-----|

Pre Chorus
GTR1
|---------------------|
|---------------------|
|---------------------|
|-5----7----9----7----|
|-5-x8-7-x8-9-x8-7-x8-|
|-5----7----9----7----|

GTR2
|---------------------------------------------------------|
|---------------------------------------------------------|
|-4---7--6--2---6--7--9---6----4---7--6--2----------------|
|-------------------------------------------7----5----12/-|
|-2---5--4--0---4--5--7---4----2---5--4--0--7-x8-5----12/-|
|-------------------------------------------7----5----12/-|

Chorus
|-------------------------|
|-------------------------|
|-------------------------|
|-0-----7-----9-----7-----|
|-0-x16-7-x16-9-x16-7-x16-| x2
|-0-----7-----9-----7-----|

Post Chorus
|-----------|
|-----------|
|-----------|
|-----------|
|-0-5---0-5-|
|-0-5---0-4-|

Repeat Verse
Repeat Chorus
Breakdown
|-------------|----|------|-----------|
|-------------|----|------|-----------|
|-------------|----|------|-----------|
|-------------|----|------|-7---7---9-|
|-0-x8-5-x5-4-|-x5-|-0-x4-|-4---5---7-|
|-0----5----4-|----|-0----|-----------|

Bridge
|-------------------------------|
|-------------------------------|
|-------------------------------|
|-5~------7~-------9~-------7~--|
|-5~------7~-------9~-------7~--|
|-5~------7~-------9~-------7~--|

Repeat Chorus
End On
|---|
|---|
|---|
|-0-|
|-0-|
|-0-|

Here we go again, another night of being bummed. I can tell myself I'll avoid this time
and cancel plans with everyone. I know cause this is how it always ends. Our bond will
break cause you can't relate to anyone-to anything at all. You brought your worst and 
I'm right here. Though I've seen it all and it's never been so clear.

You're not the person that I knew back then. It's not to late to set this right cause
everything has been. You're not the person that I knew back then. Let’s try and act like
this didn't happen. So follow your friends like you ever had them.

You still know me, still not cut out for this sort of thing. Never wanna be caught in
between, I need constant reminders of everything. So what? It's who I am, I played it off
so well I just hided it no matter how I been so nobody, nobody can tell. You brought 
your worst and I'm right here though I've seen it all and it's never been so clear.

I won't sleep till the break of dawn break of dawn. I can't wear our problems from in
here. So everybody come on.

You brought your worst and I'm right here and I've seen it all and it's never been so clear.


4. This Is the House That Doubt Built
BF#BEG#C#

Intro
GTR1
|------------------------------------------|
|------------------------------------------|
|------------------------------------------|
|-7-----5----8-----7----7-----5----8-----7-|
|-8-x13-5-x4-8-x12-4-x3-8-x13-5-x4-8-x12-4-|
|------------------------------------------|

GTR3 - Acoustic
|----------------------------------------|
|-6--------------------6-----------------|
|-7-----7----10---6----7-----7----10---6-|
|-7-x13-5----8----7-x3-7-x13-5----8----7-|
|-5-----5-x4-8-x4-4----5-----5-x4-8-x4-4-|
|-------5----8---------------5----8------|

Verse
GTR1
|------------------------------------------|
|------------------------------------------|
|------------------------------------------|
|-7-----5----8-----7----7-----5----8-----7-|
|-5-x13-5-x4-8-x12-4-x3-8-x13-5-x4-8-x12-4-| x2
|------------------------------------------|

GTR2
|-----------|----|------------------------|-----------|----|------------------------|
|-----------|----|------------------------|-----------|----|------------------------|
|-10---14---|----|-12---14-10---15---14---|-10---14---|----|-12---14-10---15--------|
|---x7---x5-|----|---x4------x6---x6---x6-|---x7---x5-|----|---x4------x6---x6-7----|
|-8----12---|-x2-|-10---12-8----13---12---|-8----12---|-x2-|-10---12-8----13---4-x4-|
|-----------|----|------------------------|-----------|----|------------------------|

Pre Chorus
GTR1
|---------------|----|------------------------------------|---------------|-----|
|---------------|----|------------------------------------|---------------|-----|
|---10-9------9-|----|---17-14----15-14----17-14----15-14-|---10-9------9-|-----|
|-7------10-7---|----|-7-------15-------15-------15-------|-7------10-7---|-----|
|---------------|-x6-|------------------------------------|---------------|-x3--|
|---------------|----|------------------------------------|---------------|-----|

GTR2
|-------------------------------|
|-------------------------------|
|-------------------------------|
|-3----5----7----10---3----5----|
|-1-x6-3-x6-5-x6-8-x6-1-x6-3-x6-|
|-------------------------------|

GTR4 - Overdub
|-------------------|
|-------------------|
|----14-12-------12-|
|-10-------14-10----|
|-------------------| x11
|-------------------|

Chorus
GTR1
|----------------------------------------------------|
|----------------------------------------------------|
|-17----12----18---9---10----9---12---10----12---9---|
|---x24---x12---x6--x6---x12--x6---x6---x12---x6--x6-|
|-15----10----16---7---8-----7---10---8-----10---7---|
|----------------------------------------------------|

GTR2
|---------------------------------|
|---------------------------------|
|-------5-----7----5----3----5----|
|-3-----5-x12-7-x6-5-x6-3-x6-5-x6-|
|-3-x12-3-----5----3----1----3----|
|-3-------------------------------|

Post Chorus
GTR1
|------------|
|------------|
|------------|
|-7-----7----|
|-8-x12-4-x3-|
|------------|

GTR2
|-----------|
|-----------|
|-----------|
|------7----|
|-0-x3-4-x3-|
|-0---------|

Verse 2
Both
|------------------------|----|------|
|------------------------|----|------|
|------------------------|----|------|
|------------------------|----|-7----|
|-0-x14-5-x4-8-x14-12-x4-|-x2-|-4-x3-|
|-0-----5----8-----11----|----|------|

Repeat Pre Chorus
Repeat Chorus
Bridge
GTR1
|------------------------------------------------|------------------------|
|------------------------------------------------|------------------------|
|-7---9---10---3---9---10---2---9---10---14-10-7-|------9----9-12-10-9----|
|--x6--x6---x8--x6--x6---x8--x6--x6---x8---------|-7-10---11-----------11-|
|-5---7---8----1---7---8----0---7---8----12-8--5-|------------------------|
|------------------------------------------------|------------------------|

|----------------------------------------|----------------------------|
|----------------------------------------|----------------------------|
|-7---9---10---3---9---10---2---9---10---|----------------------------|
|--x6--x6---x8--x6--x6---x8--x6--x6---x8-|--------------5-7-8-7-5-----|
|-5---7---8----1---7---8----0---7---8----|-8----7-8-7-8-----------7-8-|
|----------------------------------------|---10-----------------------|

GTR2
|-----------------------------|---------------------------------|
|-----------------------------|---------------------------------|
|-----------------------------|---------------------------------|
|------------------------7----|---------------------------------|
|-0-x12-5-x12-0-x12-8-x6-4-x6-|-0-x12-5-x0--3-x12-8-x6-10-x12-3-|
|-0-----8-----3-----8---------|-0-----8-----3-----8----10-----3-|

Chorus
GTR1
|--------------------------------------------------------------------------------|
|--------------------------------------------------------------------------------|
|-10----9---12----10----12---9---17----19---17----14----12---15---14----9---10---|
|---x12--x6----x6---x12---x6--x6---x18---x6---x12---x12---x6---x6---x12--x6---x6-|
|-8-----7---10----8-----10---7---15----17---15----12----10---13---12----7---8----|
|--------------------------------------------------------------------------------|

GTR2
|---------------------------------|
|---------------------------------|
|-5-----7----5----3----5----------|
|-5-x12-7-x6-5-x6-3-x6-5-x6-3-----|
|-3-----5----3----1----3----3-x12-| x2
|---------------------------3-----|

Outro
GTR1
|-------------------------------------|----|--------------------------------------|
|-------------------13----------------|----|-------------------13-----------------|
|-10-12-10-12-10-12----12-10-12-10-12-|----|-10-12-10-12-10-12----12-10-12-10-9-7-|
|-------------------------------------|----|--------------------------------------|
|-------------------------------------|-x7-|--------------------------------------|
|-------------------------------------|----|--------------------------------------|

GTR2
|-----------------------------------|
|-----------------------------------|
|-------------7----5----3----5------|
|-3-----5-----7-x6-5-x6-3-x6-5-x6-7-|
|-3-x12-3-x12-5----3----1----3----8-|
|-3-----2-------------------------0-|

GTR3 - Overdub
|-------------------------------------|
|-------------------18----------------|
|-14-15-14-15-14-15----15-14-15-14-15-|
|-------------------------------------|
|-------------------------------------| x7
|-------------------------------------|

Don’t get me started on what it means to be alive. You’re lying to yourself if you sound
and act surprised. Could you stand become the source of what you are? The wolves in
sheep’s clothing will only lead so far so find your way, and you’ll go cause in the end 
we all end up alone. So just wait you’ll know.

Forget everything just for tonight we’ll sing like everyone when their alone, cause I’ve
been waiting for tonight to sing whoa.

I rely on myself just making sure that was clear I’m not in need of your crutches. I
face all my face fears and I want what I knew I could have. Life is not a monster make the
best of what you have.
Don’t wait just go, and when you find yourself let me know. It’s not too late just let go.

Let’s move in and if we all stand together we’re a force that can shake the whole world.
For once we’re doing something right when we say whoa.
In the end it’s not about what you have. In the end it’s all about where you wanna go,
and the route you take to get there. I hope you think that fair.
Cause you’ve only got one life to lead so don’t take for granted those little things.
Those little things are all that we have.

Can’t forget everything.
Cause I’ve been waiting for tonight to sing whoa, whoa


5. 2nd Sucks
BF#BEG#C#

Intro
GTR1
|------------------|
|-6-x24-10-x4-5-x4-|
|-9-----14----9----|
|------------------|
|------------------|
|------------------|

GTR2
|----|
|----|
|----|
|-1~-|
|-1~-|
|-1~-|

Verse
GTR1
|------------------|
|-6-x24-10-x4-5-x4-|
|-9-----14----9----|
|------------------|
|------------------| x2
|------------------|

GTR2
|-------|----|-----------------|
|-------|----|-----------------|
|-------|----|-----------------|
|-------|----|-----------------|
|-1-x14-|-x3-|-1-x12-4-x4-5--5-|
|-1-----|----|-1-----4----5--5-|
  .            .     .

Pre Chorus
GTR1
|------------------|
|-6-x24-10-x4-5-x4-|
|-9-----14----9----|
|------------------|
|------------------|
|------------------|

GTR2
|-------|
|-------|
|-------|
|-------|
|-1-x14-| x4
|-1-----|
  .
Chorus
Both
|------------------------|
|------------------------|
|------------------------|
|------------------------|
|-0~--3-3/6-0~--10-10/12-| x2
|-0~--3-3/6-0~--10-10/12-|

Repeat Verse
Repeat Chorus
Verse 3
GTR1
|-----------------|-------|
|-----------------|-------|
|-----------------|-------|
|-----------------|-------|
|-7~--7-7--8~--7~-|-0-x10-| x4
|-7~--7-7--8~--7~-|-0-----|
  .   . .  .   .    .

GTR2
|-------|
|-------|
|-------|
|-------|
|-0-x10-| x4
|-0-----|

Breakdown
Both
|----------|
|----------|
|----------|
|----------| x2
|-8--0-x20-|
|-8--0-----|

Then
GTR1
|------|
|------|
|------|
|-8----|
|---x4-|
|-8----|

GTR2
|---|
|---|
|---|
|-/-|
|-/-|
|-/-|

Bridge
GTR1
|---------------|
|---------------|
|-7---10--14----|
|--x8--x8---x16-|
|-5---8---12----| x2
|---------------|

GTR2
|----------------------------------------------------------------|
|----------------------------------------------------------------|
|----------------------------------------------------------------|
|----------------------------------------------------------------|
|-0--0-0-0-0-0-0-4-3-0-0-0-0-0-0-1-0-0-0-0-0-0-0-0-8-8-8-8-4-4-4-| x2
|-0--0-0-0-0-0-0-4-3-0-0-0-0-0-0-1-0-0-0-0-0-0-0-0-8-8-8-8-4-4-4-|
     . . . . . .     . . . . . .     . . . . . . .

Breakdown 2
Both
|---|-----|----------|
|---|-----|----------|
|---|-----|----------|
|---|-----|----------|
|-0-|-x20-|-10-10/12-|
|-0-|-----|-10-10/12-|

Repeat Chorus


FIGHT.
You're afraid, like I make my deals with the devil. You've been at it for years, but
couldn't reach the next level.
Let's keep it real, this is no competition to me. Even if everyone around you acts like
they don't see.

Ohhh! Is anybody else listening? Out of sight out of mind is what you'll always be.
Ohhh! I hold my cards to my chest. I laid my life on the line, so I expect nothing less 
from you.

I speak the truth and everybody else knows it. So set your ego to the side and just get
the fuck over it. Can't waste my time on hateful people like you. So keep wishing you
were me and I'll keep making you have to.

I just can't believe it's really come to this. Because without me, you would not exist.

Hey, hey! Still got something left to say. Only one in the world that I depend on is me.
I need nothing from no one; I take what I need. Get a hold on yourself, and keep away
from me.

6. Better off This Way
BF#BEG#C#

Intro
GTR1
|-----------------------------|
|-----------------------------|
|-----------------------------|
|-2-2-----2-2-----5-5-----5-5-|
|-2-2-----2-2-----3-3-----3-3-|
|-2-2-----2-2-----2-2-----2-2-|

GTR2
|---------------------|----|---------------------|----|
|---------------------|----|---------------------|----|
|---------------------|----|---------------------|----|
|-2-2-----------------|----|-5-5-----------------|----|
|-2-2--2-x6-5-x3-0-x3-|-x2-|-3-3--3-x6-5-x3-0-x3-|-x2-|
|-2-2--2----5----0----|----|-2-2--2----5----0----|----|

Verse
GTR1
|--------------------------|----|-------------------------|----|
|--------------------------|----|-------------------------|----|
|-16-16--12----14----11----|----|-9-----11----12----14----|----|
|-14-14--12-x4-12-x4-12-x4-|----|-10-x4-10-x4-12-x4-12-x4-|----|
|--------------------------|-x2-|-------------------------|-x2-|
|--------------------------|----|-------------------------|----|

GTR2
|---------------------|----|---------------------|----|
|---------------------|----|---------------------|----|
|---------------------|----|---------------------|----|
|-2-2-----------------|----|-5-5-----------------|----|
|-2-2--2-x6-5-x3-0-x3-|-x2-|-3-3--3-x6-5-x3-0-x3-|-x2-|
|-2-2--2----5----0----|----|-2-2--2----5----0----|----|

Chorus
Both
|------------------|
|------------------|
|------------------|
|-10----5----0-----|
|-10-x8-5-x8-0-x16-| x4
|-10----5----0-----|

Post Chorus
GTR1
|--------------------------------|---------------------------|
|--------------------------------|---------------------------|
|-12-----12-----11-----11---16---|-12-----12-----11-----11---|
|---x3-----x3-----x3-----x3---x3-|---x3-----x3-----x3-----x8-|
|-10-----10-----9------9----14---|-10-----10-----9------9----|
|--------------------------------|---------------------------|

GTR2
|-------------------------|
|-------------------------|
|-------------------------|
|-10-----5-----0-----0----|
|-10-x3--5-x3--0-x3--0-x3-| x2
|-10-----5-----0-----0----|

Repeat Verse
Breakdown
GTR1
|--------------------------|----|-------------------------|----|
|--------------------------|----|-------------------------|----|
|-16-16--12----14----11----|----|-9-----11----12----14----|----|
|-14-14--12-x4-12-x4-12-x4-|----|-10-x4-10-x4-12-x4-12-x4-|----|
|--------------------------|-x2-|-------------------------|-x2-|
|--------------------------|----|-------------------------|----|

GTR2
|-------------------|----|-------------------|----|
|-------------------|----|-------------------|----|
|-------------------|----|-------------------|----|
|-2-----------------|----|-5-----------------|----|
|-2-x5---2-2-2-0--0-|-x2-|-3-x5---3-3-3-0--0-|-x2-|
|-2------2-2-2-0--0-|----|-2------2-2-2-0--0-|----|

Repeat Chorus
Repeat Post Chorus
Bridge
GTR1
|---------------------------------|--------------------------------|
|---------------------------------|--------------------------------|
|-16-----12---14---16---11---12---|-16----19---17---16---11---12---|
|---x12----x3---x3---x3---x4---x3-|---x12---x3---x3---x3---x4---x3-|
|-14-----10---12---14---9----10---|-14----17---15---14---9----10---| x2
|---------------------------------|--------------------------------|

GTR2
|------------------|
|------------------|
|------------------|
|-10-----5----0----|
|-10-x12-5-x6-0-x6-|
|-10-----5----0----|

Pre Chorus
GTR1
|-------------------------------------------------|
|-------------------------------------------------|
|-12---------------12-----12-----11-----11---16---|
|--------------------x3-----x3----x3-----x3----x3-|
|-10---------------10-----10-----9------9----14---|
|-------------------------------------------------|

GTR2
|------------------------------------------|
|------------------------------------------|
|-11-----5---------------------------------|
|-----------4--5---10-----5-----0-----0----|
|-9----------------10-x3--5-x3--0-x3--0-x6-|
|------------------10-----5-----0-----0----|

Repeat Chorus
Repeat Post Chorus

I wonder if you'll notice, if they lock me up and throw away the key? Gotta be open
minded, you've got a lot to learn in the ways of me. You've always got to say something, I'm
none of your concern but you wont listen at all. You know I'd rather say nothing, and 
just be proud of myself. I'm tearing down these walls.

When you fall I'll be the only one who looks away. When you can I'll be the first to
tell you I can't stay. It's all over, I've found a better way to help keep you from me, I'm
better off this way.

You gotta keep this coming; tell me like you know it. But you don't know nothing, your
call. We can settle this like gentlemen, or meet me at the back to end it all inside
again. My whole life's been waiting, ever since I can remember. Been anxious awaiting 
your fall, and don't let me be a long while. Can't let go of my life till i know you're done.

You Want It, You've got it. You've always been such a waste of time. You Want It, You've
got it. A friend of yours is no friend of mine. You Want It, You've got it. When will
you act your age? You Want It, You've got it. You're the reason things have to change.


7. All Signs Point to Lauderdale

Intro
GTR2
|------------------------------------|
|------------------------------------|
|------5-------------------5---------|
|-3----5-x8-7----5----3----5-x8-5----|
|-3-x8-3----7-x8-5-x8-3-x8-3----5-x4-| X2
|-3---------7----5----3---------5----|

Chorus
GTR1
|-----------------------------------------------------------------|
|-----------------------------------------------------------------|
|-7/9/7--5----7/9/7--5---12--7/9/7--5----7/9/7--12---10---9---5---|
|---------x12---------x6-------------x12----------x3---x3--x3--x3-|
|-5/7/5--3----5/7/5--3---10--5/7/5--3----5/7/5--10---8----7---3---|
|-----------------------------------------------------------------|

GTR2
|------------------------------------|
|------------------------------------|
|------5-------------------5---------|
|-3----5-x8-7----5----3----5-x8-5----|
|-3-x8-3----7-x8-5-x8-3-x8-3----5-x4-| X2
|-3---------7----5----3---------5----|

Verse
Both
|-----------3-------------------3------------------3-----------------|
|-------0-----0---0---------0-----0---0--------0-----0---0-----------|
|-----5---5-----5---------5---5-----5--------5---5-----5-------------|
|-3-----------------7-------------------3------------------7----5----|
|-3-x8--------------7-x8----------------3-x8---------------7-x8-5-x8-|
|-3-----------------7-------------------3------------------7----5----|

Then
|--------------------------------------------------------|
|--------------------------------------------------------|
|-5/12---5/12---7/9/7/-5/12---7---/9/7--5/12---5/12--7-7-|
|-----x4-----x4------------x4--x4-----------x4-----------|
|-3/10---3/10---5/7/5/-3/10---5---/7/5--3/10---3/10--5-5-|
|--------------------------------------------------------|

Repeat Chorus
Repeat Verse
Repeat Chorus
Bridge
GTR1
|-------------------|
|-------------------|
|-------------------|
|-7-----5-----3-----|
|-7-x16-5-x16-3-x16-| x4
|-7-----5-----3-----|

GTR2
|---------------------------------|----|----------------------------------|
|---------8-----8---8-----8---5/6-|----|---------8-----8---8--------------|
|-5-5-5-5---5-5---5---5-5---5-----|----|-5-5-5-5---5-5---5---5-5--7-9-7-5-|
|---------------------------------|----|----------------------------------|
|---------------------------------|-x3-|--------------------------5-7-5-3-|
|---------------------------------|----|----------------------------------|

Repeat Chorus
Outro
|------|
|------|
|------|
|-3----|
|-3-x6-|
|-3----|

I hate this town, it's so washed up. And all my friends don't give a fuck. They'll tell
me that it's just bad luck. When will I find where I fit in?

Remember when I tried? I never strayed to far from you, forever by your side, no matter
what I, was going through. But now I, never know, the things to say to you. Now help me,
but know I'm still on your side. I never showed just what you do to me. This song was 
always wrong.

Cos know one can understand. I just can’t be tied down. Nothing comes between me and my
plans. So now I, never know, the things to say to you. Now help me prove that I'm still
on your side. I never showed just what you do to me. The timing was always wrong.

And don't believe a word they're telling to you. Don't believe a word they're telling to you.
They let me down, where will I find where I fit in? I hate this town.

My world cannot ever bring me down. Everything I had is turning back around. Because our
times worth something bigger then both you and me.
I can't live my life always backing down. I got to do this right, then make it make a
sound, Cos I'm not here for nothing. At least I can say I stand for something. You and me
we stand for something.



8. You Be Tails, I'll Be Sonic
BF#BEG#C#

Intro
GTR1
|-------|
|-------|
|-------|
|-------|
|-------|
|-0-x44-|

Verse
Both
|----------------------------|
|----------------------------|
|----------------------------|
|----------------------------|
|-0-x38-8-8--0-0--7-7--0-0-7-| x2
|-0-----8-8--0-0--7-7--0-0-7-|

Then
GTR1
|--------------------------------------|----|---------------------------------------------|
|--------------------------------------|----|---------------------------------------------|
|--------------------------------------|----|---------------------------------------------|
|--------------------------------------|----|---------------------------------------------|
|-0-0-8-8-0-0-8-8-0-0-8-8-0-0-8-8-0-x8-|-x3-|-0-0-8-8-0-0-8-8-0-0-8-0-0-5-5-0-0-4-4-0-0-4-|
|-0-0-----0-0-----0-0-----0-0-----0----|----|-0-0-----0-0-----0-0---0-0-----0-0-----0-0---|

GTR2
|----------------------------|
|----------------------------|
|----------------------------|
|----------------------------|
|-0-x38-8-8--0-0--7-7--0-0-7-| x2
|-0-----8-8--0-0--7-7--0-0-7-|

Pre Chorus
GTR1
|--------------------------------|
|--------------------------------|
|-7---9---10---17---15---7---6---|
|--x8--x8---x8---x4---x4--x8--x6-|
|-5---7---8----15---13---5---4---|
|--------------------------------|

GTR2
|-------------------------------|
|-------------------------------|
|-------------------------------|
|-8----7----0----3----8----7----|
|-8-x8-7-x8-0-x8-3-x8-8-x8-7-x8-|
|-8----7----0----3----8----7----|

Chorus
GTR1
|------------------------------------------------|
|------------------------------------------------|
|-7---15---14---9---6---7---15---10----9---12-10-|
|--x8---x8---x8--x4--x4--x8---x8---x12--x2-------|
|-5---13---12---7---4---5---13---8-----7---10-8--|
|------------------------------------------------|

GTR2
|---------------------|
|---------------------|
|---------------------|
|-0----8----3----7----|
|-0-x8-8-x8-3-x8-7-x8-|
|-0----8----3----7----|

Post Chorus
GTR1
|---------------------------------------|-----------------|
|---------------------------------------|-----------------|
|-10---17---12---15---12---10---9---5---|---2-----2-------|
|---x8---x8---x8---x4---x4---x8--x4--x4-|-----0-----0---0-|
|-8----15---10---13---10---8----7---3---|-1-----1-----1---|
|---------------------------------------|-----------------|

GTR2
|---------------------------------------------------|
|---------------------------------------------------|
|---------------------------------------------------|
|-8----3----10----0-0-10----8----7----3-------/-/-/-|
|-8-x8-3-x8-10-x8-0-0-10-x4-8-x8-7-x4-3-x4----/-/-/-|
|-8----3----10----0-0-10----8----7----3-------/-/-/-|

Verse
Both
|----------------------------|
|----------------------------|
|----------------------------|
|----------------------------|
|-0-x38-8-8--0-0--7-7--0-0-7-| x2
|-0-----8-8--0-0--7-7--0-0-7-|

Then
GTR1
|------------------------|
|------------------------|
|----------2-----2-------|
|------------0-----0---0-|
|-0-x32--1-----1-----1---| x2
|-0----------------------|

GTR2
|---------------|
|---------------|
|---------------|
|---------/-/-/-|
|-0-x64---/-/-/-|
|-0-------/-/-/-|

Repeat Pre Chorus
Repeat Chorus
Repeat Post Chorus
Breakdown
Both
|--------------------------------------|
|--------------------------------------|
|--------------------------------------|
|--------------------------------------|
|------------------4-----1-----1-4-----| x2
|-0-x18-8-0-7-x12--4-0-0-1-0-0-1-4-0-7-|

Then
|-----------------------------------|
|-----------------------------------|
|-----------------------------------|
|-----------------------------------|
|-1-0-x8-0-5-0-0-6-6-0-x8-0-1-0-0-4-| x2
|-1-0----0---0-0-----0----0-1-0-0-4-|

Bridge
Both
|----------------------------|
|----------------------------|
|----------------------------|
|----------------------------|
|-0-x38-8-8--0-0--7-7--0-0-7-| x2
|-0-----8-8--0-0--7-7--0-0-7-|

Repeat Pre Chorus
Repeat Chorus
Repeat Post Chorus
Outro
GTR1
|-----------------8-8-8-8-5-5-5-5-----------------8-8-8/10-5-5-5-5--|
|-6-8-8-8-8-6-6-6-----------------6-8-8-8-8-6-6-6-------------------|
|-------------------------------------------------------------------|
|-------------------------------------------------------------------|
|-------------------------------------------------------------------|
|-------------------------------------------------------------------|

|-----------------8-8-8-8-5-5-5-5-3---3---3---3---0---0---0---0-----|
|-6-8-8-8-8-6-6-6-------------------6---6---6---6---6---6---6-------|
|---------------------------------------------------------------5-7-|
|-------------------------------------------------------------------|
|-------------------------------------------------------------------|
|-------------------------------------------------------------------|

GTR2
|---------------------|----|---|
|---------------------|----|---|
|---------------------|----|---|
|-0----8----3----7----|----|-3-|
|-0-x8-8-x8-3-x8-7-x8-|-x2-|-0-|
|-0----8----3----7----|----|-0-|

I'm a mess that's the best way to describe it. I leave no time to myself the only way I
can fight it. When I'm alone it's like I'm staring into a mirror. Don't know the person
inside it and that's never been any clearer. I miss our family and I miss all my 
friends. If you had it to do over your do it over again? Cause I would, it means something more
to me. There's a whole in my heart where you use to be.

I still wish you the best of luck baby. And don't go thinking this was a waste of time.
I couldn't forget you if I tried.
You killed what was left of the good in me. I'm tired so let me be broken. Look down at
the mess that's in front of me. No other words may be spoken. And I've got nobody else
to blame though I tried. Kept all of my past mistakes down inside. I'll live with regret 
for my whole life.

I confess, that I brought this all on my self. Condemned to suffer alone, like there's
nobody else. When your gone, it's like a whole part of me is missing. So I'll keep living
the lie and just hope that your listening.
What doesn't make us alive here. But our foundation was built for sin. Now stop and run
until the damage was done. And I've never had the upper hand.

All the things you love are all the things I hate, how did we get here in the first place?
All but your cold blood inside your mind (All my trust). Is always burning inside of me
(All the way). I can't make any more progress I know I'll faint. The only thing that can
heal this time is space.


9. Out Of Time

CGCFAD

Intro
Both
|-----------------------------|---------------------------|
|-----------------------------|---------------------------|
|-----------------------------|------------------------3~-|
|-9-----4-----5-----0----8----|-9-----4-----5-----0-------|
|-9-x16-4-x16-5-x16-0-x8-8-x8-|-9-x16-4-x16-5-x16-0-x8-1~-|
|-9-----4-----5-----0----8----|-9-----4-----5-----0-------|

Pre Verse
|-------|
|-12----|
|-15b16-|
|-------|
|-------| x4
|-------|

Verse
GTR1
|-------|----|-------|----|-------|----|-------|----|-------|----|
|---7---|----|---7---|----|---7---|----|---7---|----|---7---|----|
|-----7-|----|-----7-|----|-----7-|----|-----7-|----|-----7-|----|
|-9-----|----|-------|----|-5-----|----|-0-----|----|-8-----|----|
|-------|-x5-|-9-----|-x5-|-------|-x5-|-------|-x3-|-------|-x5-| x2
|-------|----|-------|----|-------|----|-------|----|-------|----|

GTR2
|------------------------------|
|------------------------------|
|------------------------------|
|-9-----4-----5-----12----8----|
|-9-x16-4-x16-5-x16-12-x8-8-x8-| x2
|-9-----4-----5-----12----8----|

Pre Chorus
GTR1
|----------------------------------------------------|
|----------------------------------------------------|
|-----------4--/6---7---2--/6---7----------------3---|
|------------x3/-x3--x2--x3/-x3--x2------x-x-x-x--x4-|
|-----------2--/4---5---0--/4---5--------x-x-x-x-1---|
|-5-x8-2-x8-------------------------5-x8-x-x-x-x-----|

GTR2
|--------------------------------------|
|--------------------------------------|
|----------------------------------3---|
|-----------9----7---------x-x-x-x--x4-|
|-----------9-x8-7-x8------x-x-x-x-1---|
|-5-x8-2-x8-9----7----5-x8-x-x-x-x-----|

Chorus
GTR1
|----------------------------------------------------------|
|----------------------------------------------------------|
|------------11---7-9-7----7-7-7-6-6-6-------------7-7-4-4-|
|-9-----5------x4------x16-------------7-7-7-8-8-8---------|
|-9-x16-5-x8-9----5-7-5------------------------------------|
|-9-----5--------------------------------------------------|

GTR2
|-----------------------------|
|-----------------------------|
|-----------------------------|
|-9-----5-----0-----7----8----|
|-9-x16-5-x16-0-x16-7-x8-8-x8-|
|-9-----5-----0-----7----8----|

Post Chorus
|-----------|
|-----------|
|-----------|
|-----------|
|-----------|
|-5-x8-2-x8-|

Repeat Verse
Repeat Pre Chorus
Repeat Chorus
Repeat Post Chorus
Bridge
GTR1
|---------------------------------------------------------------------------|
|-7-8-7-5-7-5---8-8-8-7-7-7-7-8-7-5-7-5-------------------------------------|
|-------------7-------------------------6-7-7-7-9-9-9-4---6---7---12---11---|
|------------------------------------------------------x3--x3--x3---x3---x5-|
|-----------------------------------------------------2---4---5---10---9----| x2
|---------------------------------------------------------------------------|

GTR2
|---------------------|
|---------------------|
|---------------------|
|-9----5----0----8----|
|-9-x4-5-x4-0-x4-8-x4-|
|-9----5----0----8----|

Repeat Chorus
Final Chorus
Outro
GTR1
|----------------------------------------------------|
|----------------------------------------------------|
|-----------4--/6---7---2--/6---7----------------3---|
|------------x3/-x3--x2--x3/-x3--x2------x-x-x-x--x4-|
|-----------2--/4---5---0--/4---5--------x-x-x-x-1---|
|-5-x8-2-x8-------------------------5-x8-x-x-x-x-----|

GTR2
|--------------------------------------|
|--------------------------------------|
|----------------------------------3---|
|-----------9----7---------x-x-x-x--x4-|
|-----------9-x8-7-x8------x-x-x-x-1---|
|-5-x8-2-x8-9----7----5-x8-x-x-x-x-----|


I've never felt so sober. I've never felt the way I feel tonight. Your words made
everything drag on, and on. I finally found her, and when I did I just couldn't make things
right. Is this really happening, oh god I think I just ruined my life?
What the fuck am I doing? I can't tell the difference from wrong and right. I can guess
my decisions, cause I haven't been this person in my whole life. I think I need
something new here. When I keep longing for what I had. No need for second opinions. I 
do the best I can to ruin what I have. Come on

Don't think you've got to go in alone here. I've got nothing left to hide, your dying
just make up your mind.

I thought this was what you wanted? Someone who gets everything right. I thought this
was what you wanted? Someone to put you first in their life. Cause we're running out of time.

Something just from the new year. It's a moment that's not as bad, it's what's a part of
my vision. The optimistic me, so we can make this last but no. You ruined my favourite
records by singing them then I think of you. That’s just hope you remember. All of the 
guilt inside, and I believed in you for once.

Just know that it kills me, when I hear anything to do with you. You will see, oh
believe me, I need to be right where you are. And know that I'm leaving, leaving. And you
won't hear for a year from now. And this kills me. Cause now I think that everything was 
about you.


10. If I Leave

DADGBe

Intro
GTR1
|----------------------------------|
|-----5-----5-----5-----5------5---|
|---2-----2-----2-----2------2---5-|
|-4-----0--------------------------|
|-------------0-----0------0-------| x2
|----------------------------------|

|-----------------------|----|---------------|
|-----------------------|----|---------------|
|-----------------------|----|---------------|
|-----------------------|----|---------------|
|-4-x3-0-x3-7-x3-2-x4-3-|-x3-|-0-x12-----7---|
|-4----0----7----2----3-|----|-0-----4-7---0-|

GTR2
|-----------------------|----|---------------|
|-----------------------|----|---------------|
|-----------------------|----|---------------|
|-----------------------|----|---------------|
|-4-x3-0-x3-7-x3-2-x4-3-|-x3-|-0-x12-----7---|
|-4----0----7----2----3-|----|-0-----4-7---0-|

Verse
GTR1
|-----------------------------------------------------|---------------------|----|
|-----------------------------------------------------|-10---0----0----0----|----|
|-----------------------------------------------------|-9-x8-9-x8-7-x8-5-x8-|----|
|-----------------------------------------------------|---------------------|----|
|-0-x8-----7---0-x8-----7---4-x8-----7---2-x8-----7---|---------------------|-x2-|
|-0----4-7---0-0----4-7---4-4----4-7---2-2----4-7---0-|---------------------|----|

GTR2
|-----------------------------------------------------|
|-----------------------------------------------------|
|-----------------------------------------------------|
|-----------------------------------------------------|
|-0-x8-----7---0-x8-----7---4-x8-----7---2-x8-----7---|
|-0----4-7---0-0----4-7---4-4----4-7---2-2----4-7---0-|

Pre Chorus
GTR1
|--------------------------------|
|--------------------------------|
|-11---9---7----11---9---7---4---|
|---x3--x3--x10---x3--x3--x6--x4-|
|-9----7---5----9----7---5---2---|
|--------------------------------|

GTR2
|-----------------|
|-----------------|
|-----------------|
|-----------------|
|-4-x3-2-x3-0-x10-| x2
|-4----2----0-----|

Chorus
GTR1
|--------------------------------------------------------|
|------10---9--------10---9------------------------------|
|--------x4--x4--------x4--x4------11---9--------7---4---|
|------7----6--------7----6----------x4--x4-------x4--x4-|
|-7-x8----------2-x8----------4-x8-9----7---0-x8-5---2---|
|-7-------------2-------------4-------------0------------|

GTR2
|-----------------------------|
|-----------------------------|
|-----------------------------|
|-----------------------------|
|-7-x16-2-x16-4-x8-2-x8-0-x16-|
|-7-----2-----4----2----0-----|

Pre Verse
GTR1
|----------------------------------|
|-----5-----5-----5-----5------5---|
|---2-----2-----2-----2------2---5-|
|-4-----0--------------------------|
|-------------0-----0------0-------|
|----------------------------------|

Repeat Verse
Repeat Pre Chorus
Repeat Chorus
Bridge
GTR1
|-------------------------------------------------------------------------------|
|-------------------------------------------------------------------------------|
|---------------------------------------------------------------------9---------|
|----9-11-9-11-----9-11-9-11--11-12-11-9-----9-11-9-11-----9-11-9-11----12-11-9-|
|-12------------12------------------------12------------12----------------------| x4
|-------------------------------------------------------------------------------|

GTR2
|---------------------|--------------|-----------------------------|
|---------------------|--------------|-----------------------------|
|---------------------|--------------|-----------------------------|
|---------------------|--------------|-----------------------------|
|-2-x6-0-0---4-x6-0-0-|-2--0----4--2-|-0-x16-2-x16-4-x8-2-x8-0-x16-|
|-2----0-0---4----0-0-|-2--0----4--2-|-0-----2-----4----2----0-----|

Then
Both
|-------------------------|
|-------------------------|
|-------------------------|
|-7-----2-----4-----0-----|
|-7-x16-2-x16-4-x16-0-x16-|
|-7-----2-----4-----0-----|

Repeat Chorus
Outro
GTR1
|----------------------------------|
|-----5-----5-----5-----5------5---|
|---2-----2-----2-----2------2---5-|
|-4-----0--------------------------|
|-------------0-----0------0-------|
|----------------------------------|

|-----------------------|-------------|
|-----------------------|-------------|
|-----------------------|-------------|
|-----------------------|-------------|
|-4-x3-0-x3-7-x3-2-x4-3-|-4-x3-0-x3-7-|
|-4----0----7----2----3-|-4----0----7-|


GTR2
|-----------------------|-------------|
|-----------------------|-------------|
|-----------------------|-------------|
|-----------------------|-------------|
|-4-x3-0-x3-7-x3-2-x4-3-|-4-x3-0-x3-7-|
|-4----0----7----2----3-|-4----0----7-|

Let's Go!
In the beginning I was up front. Nothing to think about, you'd always hear me out. We
made a pact to never give up. When everything would change, we'd always stay the same.
Something went wrong along the way. You'd come around and there's nothing left to say. 
It's like we're strangers anyway, what more could you ask of me? It's been a long time coming,
but everyone’s gonna hear me now.

If I leave, bet you'll wish I'd stayed. Make you regret all the things you said to me.
You know that time can't help us now, if I leave this, if I leave this way.

I've always been a man of action; never let anything keep a hold of me. Can always tell
when something’s missing, like I knew everything except for you and me. I can't make you
want to stay, I'll take a shot but it's broken anyway. I still gave it everything, I 
guess I’ll never catch my break. It's been a long time coming, but everyone’s gonna hear me now.

If I leave, bet you'll wish I'd stayed. Make you regret all the things you said to me.
You know that time can't help us now. If I leave I should move away, and try to right all
the wrongs we've ever made, well let your problems weight me down. If I leave this, if I 
leave this way.

Never thought you'd be the last one standing. Never thought that we would come this far.
You'll always be there looking over my shoulder
Come to terms with exactly what we are.
comments
We did not receive enough feedback on this tab! Please rate:
print report bad tab
1 2 3 4 5
1 comment total.
0 reply
benrohy wrote on June 15 2013, 04:21 am

You said 'All I Have' instead of All I Want, but good job tabbing the whole album :)

I want to post or [tab]
guest
You may want to rate the tab now too:
select rating
Please do not post tabs as comments. Select "correction" instead!