Oops, an error
Loading. Please wait.

Why Walk On Water When We Have Bridges Tab

13,414 views 6 this week
7 commentsread comments
1 2 3 4 5
excellent!
x 4
add to favorites launch autoscroll
font size
0
reset
Autoscroll
+/-
esc
set tempo
stop
Contributor
Difficulty
Tuning
novice
C G C F A D
WARNING: You are trying to view
                                    content from Ultimate-Guitar.com
                                    in an unauthorized application,
                                    which is prohibited.

                                    Please use an official Ultimate
                                    Guitar Tabs application for iPhone,
                                    iPad or Android to access legitimate
                                    chords, guitar, bass, and drum tabs
                                    from Ultimate-Guitar.com database.

                                    Type "ultimate guitar tabs" in Apple
                                    App Store's or Android Market's
                                    search to find the application.
First Tab.
:D

btw, i made this in like 10 minutes, so im guessing there's gonna be some misssing/wrong parts.

thanks.

avengedEVANfold.


Gtr I (C G C F A D) - 'Gtr 1'
Gtr II (C G C F A D) - 'Gtr 2'

 Guitar Intro
  Fast Rock Q=190
  Gtr I
  S S S S S S S S S S S S S S S S   S S S S S S S S S S S S S S S S
|---------------------------------|-----------------------------------|
|---------------------------------|-----------------------------------|
|-7-----------7-7-7-7-7-------7---|-7-----------7-7-7-7-7-------7-----|
|-7-----------7-7-7-7-7-------7---|-7-----------7-7-7-7-7-------7-----|
|-5-5-5-5-5-5-5-5-5-5-5-5-5-5-5-5-|-5-5-5-5-5-5-5-5-5-5-5-5-5-5-5-5---|
|---------------------------------|-----------------------------------|


  S S S S S S S S S S S S S S S S   S S S S S S S S S S S S S S S S
|---------------------------------|---------------------------------|
|---------------------------------|---------------------------------|
|---------------------------------|---------------------------------|
|-8-----------8-8-8-8-8-------8---|-7-----------7-7-7-7-7-------7---|
|-8-----------8-8-8-8-8-------8---|-7-----------7-7-7-7-7-------7---|
|-8-8-8-8-8-8-8-8-8-8-8-8-8-8-8-8-|-7-7-7-7-7-7-7-7-7-7-7-7-7-7-7-7-|


  S S S S S S S S S S S S S S S S    S  S S S S S S S S S S S S S S S
|---------------------------------|-----------------------------------|
|-6-----------6-6-6-6-6-------6---|--6------------6-6-6-6-6-------6---|
|-7-----------7-7-7-7-7-------7---|--7------------7-7-7-7-7-------7---|
|-7-----------7-7-7-7-7-------7---|--7------------7-7-7-7-7-------7---|
|-5-5-5-5-5-5-5-5-5-5-5-5-5-5-5-5-|--5--5-5-5-5-5-5-5-5-5-5-5-5-5-5-5-|
|---------------------------------|-----------------------------------|
|
| Gtr II
| W                                 +W
|---------------------------------|-----------------------------------|
|---------------------------------|-----------------------------------|
|-7-------------------------------|-(7)-------------------------------|
|-7-------------------------------|-(7)-------------------------------|
|-5-------------------------------|-(5)-------------------------------|
|---------------------------------|-----------------------------------|


   S  S S S S S S S S S S S S S S S   E H    Q.
|-----------------------------------|-------------|
|-----------------------------------|-------------|
|-----------------------------------|-------------|
|--8------------8-8-8-8-8-------8---|-7-----------|
|--8------------8-8-8-8-8-------8---|-7-----------|
|--8--8-8-8-8-8-8-8-8-8-8-8-8-8-8-8-|-7-----------|
|
| +W                                  E
|-----------------------------------|-------------|
|-----------------------------------|-------------|
|-(7)-------------------------------|-------------|
|-(7)-------------------------------|-7-----------|
|-(5)-------------------------------|-7-----------|
|-----------------------------------|-7-----------|


   Verse 1
    Gtr I
     S S S S S S  S  S  S  S  S S S S  S S
||-----------------------------------------|
||o--6------------6--6--6--6--6--------6---|
||---7------------7--7--7--7--7--------7---|
||---7------------7--7--7--7--7--------7---|
||o--5-5-5-5-5-5--5--5--5--5--5-5-5-5--5-5-|
||-----------------------------------------|
|
|    S S S S S S  S  S  S  S  S S S S  S S
||-----------------------------------------|
||o----------------------------------------|
||--14-----------14-14-14-14-14-------14---|
||-----------------------------------------|
||o-12-x-x-x-x-x-12-12-12-12-12-x-x-x-12-x-|
||-----------------------------------------|


   S S S S S S  S  S  S  S  S S S S  S S
|-----------------------------------------|
|--6------------6--6--6--6--6--------6----|
|--7------------7--7--7--7--7--------7----|
|--7------------7--7--7--7--7--------7----|
|--5-5-5-5-5-5--5--5--5--5--5-5-5-5--5-5--|
|-----------------------------------------|
|
|  S S S S S S  S  S  S  S  S S S S  S S
|-----------------------------------------|
|-----------------------------------------|
|-14-----------14-14-14-14-14-------14----|
|-----------------------------------------|
|-12-x-x-x-x-x-12-12-12-12-12-x-x-x-12-x--|
|-----------------------------------------|


   S S S S S S  S  S  S  S  S S S S  S S   S S S S S S S S S S S S S S S S  4x
|----------------------------------------|----------------------------------||
|----------------------------------------|---------------------------------o||
|----------------------------------------|----------------------------------||
|--8------------8--8--8--8--8--------8---|-7-----------7-7-7-7-7-------7----||
|--8------------8--8--8--8--8--------8---|-7-----------7-7-7-7-7-------7---o||
|--8-8-8-8-8-8--8--8--8--8--8-8-8-8--8-8-|-7-7-7-7-7-7-7-7-7-7-7-7-7-7-7-7--||
|
|  S S S S S S  S  S  S  S  S S S S  S S   S S S S S S S S S S S S S S S S  4x
|----------------------------------------|----------------------------------||
|----------------------------------------|---------------------------------o||
|-10-----------10-10-10-10-10-------10---|-9-----------9-9-9-9-9-------9----||
|----------------------------------------|----------------------------------||
|--8-x-x-x-x-x--8--8--8--8--8-x-x-x--8-x-|-7-x-x-x-x-x-7-7-7-7-7-x-x-x-7-x-o||
|----------------------------------------|----------------------------------||


   Chorus
     E  E  Q.        E  E  E    E  E  Q.        E  E  E
||---------------------------|--------------------------|
||o--------------------------|--------------------------|
||---------------------------|--------------------------|
||---8--8--8---------8--8--8-|--8--8--8---------8--8--8-|
||o--8--8--8---------8--8--8-|--8--8--8---------8--8--8-|
||---8--8--8---------8--8--8-|--8--8--8---------8--8--8-|
|
|    E  E  E   E  E  E  E  E    E  E  E   E  E  E  E  E
||---------------------------|--------------------------|
||o--------------------------|--------------------------|
||--------12--14-12----------|-------12--14-12----------|
||-----12-----------12----12-|----12-----------12----12-|
||o-12-----------------12----|-12-----------------12----|
||---------------------------|--------------------------|


   E  E  Q.        E  E  E    E  E  Q.       E  E  E
|--------------------------|--------------------------|
|--------------------------|--------------------------|
|--------------------------|--------------------------|
|-10-10-10--------10-10-10-|-10-10-10-------10-10-10--|
|-10-10-10--------10-10-10-|-10-10-10-------10-10-10--|
|-10-10-10--------10-10-10-|-10-10-10-------10-10-10--|
|
|  E  E  E   E  E  E  E  E    E  E  E   E E  E  E  E
|--------------------------|--------------------------|
|--------------------------|--------------------------|
|-------12--14-12----------|-15--------14------12-10--|
|----12-----------12----12-|-----0--0-----0--0--------|
|-12-----------------12----|--------------------------|
|--------------------------|--------------------------|


   E  E  Q.        E  E  E    E  E  Q.        E  E  E
|--------------------------|--------------------------|
|--------------------------|--------------------------|
|--7--7--7---------7--7--7-|--7--7--7---------7--7--7-|
|--7--7--7---------7--7--7-|--7--7--7---------7--7--7-|
|--5--5--5---------5--5--5-|--5--5--5---------5--5--5-|
|--------------------------|--------------------------|
|
|  E  E  E   E  E  E  E  E    E  E  E   E  E  E  E  E
|--------------------------|--------------------------|
|--------------------------|--------------------------|
|-------12--14-12----------|-------12--14-12----------|
|----12-----------12----12-|----12-----------12----12-|
|-12-----------------12----|-12-----------------12----|
|--------------------------|--------------------------|


   E  E  Q.        E  E  E    E E E  E E E  E  E
|--------------------------|----------------------||
|--------------------------|---------------------o||
|--7--7--7---------7--7--7-|--5-5-5--5-5-5--5--5--||
|--7--7--7---------7--7--7-|--5-5-5--5-5-5--5--5--||
|--5--5--5---------5--5--5-|--3-3-3--3-3-3--3--3-o||
|--------------------------|----------------------||
|
|  E  E  E   E  E  E  E  E    E E E  E E E  E  E
|--------------------------|----------------------||
|--------------------------|---------------------o||
|-------12--14-12----------|-15-----14-----12-10--||
|----12-----------12----12-|----0-0----0-0--------||
|-12-----------------12----|---------------------o||
|--------------------------|----------------------||


  Q=120
   |--3--|  |--3--|    |--3--|
   Q  Q  Q  Q  Q  Q    Q  Q  Q E E E E
|-------------------|------------------|
|-------------------|------------------|
|-------------------|------------------|
|--8--8--8--8--8--8-|-10-10-10-7---7---|
|--8--8--8--8--8--8-|-10-10-10-7---7---|
|--8--8--8--8--8--8-|-10-10-10-7---7---|
|
|  |--3--|  |--3--|    |--3--|
|  Q  Q  Q  Q  Q  Q    Q  Q  Q E E E E
|-------------------|------------------|
|-------------------|------------------|
|-10-10-10-10-10-10-|-12-12-12-9---9---|
|-------------------|------------------|
|--8--8--8--8--8--8-|-10-10-10-7---7---|
|-------------------|------------------|


   Bass Riff
    W          +W           +W           +W
||-----------|------------|------------|---------||
||o----------|------------|------------|--------o||
||-----------|------------|------------|---------||
||--0--------|-(0)--------|-(0)--------|-(0)-----||
||o-0--------|-(0)--------|-(0)--------|-(0)----o||
||--0--------|-(0)--------|-(0)--------|-(0)-----||
|
|   W          +W           +W           +W
||-----------|------------|------------|---------||
||o----------|------------|------------|--------o||
||-----------|------------|------------|---------||
||--0--------|-(0)--------|-(0)--------|-(0)-----||
||o-0--------|-(0)--------|-(0)--------|-(0)----o||
||--0--------|-(0)--------|-(0)--------|-(0)-----||


 Breakdown
  Q  E E E E E E   E E E E E E E E   E E E E E E E E   E H    Q.
|----------------|-----------------|-----------------|-------------|
|----------------|-----------------|-----------------|-------------|
|----------------|-----------------|-----------------|-------------|
|-0--------------|-----------------|-----------------|-8-----------|
|-0--0-0-0-0-0-0-|-0-0-0-0-0-0-0-0-|-0-0-0-0-0-0-0-0-|-8-----------|
|-0--0-0-0-0-0-0-|-0-0-0-0-0-0-0-0-|-0-0-0-0-0-0-0-0-|-8-----------|
|
| Q  E E E E E E   E E E E E E E E   E E E E E E E E   E H    Q.
|----------------|-----------------|-----------------|-------------|
|----------------|-----------------|-----------------|-------------|
|----------------|-----------------|-----------------|-------------|
|-0--------------|-----------------|-----------------|-8-----------|
|-0--0-0-0-0-0-0-|-0-0-0-0-0-0-0-0-|-0-0-0-0-0-0-0-0-|-8-----------|
|-0--0-0-0-0-0-0-|-0-0-0-0-0-0-0-0-|-0-0-0-0-0-0-0-0-|-8-----------|


   Outro
    E E E E E E E E   E E E E E E E E
||------------------|-----------------|
||o-----------------|-----------------|
||------------------|-----------------|
||--------7---------|-----------------|
||o-0-0-0-5-7-7-7-7-|-7-8-8-8-8-5-5-5-|
||--0-0-0---7-7-7-7-|-7-8-8-8-8-5-5-5-|
|
|   E E E E E E E E   E E E E E E E E
||------------------|-----------------|
||o-----------------|-----------------|
||------------------|-----------------|
||--------7---------|-----------------|
||o-0-0-0-5-7-7-7-7-|-7-8-8-8-8-5-5-5-|
||--0-0-0---7-7-7-7-|-7-8-8-8-8-5-5-5-|


  E E E E E E E E   E E E E E  E  E  E   4x
|-----------------|----------------------||
|-----------------|---------------------o||
|-----------------|----------------------||
|-------7---------|----------------------||
|-0-0-0-5-7-7-7-7-|-7-8-8-8-8-10-10-10--o||
|-0-0-0---7-7-7-7-|-7-8-8-8-8-10-10-10---||
|
| E E E E E E E E   E E E E E  E  E  E   4x
|-----------------|----------------------||
|-----------------|---------------------o||
|-----------------|----------------------||
|-------7---------|----------------------||
|-0-0-0-5-7-7-7-7-|-7-8-8-8-8-10-10-10--o||
|-0-0-0---7-7-7-7-|-7-8-8-8-8-10-10-10---||


 End
  E Q  Q.                +W           +W
|----------------------|------------|------------|
|----------------------|------------|------------|
|----------------------|------------|------------|
|------0---------------|-(0)--------|-(0)--------|
|-0----0---------------|-(0)--------|-(0)--------|
|-0----0---------------|-(0)--------|-(0)--------|
|
| E Q  Q.   +W           +W           +W
|----------------------|------------|------------|
|----------------------|------------|------------|
|----------------------|------------|------------|
|------0----(0)--------|-(0)--------|-(0)--------|
|-0----0----(0)--------|-(0)--------|-(0)--------|
|-0----0----(0)--------|-(0)--------|-(0)--------|


  +W           +W           +W           +W
|------------|------------|------------|--------|
|------------|------------|------------|--------|
|------------|------------|------------|--------|
|-(0)--------|-(0)--------|-(0)--------|-(0)----|
|-(0)--------|-(0)--------|-(0)--------|-(0)----|
|-(0)--------|-(0)--------|-(0)--------|-(0)----|
|
| +W           +W           +W
|------------|------------|------------|--------|
|------------|------------|------------|--------|
|------------|------------|------------|--------|
|-(0)--------|-(0)--------|-(0)--------|--------|
|-(0)--------|-(0)--------|-(0)--------|--------|
|-(0)--------|-(0)--------|-(0)--------|--------|
7 comments total. Showing first comments.
+10 reply
xnegipunkx wrote on June 18 2008, 07:40 pm

i'm pretty sure it's called "why walk on water when we've got BOATS"

0 reply
brandonr116 wrote on July 9 2008, 05:39 pm

+1^^^

+9 reply
ADTR13 wrote on September 14 2008, 09:17 pm

it is called why "walk on water when we've got boats".

learn the freakin song name before you post a tab

I want to post or [tab]
guest
You may want to rate the tab now too:
select rating
Please do not post tabs as comments. Select "correction" instead!