Oops, an error
Loading. Please wait.

Thirteenth Step Tab

8,111 views 9 this week
2 commentsread comments
1 2 3 4 5
worth learning
x 6
add to favorites launch autoscroll
font size
0
reset
Autoscroll
+/-
esc
set tempo
stop
Contributor
WARNING: You are trying to view
                                    content from Ultimate-Guitar.com
                                    in an unauthorized application,
                                    which is prohibited.

                                    Please use an official Ultimate
                                    Guitar Tabs application for iPhone,
                                    iPad or Android to access legitimate
                                    chords, guitar, bass, and drum tabs
                                    from Ultimate-Guitar.com database.

                                    Type "ultimate guitar tabs" in Apple
                                    App Store's or Android Market's
                                    search to find the application.
Author/Artist: A Perfect Circle
Album: Thirteenth Step
Transcribed by: Andrew Biles

-----------------------------------------------------------------------------
			The Package
-----------------------------------------------------------------------------

I got the album through this morning and this is the first track off it.  It's a
great album, seems to be concentrated quite a lot on the softer side from what
I've heard of it though.

Anyway, you're all gonna say, no this songs in drop C tuning or whatever, but my
guitar was tuned to standard tuning so that's the way I've tabbed it out, because
most of it worked.  If you want to be more accurate, the chorus part is played an
octave lower so the drop tuning will help and it'll be like fret 1 and open for
the two main chords.
Well here's the tab anyway.

|---7---7---6---6---6-------9-----9------9---11-9---7---7---6---6---6-------9-|
|-9---9---9---9---9---9-9-9---9-9---9-9----9------9---9---9---9---9---9-9-9---|
|-----------------------------------------------------------------------------|
|-----------------------------------------------------------------------------|
|-----------------------------------------------------------------------------|
|-----------------------------------------------------------------------------|
 guitar 1

|-----9-----9------9---------------------------------------------------------|
|-9-9---9-9---9--9-----------------------------------------------------------|
|----------------------------------------------------------------------------|
|----------------------------------------------------------------------------|
|----------------------------------------------------------------------------|
|----------------------------------------------------------------------------|

|----------------------------------------------------------------------------|
|----------------------------------------------------------------------------|
|-/8-8-8-8-8-8-6-6-6-6-6-6-/9-9-9-9-9-8-11-11-11-11-\8-8-8-8-8-8-6-6-6-6-6-6-|
|----------------------------------------------------------------------------|
|----------------------------------------------------------------------------|
|----------------------------------------------------------------------------|
 guitar 1

|----------------------------------------------------------------------------|
|----------------------------------------------------------------------------|
|-\1-1-1-1-1-1-1-1-1-1-1-1---------------------------------------------------|
|----------------------------------------------------------------------------|
|----------------------------------------------------------------------------|
|----------------------------------------------------------------------------|

|-11-------14-------12-------------------------------------------------------|
|----------------------------------------------------------------------------|
|----------------------------------------------------------------------------|
|----------------------------------------------------------------------------|
|----------------------------------------------------------------------------|
|----------------------------------------------------------------------------|
 guitar 2 (tremelo picked when vocals stop) guitar 1 then plays intro riff

|----------------------------------------------------------------------------|
|----------------------------------------------------------------------------|
|-/8-8-8-8-8-8-6-6-6-6-6-6-/9-9-9-9-9-8-11-11-11-11-\8-8-8-8-8-8-6-6-6-6-6-6-|
|--x-x-x-x-x-x-x-x-x-x-x-x--x-x-x-x-x-x-x--x--x--x---x-x-x-x-x-x-x-x-x-x-x-x-|
|-/6-6-6-6-6-6-4-4-4-4-4-4-/7-7-7-7-7-6-9--9--9--9--\6-6-6-6-6-6-4-4-4-4-4-4-|
|----------------------------------------------------------------------------|
 guitar 1 then plays the same riff but as octaves (around 2:53)

|----------------------------------------------------------------------------|
|----------------------------------------------------------------------------|
|----------------------------------------------------------------------------|
|-6-6-6-6-6-6-6-6-6-6-6-6----------------------------------------------------|
|-x-x-x-x-x-x-x-x-x-x-x-x----------------------------------------------------|
|-4-4-4-4-4-4-4-4-4-4-4-4----------------------------------------------------|

|----------------12-------11-------14----------------------------------------|
|----------------------------------------------------------------------------|
|-7-7-7-7-7-7----------------------------------------------------------------|
|-x-x-x-x-x-x----------------------------------------------------------------|
|-5-5-5-5-5-5----------------------------------------------------------------|
|----------------------------------------------------------------------------|
 guitar 2 (3:06) then plays intro

Chorus
|-----------------------------------------------------------------------------|
|---------------------------------------------------------------------------6-|
|-----7-7-7-6--x-x-------------7-7-7-6--x-x-------------7-7-7-6--x-x----------|
|-----7-7-7-6--x-x-4p3-/6------7-7-7-6--x-x-4p3---------7-7-7-6--x-x-4p3-/6---|
|-x-x-5-5-5-4--x-x---------x-x-5-5-5-4--x-x------4--x-x-5-5-5-4--x-x----------|
|-----------------------------------------------------------------------------|
 guitar 1 distortion (4:10)

|-----------------------------------------------------------------------------|
|-7-6---------------------------------------------------6-7-6-----------------|
|----------7-7-7-6--x-x--------------7-7-7-6--x-x-----6------------7-7-7-6--x-|
|----------7-7-7-6--x-x-4p3----------7-7-7-6--x-x-4p3--------------7-7-7-6--x-|
|------x-x-5-5-5-4--x-x-----4----x-x-5-5-5-4--x-x--------------x-x-5-5-5-4--x-|
|-----------------------------------------------------------------------------|
                             ^pickscrape

|---------------------------------------------------------------------------|
|---------------------------------------------------------------------------|
|-x-------------------------------------------------------------------------|
|-x-4p3---------------------------------------------------------------------|
|-x-------------------------------------------------------------------------|
|---------------------------------------------------------------------------|
        then intro with distortion

|----------------------------------------------------------------------------|
|----------------------------------------------------------------------------|
|-----------------------------6-9/--6-6--6-9--6-6-6-4/--6-6--6-9--6-6--6-6---|
|-5*--------------------------6-9/--6-6--6-9--6-6-6-4/--6-6--6-9--6-6--6-6-6-|
|-5*--------------------------4-7/--4-4--4-7--4-4-4-2/--4-4--4-7--4-4--4-4-4-|
|-7*-------------------------------------------------------------------------|
 guitar 2 (4:26) harmonics  (4:55)

The Harmonics are a little off due to the tuning.  The rest of the song is
basically above, I can't remember the order totally but I think it goes back
into the chorus part and then the intro and that's it.

-----------------------------------------------------------------------------
			     WEAK AND POWERLESS - A Perfect Circle
-----------------------------------------------------------------------------
Tabbed by: Alex Radovanovich

Tuning: Guitar 1 - Electric - C# F# B E G# C#
        Guitar 2 - Acoustic - C# F# B E G# C#
        Guitar 3 - Acoustic - C# F# B E G# C#

Bass guitar plays intro.
End of intro - Guitar 3
C#|-10---7-7-------------------10p7-7-|
G#|-----------------------------------|
E |-----------------------------------|
B |-----------------------------------|
F#|-----------------------------------|
C#|-----------------------------------|

Verse 1 - Guitar 1     [--3--](triplet)          [--3-----|
C#|-------------------------------------------------------|
G#|-----5-------------------------------------------------|
E |-------------------------------------------------------|
B |-2-------2---2-2-2-2-2h3p2-2---2-2-2p0-0h2-2-2-2h3p2---|
F#|-------------------------------------------------------|
C#|-------------------------------------------------------|
                x x x x           x x         x x

C#|-----------------------------------------------|
G#|-----------------------------------------------|
E |-----4-----------------------------------------|
B |-2-------2---2-2-0h2-2---0h2-2-2-2-2-0h2-------|
F#|-----------------------------------------0h2---|
C#|---------------------------------------------3-|
                x x             x x x x

                                       [--3--]
C#|---------------------------------------------------|
G#|---------------------------------------------------|
E |---------------------------------------------------|
B |-2---5---2---2-2-0h2-2---0h2-2-2-2-2-2h3p2-2-2-0h2-|
F#|---------------------------------------------------|
C#|---------------------------------------------------|
                x x             x x x x       x x

C#|-----------------------------------------------|
G#|-----5-----------------------------------------|
E |-----------------------------------------------|
B |-2-------2---2-2-0h2-2---0h2-2-2-2-2-0h2-------|
F#|-----------------------------------------0h2---|
C#|---------------------------------------------3-|
                x x             x x x x

Chorus - Guitar 1 & 2
C#|-----0-------------------------------------------|
G#|-------------------------------------------------|
E |-2/4---2---0-2~~~~~~~0-----2-----0-------------0-|
B |-----------------------2p0---------2p0-/4--------|
F#|-------------------------------------------------|
C#|-------------------------------------------------|

C#|-----0-------------------------------------------|
G#|-------------------------------------------------|
E |-2/4---2---0-2~~~~~~~0-----2-----0----/4---2---0-|
B |-----------------------2p0---------2p0-----------|
F#|-------------------------------------------------|
C#|-------------------------------------------------|

C#|-----0---------------------------------------------|
G#|-------------------------------------------------0-|
E |-2/4---2---0-2~~~~~~~0-----2-----0-----------0-----|
B |-----------------------2p0---------2p0-2/4---------|
F#|---------------------------------------------------|
C#|---------------------------------------------------|

C#|-------0------------------------------------------|
G#|--------------------------------------------------|
E |-2/4-----2p0-2~~~~~~~0-----2-----0----------------|
B |-----------------------2p0---------2p0-/4---2---4-|
F#|--------------------------------------------------|
C#|--------------------------------------------------|

Bridge - Guitar 1    [--3--]                   [--3-------|
C#|-------------------------------------------------------|
G#|-----5-------------------------------------------------|
E |-------------------------------------------------------|
B |-2-------2---2-2-2-2-2h3p2-2---2-2-2p0-0h2-2-2-2h3p2---|
F#|-------------------------------------------------------|
C#|-------------------------------------------------------|
                x x x x           x x         x x

                       [--3--]
C#|-------------------------------------------------|
G#|-----5-------------------------------------------|
E |-------------------------------------------------|
B |-2-------2---2-2-2-2-2h3p2-2---2-2-2p0-0h2-------|
F#|-------------------------------------------0h2---|
C#|-----------------------------------------------3-|
                x x x x           x x

Verse 2 - Guitar 1                     [--3-------------|
C#|-----------------------------------------------------|
G#|-----------------------------------------------------|
E |-----------------------------------------------------|
B |-2---5---2---2-2-0h2-2---0h2-2-2-2-2-2h3p2-2-2-0h2---|
F#|-----------------------------------------------------|
C#|-----------------------------------------------------|
        x       x x             x x x x       x x

C#|-----------------------------------------------|
G#|-----------------------------------------------|
E |-----------------------------------------------|
B |-2---5---2---2-2-0h2-2---0h2-2-2-2-2-0h2-------|
F#|-----------------------------------------0h2---|
C#|---------------------------------------------3-|
        x       x x             x x x x

Repeat Chorus

Interlude - Guitar 2
C#|--------------0-|
G#|-------------0--|
E |------------0---|
B |-----------4----|
F#|-----2----------|
C#|-0--------------|

Following short bass solo
C#|---------0----0----0---0----0-|    |-------0---0---0---0---0-|
G#|-8----8----8----8--------8----|    |-8---8---8---8-------8---|
E |-7----7----7----7--------7----|    |-0---0---0---0-------0---|
B |-10---10---10---10-------10---| x2 |-7---7---7---7-------7---| x2
F#|------------------------------|    |-------------------------|
C#|------------------------------|    |-------------------------|

C#|-7----7--7--7----7--7----7--x-10-10---10-10-10---7--7----7--7--|
G#|-0----0--0--0----0--0----0--x-0--0----0--0--0----0--0----0--0--|
E |-9----9--9--9----9--9----9--x-9--9----9--9--9----9--9----9--9--|
B |-10---10-10-10---10-10---10-x-10-10---10-10-10---10-10---10-10-|
F#|---------------------------------------------------------------|
C#|---------------------------------------------------------------|

C#|-------------12------------------------12----------|
G#|------------------10-----------0-----8------10-----|
E |-----------0---------0-----------0---------------0-|
B |-----5---------------------0-----------------------| x4
F#|-------7-------------------------------------------|
C#|-0-------------------------------------------------|

Repeat chorus
Last measure
C#|-------0-----------------------------------------|
G#|-------------------------------------------------|
E |-2/4-----2p0-2~~~~~~~0-----2-----0---------------|
B |-----------------------2p0---------2p0-----------|
F#|---------------------------------------2p0-------|
C#|-------------------------------------------3p0-0-|

Repeat chorus

Outro - Guitar 2
C#|-------------0-----------------------0---------|
G#|-----0-----------------0-----0-----------------|
E |-----------7-----7-----------------7-----7-----|
B |-------5-----------5-----------5-------------5-|
F#|-0-----------------------0---------------------|
C#|-----------------------------------------------|

Guitar 3
C#|-7---------------------7-----------------------|
G#|-----------------------------------------------|
E |-----------------------------------------------|
B |-----------------------------------------------|
F#|-----------------------------------------------|
C#|-----------------------------------------------|

Guitar 2
C#|-------------0-----------------------0---------|
G#|-----0-----------------0-----0-----------------|
E |-----------7-----7-----------------7-----7-----|
B |-------5-----------5-----------5-------------5-|
F#|-3-----------------------3---------------------|
C#|-----------------------------------------------|

Guitar 3
C#|-10--------7-----7-----7-----------------------|
G#|-----------------------------------------------|
E |-----------------------------------------------|
B |-----------------------------------------------|
F#|-----------------------------------------------|
C#|-----------------------------------------------|

Guitar 2
C#|-------------0-----------------------0---------|
G#|-----0-----------------0-----0-----------------|
E |-----------7-----7-----------------7-----7-----|
B |-------5-----------5-----------5-------------5-|
F#|-0-----------------------0---------------------|
C#|-----------------------------------------------|

Guitar 3
C#|-7---------------------------------------------|
G#|-----------8-----8-----8-------------10--8-----|
E |-----------------------------------------------|
B |-----------------------------------------------|
F#|-----------------------------------------------|
C#|-----------------------------------------------|

Guitar 2
C#|-------------0-----------0-----------------0---|
G#|-----0-----------------0-0-----------------0---|
E |-----------7-----7-------7-----------------7---|
B |-------5-----------5-----5-----5-----5-----5---|
F#|-3-----------------------3-----3-----3-----3---|
C#|-----------------------------------------------|

Guitar 3
C#|-------------10--------------------------------|
G#|-7h8---7-----------7---------------------------|
E |-----------------------------------------------|
B |-----------------------------------------------|
F#|-----------------------------------------------|
C#|-----------------------------------------------|

THE NOOSE }
BLUE       }-Missing Songs
VANISHING }

Band: A Perfect Circle
Album: Thirteenth Step
Credit goes to Sqweeky

-----------------------------------------------------------------------------
			A Stranger
-----------------------------------------------------------------------------
Tuning: Standard with capo on 2nd fret

Intro
|--------0-----------0---0----------0------------0------|
|----------0-----------0--------------0~-----------0----|
|-------------------------------------------------------|
|----2-----------2--------------2------------2----------|
|------5-----------5-------5------5------------5-----0~-|
|-0-----------0--------------3------------3-------------|

|--------0---0---------0---0----------0------------0---0---|
|----------0-------------0--------------0~-----------0-----|
|----------------------------------------------------------|
|----2-------------2--------------2------------2-----------|
|------5-------------5-------5------5------------5-------5-|
|-0-------------0--------------3------------3--------------|

Verse/Chorus
|--------0---0---------0---0----------0------------0---0---|
|----------0-------------0--------------0~-----------0-----|
|----------------------------------------------------------|
|----2-------------2--------------2------------2-----------|
|------5-------------5-------5------5------------5-------5-|
|-0-------------0--------------3------------3--------------|x12

Interlude
|--------0---0-----------------------------------------|
|----------0------------0---0---------0----------------|
|-------------------------6----------------------------|
|----2---------------0--------------0------------------|
|------5-----------4--------------4------5--4-4--------|
|-0-------------0--------------0----------------5--5-4-|

|---------0---0--------------------------------------------|
|-----------0---------------0------------0--------------0--|
|-----------------------6-----6----------------------------|
|-----2---------------0---0------------0----0-----0---0----|
|-------5-----------4----------------4----------4---4------|
|--0-------------0----------------0-----------0------------|

Ending
|-----------------------------------------------------|
|-----------------------------------------------------|
|-----------------------------------------------------|
|----0-0--0----x-0----0-0-0-0-----0---0------0---0----|
|-5--5-5--5--5-x-5-5--5-5-5-5-------4---4~-----4---4~-|
|-0--0-0--0--0-x---0--0-0-0-0--0-----------0----------|x4

-----------------------------------------------------------------------------
			The Outsider
-----------------------------------------------------------------------------

Tabbed by: Alex R

Tuning: C# F# B E G# C# (Frequently used by Billy Howerdel)

X's under the tab mean notes directly above them are palm muted.

Intro/Chorus 1
c#|-------------------------------------------------|
G#|-------------------------------------------------|
E |-----9---9-------9---9-------9---9-------9-------|
B |-------9-----------9-----------9-----------9-----|
F#|-7-----------7-----------7-----------7---------0-|
C#|-------------------------------------------------|

c#|--------------------------------------------------|
G#|--------------------------------------------------|
E |-----9---9-------9---9-------9---9----------------|
B |-------7-----------7---0-------7------------------|
F#|-5-----------5-----------------------------10--p9-|
C#|-------------------------8-----------8------------|

c#|----------------------------------------------------|
G#|----------------------------------------------------|
E |-----9---9-------9---9-------9---9---10p9---7h9p7---|
B |-------9-----------9-----------9---9------9-------7-|
F#|-7-----------7-----------7--------------------------|
C#|----------------------------------------------------|

c#|---------------------------------------------|
G#|---------------------------------------------|
E |-----9---9-------9---9---------6-----------9-|
B |-------7-----------7---------------7---------|
F#|-5-----------5-------------------------------|
C#|-------------------------3/5---------5/8-----|

Verse 1
c#|-0--------------------------0-|
G#|--0-------------------------0-|
E |---0--------------------4---4-|
B |----4-------------------2-----|
F#|-----2------------------2-----|
C#|------0-----------------------|

Guitar 2- Comes after last chord above
c#|-------------------------------------------------------------------------|
G#|-------------------------------------------------------------------------|
E |-16-----16-----16-----16-----16---16/19-19----\16----17\16--14--16/17\16-|
B |-------------------------------------------------------------------------|
F#|-14-----14-----14-----14-----14---14/17-17----\14----15\14--12--14/15\14-|
C#|-------------------------------------------------------------------------|

Pre-chorus
c#|-----------------------|        C#|-------------------------|
G#|-----------------------|        G#|-------------------------|
E |-----------------------|        E |-------------------------|
B |-----------------------|  x3    B |-------------------------|  Repeat all
F#|-------------7---7-7-7-|        F#|-------------3-----------|
C#|-0h3h5-0h3h5-----------|        C#|-0h3h5-0h3h5-----0-0-3p2-|
                    x x                                x x

Guitar 2 (played during pre-chorus)
C#|-----------------------------------------------------------------|
G#|-----------------------------------------------------------------|
E |-16---16-16-16-16-16---16-16-16---14---14-14-14-14-14---14-14-14-|
B |-----------------------------------------------------------------|
F#|-14---14-14-14-14-14---14-14-14---12---12-12-12-12-12---12-12-12-|
C#|-----------------------------------------------------------------|

C#|-----------------------------------------------------------------|
G#|-----------------------------------------------------------------|
E |-16---16-16-16-16-16---16-16-16---17---17-17-17-17-17---19-19-19-|
B |-----------------------------------------------------------------|
F#|-14---14-14-14-14-14---14-14-14---15---15-15-15-15-15---17-17-17-|
C#|-----------------------------------------------------------------|

C#|-----------------------------------------------------------------|
G#|-----------------------------------------------------------------|
E |-16---16-16-16-16-16---16-16-16---14---14-14-14-14-14---14-14-14-|
B |-----------------------------------------------------------------|
F#|-14---14-14-14-14-14---14-14-14---12---12-12-12-12-12---12-12-12-|
C#|-----------------------------------------------------------------|

C#|-----------------------------------------------------------------|
G#|-----------------------------------------------------------------|
E |-12---12-12-12-12-12---12-12-12---11---11-11-11-11-11---11-11-11-|
B |-----------------------------------------------------------------|
F#|-10---10-10-10-10-10---10-10-10---9----9--9--9--9--9----9--9--9--|
C#|-----------------------------------------------------------------|


Bridge between chorus and 2nd verse
C#|-0------------------------------------------------|
G#|-0------------------------------------------------|
E |-4------------------------------------------------|
B |-2------------------------------------------------|
F#|-2------------------------------------------------|
C#|-0------------------------------------------------|

Guitar 2
C#|--------------------------------------------------|
G#|--------------------------------------------------|
E |-16----------------/19-----19--\16------------/19-|
B |--------------------------------------------------|
F#|-14----------------/17-----17--\14------------/17-|
C#|--------------------------------------------------|

C#|--------------------------------------------------|
G#|--------------------------------------------------|
E |-19--\16-----------/19-----19--\16-------17--\16--|
B |--------------------------------------------------|
F#|-17--\14-----------/17-----17--\14-------15--\14--|
C#|--------------------------------------------------|

Verse 2
C#|-------------------------------|       C#|-------------------------------|
G#|-------------------------------|       G#|-------------------------------|
E |-------------------------------|       E |-------------------------------|
B |-------------------------------|  x3   B |-------------------------------|
F#|-2-2---2-2---2-2---2-2---3---3-|       F#|-5-----2-----3-----5-----3---3-|
C#|-0-0---0-0---0-0---0-0---1---0-|       C#|-3-----0-----1-----4-----1---0-|
    x x   x x   x x   x x                           x           x

C#|-------------------------------|       C#|-------------------------------|
G#|-------------------------------|       G#|-------------------------------|
E |-------------------------------|       E |-------------------------------|
B |-------------------------------|  x3   B |-------------------------7~~~~~|
F#|-2-2---2-2---2-2---2-2---3---3-|       F#|-5-----2-----3-----------------|
C#|-0-0---0-0---0-0---0-0---1---0-|       C#|-3-----0-----1-----4~~~~~5~~~~~|
    x x   x x   x x   x x                           x

Chorus 2
C#|-----------------------------------------------|
G#|-----------------------------------------------|
E |-9---9---9-----9---9-9---9---9---9-----9---9-9-|
B |-9---9---9-----9---9-9---9---9---9-----9---9-9-|
F#|-7---7---7-----7---7-7---7---7---7-----7---7-7-|
C#|-----------------------------------------------|

C#|---------------------------------------------------|
G#|---------------------------------------------------|
E |-7---7---7-----7---7-7---5---5---5-----5----/12\11-|
B |-7---7---7-----7---7-7---5---5---5-----5----/12\11-|
F#|-5---5---5-----5---5-5---3---3---3-----3----/10\9--|
C#|---------------------------------------------------|

C#|------------------------------------------------|
G#|------------------------------------------------|
E |-9---9---9-----7---9-9---7/9-9---9-----12---9-9-|
B |-9---9---9-----7---9-9---7/9-9---9-----12---9-9-|
F#|-7---7---7-----5---7-7---5/7-7---7-----10---7-7-|
C#|------------------------------------------------|

C#|------------------------------------------------------|
G#|------------------------------------------------------|
E |-7---7---7----/14-------------------------------------|
B |-7---7---7----/14---------x-7---7-----x-10---10-----2-|
F#|-5---5---5----/12---------x-7---7-----x-10---10-----2-|
C#|--------------------------x-5---5-----x-8----8------0-|

Bridge
C#|-------------------------------------------------------|
G#|-------------------------------------------------------|
E |-------------------------------------------------------|
B |-------------------------------------------------------|
F#|-2-------11----11----11------8---7-----7-----7-------7-|
C#|-0-------0---0---0---0---0-0-0---0---0---0---0---0-0-0-|

C#|-----------------------------------------------|
G#|-----------------------------------------------|
E |-----------------------------------------------|
B |-----0-------0---------------------------------|
F#|---------------------8---7-----7-----7-----7---|
C#|-7-------7-------0-0-0---0---0---0---0---0---0-|

C#|-----------------------------------------------|
G#|-----------------------------------------------|
E |-----------------------------------------------|
B |-----------------------------------------------|
F#|-11----11----11----12----14----14----14----14--|
C#|-0---0---0---0---0---0---0---0---0---0---0---0-|

C#|------------------------------------------|
G#|------------------------------------------|
E |------------------------------------------|
B |------------------------------------------|
F#|-12----12----12------11h12-11----11----11-|
C#|-0---0---0---0---0-0-0-----0---0---0---0--|

C#|-----------------------------------------------|
G#|-----------------------------------------------|
E |-13----13----13------10--9-----9-----9-------9-|
B |-----------------------------------------------|
F#|-11----11----11------8---7-----7-----7-------7-|
C#|-0---0---0---0---0-0-0---0---0---0---0---0-0-0-|

C#|-----------------------------------------------|
G#|-----------------------------------------------|
E |---------------------10--9-----9-----9-----9---|
B |-----0-------0---------------------------------|
F#|---------------------8---7-----7-----7-----7---|
C#|-7-------7-------0-0-0---0---0---0---0---0---0-|

C#|-----------------------------------------------|
G#|-----------------------------------------------|
E |-13----13----13----14----16----16----16----16--|
B |-----------------------------------------------|
F#|-11----11----11----12----14----14----14----14--|
C#|-0---0---0---0---0---0---0---0---0---0---0---0-|

C#|-----------------------------------------------------|
G#|-----------------------------------------------------|
E |-16/19-19---16---19-------22--21---21-21--21---21-21-|
B |-----------------------------------------------------|
F#|-14/17-17---14---17-------20--19---19-19--19---19-19-|
C#|-0-----0----0----0----0-0-0---0---0---0---0---0---0--|

Pre-chorus 3
C#|-----------------------|        C#|-------------------------|
G#|-----------------------|        G#|-------------------------|
E |-----------------------|        E |-------------------------|
B |------------/9-------9-|  x3    B |-------------------------|  Repeat all
F#|-2h5/5-2h5--/7---7-7-7-|        F#|-2h5/5-2h5/7-2-------5\4-|
C#|-0h3/5-0h3-------------|        C#|-0h3/5-0h3/5-0---0-0-3\2-|
                    x x                                x x

Jam before last chorus
C#|---------------------------------------------------|
G#|---------------------------------------------------|
E |---------------------------------------------------|
B |-9---9-9-9---9-12---9-9---7/9-9-9-9-9-9/10\9-9-9-9-|
F#|-7---7-7-7---7-10---7-7---5/7-7-7-7-7-7/8-\7-7-7-7-|
C#|---------------------------------------------------|
        x x     x                x x x x        x x

C#|--------------------------------------------------------|
G#|--------------------------------------------------------|
E |---------------7----------------------------------------|
B |-7---7-7-7-----7---7-7---12---12-12---12-12/14-14-14-14-|
F#|-5---5-5-5---5-----5-5---10---10-10---10-10/12-12-12-12-|
C#|--------------------------------------------------------|
        x x                      x       x

C#|---------------------------------------------------|
G#|---------------------------------------------------|
E |---------------------------------------------------|
B |-9---9-9-9---9-12---9-9---7/9-9-9-9-9-9/10\9-9-9-9-|
F#|-7---7-7-7---7-10---7-7---5/7-7-7-7-7-7/8-\7-7-7-7-|
C#|---------------------------------------------------|
        x x     x                x x x x        x x

C#|---------------------------------------------|
G#|---------------------------------------------|
E |---------------7---------------6-----------9-|
B |-7---7-7-7-----7---7-7-----------------------|
F#|-5---5-5-5---5-----5-5-----------------------|
C#|------------------------/5-----5----/8-----8-|
        x x

Last chorus
C#|---------------------------------------------|
G#|---------------------------------------------|
E |-------------------7-----7\----------------7-|
B |-2-----2-----2---x-7-----7\----2-----2---x-7-|
F#|-2-----2-----2---x-5-----5\----2-----2---x-5-|
C#|-0-----0-----0---x-------------0-----0---x---|

                                            + + + +
C#|-------------------------------------------5-5-5-|
G#|-----------------------------------------5-------|
E |-7\----------------7-----7\----------------------|
B |-7\----2-----2---x-7-----7\----2-----2-----------|
F#|-5\----2-----2---x-5-----5\----2-----2-----------|
C#|-------0-----0---x-------------0-----0-----------|

C#|---------------------------------------------|
G#|---------------------------------------------|
E |-------------------7-----7\----------------7-|
B |-2-----2-----2---x-7-----7\----2-----2---x-7-|
F#|-2-----2-----2---x-5-----5\----2-----2---x-5-|
C#|-0-----0-----0---x-------------0-----0---x---|

C#|-------------------------------------------------|
G#|-------------------------------------------------|
E |-7\----------------7-----7\----------------------|
B |-7\----2-----2---x-7-----7\----2-----2---9-9-9-9-|
F#|-5\----2-----2---x-5-----5\----2-----2---7-7-7-7-|
C#|-------0-----0---x-------------0-----0-----------|
                                            x x x x

C#|---------------------------------------------|
G#|---------------------------------------------|
E |---------------------------------------------|
B |-7-----7-----7-----7-----10----10----10----5-|
F#|-7-----7-----7-----7-----10----10----10----5-|
C#|-5-----5-----5-----5-----8-----8-----8-----3-|

C#|---------------------------------------------|
G#|---------------------------------------------|
E |-------------------7-----7\------------9-----|
B |-2-----2-----2---x-7-----7\----2-------------|
F#|-2-----2-----2---x-5-----5\----2-------7-----|
C#|-0-----0-----0---x-------------0-----0-----0-|
                                        x     x
C#|---------------------------------------------------|
G#|---------------------------------------------------|
E |---------------------------------------------------|
B |-7-----7-----7-----7-----10----10----10----5-----2-|
F#|-7-----7-----7-----7-----10----10----10----5-----2-|
C#|-5-----5-----5-----5-----8-----8-----8-----3-----0-|

CRIMES                 ]
THE NURSE WHO LOVED ME ]-Missing Songs

-----------------------------------------------------------------------------
			Pet
-----------------------------------------------------------------------------

Tabbed by: nonpoint42
Email:me2846@hotmail.com

Tuning: down 1 1/2 whole steps

   Main Riff             ( )- play every other time

c#|-------------------------------------------------------------------------|
G#|-------------------------------------------------------------------------|
E |-------------------------------------------------------------------------|
B |-4-4-4-4------4-----4-5-4--2-2-2-2-(-77777777-)--------------------------|
F#|-4-4-4-4------4-----4-5-4--2-2-2-2-(-77777777-)--------------------------|
C#|-2-2-2-2----0-2—--0-2/3\2--0-0-0-0—(-55555555-)--------------------------|

  Guitar 2

c#|----12---12---12---12----------------------------------------------------|
G#|--15---15---15---15------------------------------------------------------|
E |------------------------11—11/12\11---(-9-)------------------------------|
B |-------------------------------------------------------------------------|
F#|-------------------------------------------------------------------------|
C#|-------------------------------------------------------------------------|

    Verse

c#|-------------------------------------------------------------------------|
G#|-------------------------------------------------------------------------|
E |-----------0---------------0---------------------------------------------|
B |--------4-----4---------------4------------------------------------------|
F#|-----4------------------4------------------------------------------------|
C#|--2--------------2----------------0--------------------------------------|

    Pre-chorus

c#|-------------------------------------------------------------------------|
G#|-------------------------0------------2----------------------------------|
E |-------------------------2------------4----------------------------------|
B |------4-4-------------2------------4-----4-------------6-----------------|
F#|-----------------0--------0---2-----------------4------------------------|
C#|--3-3-------------------------------------2------------------------------|

    Chorus is same as main riff
   For the second bridge play the same things only
   more times

    the soft part of the bridge goes like this:

c#|-------------------------------------------------------------------------|
G#|----2---2---2---2-2---2------2---2-----0---------------------------------|
E |-------------------------------------------------------------------------|
B |-4---4---4---4------4---4--2---2--0--0-----------------------------------|
F#|-------------------------------------------------------------------------|
C#|-------------------------------------------------------------------------|
    It is easy to figure out the rhythm and how many times to play it


   The heavy part of the bridge has two guitars. Guitar one has lots of wah, the other is just distorted

  Guitar One
c#|-------------------------------------------------------------------------|
G#|-------------------------------------------------------------------------|
E |-14-14-14-14-14-14-14-14-14-14--11-1111-11111111-------------------------|
B |-------------------------------------------------------------------------|
F#|-12-12-12-12-12-12-12-12-12-12--9--9-9--9-9-9-9-9------------------------|
C#|-------------------------------------------------------------------------|

    Guitar Two
c#|-------------------------------------------------------------------------|
G#|-------------------------------------------------------------------------|
E |-------------------------------------------------------------------------|
B |---4-4----12-11---4-----12-11---99999999-44444444------------------------|
F#|---4-4----10--9---4-----10--9---77777777-22222222------------------------|
C#|-0-2-2-0--------0-2-0----------------------------------------------------|

    The last time guitar one plays this

c#|------------------------------------------------------|
G#|------------------------------------------------------|
E |-14-14-14-14-14-14-14-14-14-141111111111-18-18-18-18--|
B |------------------------------------------------------|
F#|-12-12-12-12-12-12-12-12-12-12-9-9-9-9-9-16-16-16-16--|
C#|------------------------------------------------------|

   Then there is the solo thing. It's hard to tab out the rhythm and timing, but these
the notes and you can figure it out if you listen

c#|-------------------------------------------------------------------------|
G#|-------------------------------------------------------------------------|
E |-------------------------------------------------------------------------|
B |--18--18-18-18-18-----15-15-15-15---16-----------------------------------|
F#|--16--16-16-16-16-----13-13-13-13---14-----------------------------------|
C#|-------------------------------------------------------------------------|

c#|-------------------------------------------------------------------------|
G#|-------------------------------------------------------------------------|
E |-------------------------------------------------------------------------|
B |--18---22--21--20-----18--16-15-16-15------------------------------------|
F#|--16---20--19--18-----16--14-13-14-13------------------------------------|
C#|-------------------------------------------------------------------------|

c#|-------------------------------------------------------------------------|
G#|-------------------------------------------------------------------------|
E |11--9-9-11----14-1111--13------------------------------------------------|
B |-------------------------------------------------------------------------|
F#|-9--7-7--9----12--9-9--11------------------------------------------------|
C#|-------------------------------------------------------------------------|

   Play variations of that until it goes to the third part of the bridge, which is this:

c#|-------------------------------------------------------------------------|
G#|-------------------------------------------------------------------------|
E |-18---18--18--18---18--18--18--18--18--16--15--16---15---15--------------|
B |-------------------------------------------------------------------------|
F#|-16---16--16--16---16--16--16--16--16--14--13--14---13---13--------------|
C#|-------------------------------------------------------------------------|

   Guitar 2 plays the same thing through the whole heavy part of the bridge

Then at the very end of the song both guitars play this until it ends:

c#|-------------------------------------------------------------------------|
G#|-------------------------------------------------------------------------|
E |-------------------------------------------------------------------------|
B |--4-4-4--4-4-4--2--------------------------------------------------------|
F#|--4-4-4--4-4-4--2--------------------------------------------------------|
C#|--2-2-2--2-2-2--0--------------------------------------------------------|
       *      * *

   that's it. enjoy


Band: A Perfect Circle
Tabber: Warheart89

-----------------------------------------------------------------------------
			Lullaby
-----------------------------------------------------------------------------

Intro/Chorus:
Eb----------------------------------------------------------------|
Bb----------------------------------------------------------------|
Gb----------------------------------------------------------------|
Db--2-2---0h2ý2/3\2--0-0-0----------------------------------------|
Ab--2-2---0h2ý2/3\2--0-0-0----------------------------------------|
Db--2-2---0h2ý2/3\2--0-0-0----------------------------------------|

                                                                                  Play 2X
Eb----------------------------------------------------------|
Bb----------------------------------------------------------|
Gb---------------------------/12-12-12-12-12-12-12-12-------|
Db-2-2---0h2---2/3\2--0-0-0---------------------------------|
Ab-2-2---0h2---2/3\2--0-0-0--/10-10-10-10-10-10-10-10-------|
Db-2-2---0h2---2/3\2--0-0-0---------------------------------|

Eb---------------------------------------------------------|
Bb---------------------------------------------------------|
Gb---------------------------------------------------------|
Db--2-2---0h2----2/3\2--0-0-0ý5\\-x-5\\-x-5\\--------------|
Ab--2-2---0h2----2/3\2--0-0-0ý5\\-x-5\\-x-5\\--------------|
Db--2-2---0h2----2/3\2--0-0-0ý5\\-x-5\\-x-5\\--------------|

Verse:
Eb----------------------------------------------------------------|
Bb----------------------------------------------------------------|
Gb----------------------------------------------------------------|
Db-----2-3-2------2-3-2----------2-3-2------2-3-2-----------------|
Ab---2--------------------------2-------------------------2-------|
Db-2-------------2---------0--2------------2---------0--2---------|

Eb----------------------------------------------------------------|
Bb----------------------------------------------------------------|
Gb----------------------------------------------------------------|
Db-----2-3-2---2-3-2--------5------------7---2----4---------------|
Ab---2---------------------5------------7----2--------------------|
Db-2----------2--------0--5--------5--7------2--------------------|


Repeat Intro/Chorus Riff Except 4th time through play this:
Eb----------------------------------------------------------|
Bb----------------------------------------------------------|
Gb---------------------------10-9--14-10--9--9--------------|
Db--2-2ý0h2---2/3\2---0-0-0---------------------------------|
Ab--2-2ý0h2---2/3\2---0-0-0--8--7--12--8--7--7--------------|
Db--2-2ý0h2ý--2/3\2---0-0-0---------------------------------|


Eb-----------------------------------------------------------|
Bb-----------------------------------------------------------|
Gb--7---------------9------7/10----9----7----9---------------|
Db----------7-------9------7/10----9-------------------------|
Ab--5-------7-------7------5/-8----7----5----7---------------|
Db----------7------------------------------------------------|

Eb------------------------------------|
Bb------------------------------------|
Gb--16--16--14---16---12--------------|
Db------------------------------------|
Ab--14--14--12---14---10--------------|
Db------------------------------------|

Eb-------------------------------------------------------|
Bb-------------------------------------------------------|
Gb-16---16--14--16--9--9--10--9------9--9-10---9---10----|
Db------------------9--9--10--9------9--9-10---9---10----|
Ab-14---14--12--14--7--7--8---7------7--7--8---7---8-----|
Db-------------------------------------------------------|

Play Intro/Chorus Riff:

Eb-----------------------------------------------------------------|
Bb-----------------------------------------------------------------|
Gb----12---11---9----9/12--11--9---9/12--11---12--11---------------|
Db--------------------------------------------------------7---9----|
Ab----10---9----7----7/10---9---7---7/10--9---10---9---------------|
Db--------------------------------------------------------7---9----|

Eb--------------------------------------------------------------|
Bb--------------------------------------------------------------|
Gbý4/9---11--12--14---16----------------------------------------|
Db--------------------------------------------------------------|
Abý2/7---9---10--12---14----------------------------------------|
Db--------------------------------------------------------------|

With Wah: Repeat 3X
Eb----------------------------------------------------------|
Bb----------------------------------------------------------|
Gb-12-12-12-12-12-//12-12-12-12-12-//12-12-12--11--9--------|
Db----------------------------------------------------------|
Ab-10-10-10-10-10-//10-10-10-10-10-//10-10-10--9---7--------|
Db----------------------------------------------------------|

With Wah
Eb-------------------------------------------------------------------------|
Bb-------------------------------------------------------------------------|
Gb-11-11-11--11-11-//11/12--12-12-12---14-14-14-14-14-14-16-16-16-16-16----|
Db-------------------------------------------------------------------------|
Ab-9--9---9---9--9-//9-/10--10-10-10---12-12-12-12-12-12-14-14-14-14-14----|
Db-------------------------------------------------------------------------|

Solo
Eb----------------------------------------------------------------|
Bb----------------------------------------------------------------|
Gb--16---14----13---14ý-16--14---16-19-18-16---14-13-14-13--------|
Db----------------------------------------------------------------|
Ab--14---12----11---12--14--12---14-17-16-14---12-11-12-11--------|
Db----------------------------------------------------------------|

Eb--------------------------------------------------------------------------|
Bb--------------------------------------------------------------------------|
Gb-7/9-9--9-12\9-9--9-7/9-9--9-7/9-14\13-7/9-7/9-9--9-12\9-913-13/14--16-16-|
Db--------------------------------------------------------------------------|
Ab-5/7-7--7-10\7-7--7-5/7-7--7-5/7-12\11-5/7-5/7-7--7-10\7-711-11/12--14-14-|
Db--------------------------------------------------------------------------|

Eb-------------------------------------------------|
Bb-------------------------------------------------|
Gb-------------------------------------------------|
Db-2-0--0-0--5--0--0-0--2--0--0-0--5--0--0-0-------|
Ab-2-0--0-0--5--0--0-0--2--0--0-0--5--0--0-0-------|
Db-2-0--0-0--5--0--0-0--2--0--0-0--5--0--0-0-------|

Tabbed by: parallels@hotmail.com

-----------------------------------------------------------------------------
			Gravity
-----------------------------------------------------------------------------

tuning: 1 1/2 steps down!

Intro x6
|-----------------------------------------------------------------------|
|-----------------------------------------------------------------------|
|--------7-------------7----------------------7-------------------------|
|-9-9-9-------9-9-9-9-----------7-9-10-9-9-9----------------------------|
|-----------------------------------------------------------------------|
|-----------------------------------------------------------------------|

Verse (not sure of strumming just listen)
|-----------------------------------------------------------------------|
|-----------------------------------------------------------------------|
|---------7--------7-----------7------------7--------------7------------|
|-------9---9----9---9-------9---9--------9---9----------9---9----------|
|-----7-------7---------7------------7-------------7--------------------|
|-----------------------------------------------------------------------|

chorus
I am surrendering to the gravity and the unknown (seems crap but just basic chords)
|--------------------------------------------------------------------------|
|--------------------------------------------------------------------------|
|--------9----------7-----------------9------------------------------------|
|--------9----------7--------7--------9------------------------------------|
|--------7----------5--------7--------7------------------------------------|
|----------------------------5---------------------------------------------|

bridge
|------------------------------------------------------------------------|
|----------12---12--12--12-------12---10---------------------------------|
|---------------------------9--------------------------------------------|
|------------------------------------------------------------------------|
|------------------------------------------------------------------------|
|------------------------------------------------------------------------|

|------------------------------------------------------------------------|
|------------------------------------------------------------------------|
|------------------------------------------------------------------------|
|------------5------------5--------------5-------------------------------|
|----7-7-7------7-7-7-7------5-7-8-7-7-7---------------------------------|
|------------------------------------------------------------------------|
comments
print report bad tab
2 comments total.
0 reply
spoonman017 wrote on January 3 2005, 12:00 am

I got all excited, just to find out none of these are new...

0 reply
Night_Soul wrote on January 4 2005, 12:00 am

yep... Grande merda... all you did was copy this from other guys, copy/paste, didn't even tabbed 3 songs, and most of them are crap... Sorry, but it's true. 1 * for this!

I want to post or [tab]
guest
You may want to rate the tab now too:
select rating
Please do not post tabs as comments. Select "correction" instead!