Oops, an error
Loading. Please wait.

Challa Tab

ver1
ver1

Whole song

More versions @911Tabs.com
51,462 views 154 this week
3 commentsread comments
1 2 3 4 5
accurate
x 8
Autoscroll
+/-
esc
set tempo
stop
Contributor
Hey! There's an official Ultimate Guitar app which is ideal
for learning songs when you're away from computer. Get the app
WARNING: You are trying to view
                                    content from Ultimate-Guitar.com
                                    in an unauthorized application,
                                    which is prohibited.

                                    Please use an official Ultimate
                                    Guitar Tabs application for iPhone,
                                    iPad or Android to access legitimate
                                    chords, guitar, bass, and drum tabs
                                    from Ultimate-Guitar.com database.

                                    Type "ultimate guitar tabs" in Apple
                                    App Store's or Android Market's
                                    search to find the application.
CHALLA : JAB TAK HAI JAAN

Dm   Am   G   E

E----------------------------------------------------------|
B----------------------------------------------------------|
G-----------------5------------------------------5---------|
D------------5--------7--7--7------3----5----7----7--7--7--|
A-----5---7-----------------------7------------------------|
E----------------------------------------------------------|

E----------------------------------------------------------|
B----------------------------------------------------------|
G----------------------------------------------------------|
D--5-----7------9------5------5--------7-------------------|
A----------------------------8---------8-------------------|
E----------------------------------------------------------|

This solo is played tow times.

(Dm)Challa ki labh da (F) phire……(C)
(G) Challa ki labh da (Dm)phire
(F) Yaaron oda ghar (C) keda
(G) Lokan ton puchda (Dm) phire

(Am) Challa hansda phire
(F)Challa rounda phire
(G) Challa gali gali rulda phire……(E)

(Am)Challe tu sab da
(F)Challe tera koi nahi
(G)Challa gali gali rul da phire…….(E)

(Dm)Challa ki labh da (F) phire……(C)
(G) Challa ki labh da (Dm)phire
(F) Yaaron oda ghar (C) keda
(G) Lokan ton puchda (Dm) phire

(Dm)Challa ki labh da (F) phire……(C)

Am   Dm  G   E

(Am) Rang satrangi (F) de…….(C) bulbula (G) di boli
(Am) Dhoop de pairi (F)chale, (C)chhavan ni (G) le doli
(Am) Rang satrangi (F) de…….(C) bulbula (G) di boli
(Am) Dhoop de pairi (F)chale, (C)chhavan ni (G) le doli
(Am)Oye kaale kale badalan (F) 'ch chand  labh da
(C) Goongiyan haw ava diyaan(G) waaja su)n da
(Am)Yaaro aase-paase wasda (F) ay yaar mera
(C)Dikhda ni ohdiyaan khusbu(G)aan sunghda

(Dm)Challa ki labh da (F) phire……(C)
(G) Challa ki labh da (Dm)phire
(F) Yaaron oda ghar (C) keda
(G) Lokan ton puchda (Dm) phire

(Am)Naa visa(F)al hoya (C) kadi na judai (G)hoi
(Am)Ishq de (F)qaidi ki naa(C) rihaai (G) hoi
(Am)Lokon sufne 'ch milne(F) da wada usda
(C)Saari saari raat (G)naakh lagdi
(Am) Mere saa vi thode (F)thode ghat aaunde
(C)Meri nabz vi thodi (G)ghat wajdi

(Dm)Challa ki labh da (F) phire……(C)
(G) Challa ki labh da (Dm)phire
(F) Yaaron oda ghar (C) keda
(G) Lokan ton puchda (Dm) phire

(Am) Challa hansda phire
(F)Challa rounda phire
(G) Challa gali gali rulda phire……(E)

(Am)Challe tu sab da
(F)Challe tera koi nahi
(G)Challa gali gali rul da phire…….(E)

(Dm)Challa ki labh da (F) phire……(C)
(G) Challa ki labh da (Dm)phire
(F) Yaaron oda ghar (C) keda
(G) Lokan ton puchda (Dm) phire

Thank you,
HHP
Have a nice day !!

You can tell your favorites songs name and I upload guitar tabs for you.

harsh.patel.71271466@facebook.com
comments
print report bad tab
3 comments total.
0 reply
Sash TheCowboy wrote on July 18 2013, 05:11 am

E----------------------------------------------------------|
B----------------------------------------------------------|
G----------------------------------------------------------|
D--5-----7------9------5------5----------------------------|
A----------------------------8---------8-7-----------------|
E----------------------------------------------------------|

0 reply
Sash TheCowboy wrote on July 18 2013, 05:55 am

2nd solo
E-----------------------------------------------------------------
B----------3--3s5--5h6-3s5--6-3h5---5h6--3-------------------------
G-------245-------------------------------------------------------
D----235----------------------------------------------------------
A-235-------------------------------------------------------------
E---------------------------------------------------------------

E--7p5-8-7-8-10-10s12--8-----12-8---12-8---12-8------12-8-----8-8h10-
B--5--------------------------------------------10--------10---------
G--5-----------------------------------------------------------------
D--7-----------------------------------------------------------------
A--------------------------------------------------------------------
E---------------------------------------------------------------------

0 reply
Sash TheCowboy wrote on July 18 2013, 10:34 pm

Strumming pattern - D-D-DUDUD-D
(Dm)Challa ki labh da (F) phire……(C)
(G) Challa ki labh da (Dm)phire
(F) Yaaron oda ghar (C) keda
(G) Lokan ton puchda (Dm) phire

(Am) Challa hansda phire
(F)Challa rounda phire
(G) Challa gali gali rulda phire……(C)

(Am)Challe tu sab da
(F)Challe tera koi nahi
(G)Challa gali gali rul da phire…….(E)

(Dm)Challa ki labh da (F) phire……(C)
(G) Challa ki labh da (Dm)phire
(F) Yaaron oda ghar (C) keda
(G) Lokan ton puchda (Dm) phire

(Dm)Challa ki labh da (F) phire……(C)

I want to post or [tab]
guest
You may want to rate the tab now too:
select rating
Please do not post tabs as comments. Select "correction" instead!