Oops, an error
Loading. Please wait.

Wires And The Concept Of Breathing Tab

ver2
ver2

Whole song

More versions @911Tabs.com
3,505 views 1 this week
no commentswrite comment
1 2 3 4 5
excellent!
x 1
Autoscroll
+/-
esc
set tempo
stop
Contributor
WARNING: You are trying to view
                                    content from Ultimate-Guitar.com
                                    in an unauthorized application,
                                    which is prohibited.

                                    Please use an official Ultimate
                                    Guitar Tabs application for iPhone,
                                    iPad or Android to access legitimate
                                    chords, guitar, bass, and drum tabs
                                    from Ultimate-Guitar.com database.

                                    Type "ultimate guitar tabs" in Apple
                                    App Store's or Android Market's
                                    search to find the application.
Tabbed by backwardsxpumpkin
backwardsxpumpkin@gmail.com
Watch me play this song (comment, rate, subscribe for more!):
http://www.youtube.com/watch?v=ikX_jARU1FU


Guitar 1

           "Won't you scream..."
              E  E   E  H         E      E   E   E   E   E   E   E   E   
E||-------|--------------------------|----------------------------------|
B||-------|--------------------------|----------------------------------|
G||-------|--10-----10-----------10--|---L--10--10--10--10--10--10--10--|
D||-------|---x------x------------x--|---L---x---x---x---x---x---x---x--|
A||-------|---8------8------------8--|---L---8---8---8---8---8---8---8--|
D||-------|--------------------------|----------------------------------|
 
 
   E   E   E   E   E   E  E   E      E   E   E   E   E   E   E   E   
---------------------------------|----------------------------------|
---------------------------------|----------------------------------|
--10--10--10--10--10--10-----14--|---L--14--14--14--14--14--14--14--|
---x---x---x---x---x---x------x--|---L---x---x---x---x---x---x---x--|
---8---8---8---8---8---8-----12--|---L--12--12--12--12--12--12--12--|
---------------------------------|----------------------------------|
 
 
   E   E   E   E   E   E   E   E      E   E   E   E   E   E   E   E   
----------------------------------|----------------------------------|
----------------------------------|----------------------------------|
--12--12--12--12--10--10--10--10--|---L--10--10--10--10--10--10--10--|
---x---x---x---x---x---x---x---x--|---L---x---x---x---x---x---x---x--|
--10--10--10--10---8---8---8---8--|---L---8---8---8---8---8---8---8--|
----------------------------------|----------------------------------|
 
 
   E   E   E   E   E   E  E   E      E   E   E   E   E   E   E   E   
---------------------------------|----------------------------------|
---------------------------------|----------------------------------|
--10--10--10--10--10--10-----10--|---L--10--10--10--10--10--10--10--|
---x---x---x---x---x---x------x--|---L---x---x---x---x---x---x---x--|
---8---8---8---8---8---8------8--|---L---8---8---8---8---8---8---8--|
---------------------------------|----------------------------------|
 
 
                                   "As I lay down..."
   E   E   E   E   E   E   E   E     W                   W                 
----------------------------------|-------------------|-------------------|
----------------------------------|-------------------|-------------------|
--10--10--10--10--10--10--10--10--|-------------------|-------------------|
---x---x---x---x---x---x---x---x--|--8----------------|--L----------------|
---8---8---8---8---8---8---8---8--|--8----------------|--L----------------|
----------------------------------|--8----------------|--L----------------|
 
 
                                           "The hiding place..."
                                                      PM PM               
   W                    H        H           H        E  E  Q             
--------------------|---------------------|----------------------|-------|
--------------------|---------------------|----------------------|-------|
--10----------------|---L-----------------|----------------------|-------|
---8----------------|---L-----------------|--0-------------------|-------|
---8----------------|---L-----------------|--0--------0--0-------|-------|
---8----------------|---L-----------------|--0--------0--0-------|-------|
 
 
           PM PM                          PM PM       
  H        E  E  Q               H        E  E  Q     
----------------------|-------|----------------------|
----------------------|-------|----------------------|
----------------------|-------|----------------------|
--0-------------------|-------|--8-------------------|
--0--------0--0-------|-------|--8--------8--8-------|
--0--------0--0-------|-------|--8--------8--8-------|
 
 
                                          PM PM               
  E  E  E  E  E    E   E   E     H        E  E  Q             
------------------------------|----------------------|-------|
------------------------------|----------------------|-------|
-----9--9--9--9S--10--10--10--|----------------------|-------|
-----x--x--x--x----x---x---x--|--8-------------------|-------|
-----7--7--7--7S---8---8---8--|--8--------8--8-------|-------|
------------------------------|--8--------8--8-------|-------|
 
 
"You sent me out..."
   T       T       T            T               T       T      T       
   E   E   E   E   E    E   E   E       E   E   E   E   E   E  E   E   
------------------------------------|---------------------------------|
--10p--6-----------------------10S--|--13p--6-------------------------|
----------10p--3--------------------|----------10p--3----------9p--3--|
------------------10s--12p--3-------|------------------10p--3---------|
------------------------------------|---------------------------------|
------------------------------------|---------------------------------|
 
 
   T       T       T            T               T       T      T       
   E   E   E   E   E    E   E   E       E   E   E   E   E   E  E   E   
------------------------------------|---------------------------------|
--10p--6-----------------------10S--|--13p--6-------------------------|
----------10p--3--------------------|----------10p--3----------9p--3--|
------------------10s--12p--3-------|------------------10p--3---------|
------------------------------------|---------------------------------|
------------------------------------|---------------------------------|
 
 
   T       T       T            T               T       T      T       
   E   E   E   E   E    E   E   E       E   E   E   E   E   E  E   E   
------------------------------------|---------------------------------|
--10p--6-----------------------10S--|--13p--6-------------------------|
----------10p--3--------------------|----------10p--3----------9p--3--|
------------------10s--12p--3-------|------------------10p--3---------|
------------------------------------|---------------------------------|
------------------------------------|---------------------------------|
 
 
   T       T       T            T               T       T       T       
   E   E   E   E   E    E   E   E       E   E   E   E   E   E   E   E   
------------------------------------|----------------------------------|
--10p--6-----------------------10S--|--13p--6--13p--6--13p--6--13p--6--|
----------10p--3--------------------|----------------------------------|
------------------10s--12p--3-------|----------------------------------|
------------------------------------|----------------------------------|
------------------------------------|----------------------------------|
 
 
   T       T       T            T               T       T      T       
   E   E   E   E   E    E   E   E       E   E   E   E   E   E  E   E   
------------------------------------|---------------------------------|
--10p--6-----------------------10S--|--13p--6-------------------------|
----------10p--3--------------------|----------10p--3----------9p--3--|
------------------10s--12p--3-------|------------------10p--3---------|
------------------------------------|---------------------------------|
------------------------------------|---------------------------------|
 
 
   T       T       T            T               T       T      T       
   E   E   E   E   E    E   E   E       E   E   E   E   E   E  E   E   
------------------------------------|---------------------------------|
--10p--6-----------------------10S--|--13p--6-------------------------|
----------10p--3--------------------|----------10p--3----------9p--3--|
------------------10s--12p--3-------|------------------10p--3---------|
------------------------------------|---------------------------------|
------------------------------------|---------------------------------|
 
 
   T       T       T            T               T       T      T       
   E   E   E   E   E    E   E   E       E   E   E   E   E   E  E   E   
------------------------------------|---------------------------------|
--10p--6-----------------------10S--|--13p--6-------------------------|
----------10p--3--------------------|----------10p--3----------9p--3--|
------------------10s--12p--3-------|------------------10p--3---------|
------------------------------------|---------------------------------|
------------------------------------|---------------------------------|
 
 
   T       T       T            T                         
   E   E   E   E   E    E   E   E       W                 
------------------------------------|--------------------|
--10p--6-----------------------10S--|--13----------------|
----------10p--3--------------------|--------------------|
------------------10s--12p--3-------|--------------------|
------------------------------------|--------------------|
------------------------------------|--------------------|
 
 
"Hold my breath..."
  Q.     Q.      Q        E   Q.      E   E   E  E     Q.     Q.      Q     
----------------------|-----------------------------|----------------------|
----------------------|-----------------------------|----------------------|
----------------------|------10------10--10--10-----|----------------------|
--8------0------10----|---L---x-------x---x---x-----|--8------0------10----|
--8------0------10----|---L---8-------8---8---8-----|--8------0------10----|
--8------0------10----|---L-------------------------|--8------0------10----|
 

                                  "I hold it..." 
   E   Q.      S  S  S  S  E  E     E  E  E  E  E  E  E  E   
---------------------------------|--------------------------|
---------------------------------|--------------------------|
------10------10-10-10-10-10-----|--------------------------|
---L---x-------x--x--x--x--x-----|--8--8--8--8--8--8--8--8--|
---L---8-------8--8--8--8--8-----|--8--8--8--8--8--8--8--8--|
---L-----------------------------|--8--8--8--8--8--8--8--8--|
 
 
  E  E  E  E  E  E  E  E      E   E   E   E   E   E   E   E   
--------------------------|----------------------------------|
--------------------------|----------------------------------|
--------------------------|----------------------------------|
--8--8--8--8--8--8--8--8--|--10--10--10--10--10--10--10--10--|
--8--8--8--8--8--8--8--8--|--10--10--10--10--10--10--10--10--|
--8--8--8--8--8--8--8--8--|--10--10--10--10--10--10--10--10--|
 
 
   E   E   E   E   E   E   E   E     Q.     Q.      Q        W                 
----------------------------------|----------------------|--------------------|
----------------------------------|----------------------|--------------------|
----------------------------------|----------------------|--------------------|
--10--10--10--10--10--10--10--10--|--8------0------10----|---L----------------|
--10--10--10--10--10--10--10--10--|--8------0-------8----|---L----------------|
--10--10--10--10--10--10--10--10--|--8------0-------8----|---L----------------|
 

"Won't you scream..." 
   E  E   E  H         E      E   E   E   E   E   E   E   E   
--------------------------|----------------------------------|
--------------------------|----------------------------------|
--10-----10-----------10--|---L--10--10--10--10--10--10--10--|
---x------x------------x--|---L---x---x---x---x---x---x---x--|
---8------8------------8--|---L---8---8---8---8---8---8---8--|
--------------------------|----------------------------------|
 
 
   E   E   E   E   E   E  E   E      E   E   E   E   E   E   E   E   
---------------------------------|----------------------------------|
---------------------------------|----------------------------------|
--10--10--10--10--10--10-----14--|---L--14--14--14--14--14--14--14--|
---x---x---x---x---x---x------x--|---L---x---x---x---x---x---x---x--|
---8---8---8---8---8---8-----12--|---L--12--12--12--12--12--12--12--|
---------------------------------|----------------------------------|
 
 
   E   E   E   E   E   E   E   E      E   E   E   E   E   E   E   E   
----------------------------------|----------------------------------|
----------------------------------|----------------------------------|
--12--12--12--12--10--10--10--10--|---L--10--10--10--10--10--10--10--|
---x---x---x---x---x---x---x---x--|---L---x---x---x---x---x---x---x--|
--10--10--10--10---8---8---8---8--|---L---8---8---8---8---8---8---8--|
----------------------------------|----------------------------------|
 
 
   E   E   E   E   E   E  E   E      E   E   E   E   E   E   E   E   
---------------------------------|----------------------------------|
---------------------------------|----------------------------------|
--10--10--10--10--10--10-----10--|---L--10--10--10--10--10--10--10--|
---x---x---x---x---x---x------x--|---L---x---x---x---x---x---x---x--|
---8---8---8---8---8---8------8--|---L---8---8---8---8---8---8---8--|
---------------------------------|----------------------------------|
 

                                   "And I regret..." 
   E   E   E   E   E   E   E   E     W                   W                 
----------------------------------|-------------------|-------------------|
----------------------------------|-------------------|-------------------|
--10--10--10--10--10--10--10--10--|-------------------|-------------------|
---x---x---x---x---x---x---x---x--|--8----------------|--L----------------|
---8---8---8---8---8---8---8---8--|--8----------------|--L----------------|
----------------------------------|--8----------------|--L----------------|
 
 
                                           "Searching for my plans..."
                                                      PM PM               
   W                    H        H           H        E  E  Q             
--------------------|---------------------|----------------------|-------|
--------------------|---------------------|----------------------|-------|
--10----------------|---L-----------------|----------------------|-------|
---8----------------|---L-----------------|--0-------------------|-------|
---8----------------|---L-----------------|--0--------0--0-------|-------|
---8----------------|---L-----------------|--0--------0--0-------|-------|
 
 
           PM PM                          PM PM       
  H        E  E  Q               H        E  E  Q     
----------------------|-------|----------------------|
----------------------|-------|----------------------|
----------------------|-------|----------------------|
--0-------------------|-------|--8-------------------|
--0--------0--0-------|-------|--8--------8--8-------|
--0--------0--0-------|-------|--8--------8--8-------|
 
 
                                          PM PM               
  E  E  E  E  E    E   E   E     H        E  E  Q             
------------------------------|----------------------|-------|
------------------------------|----------------------|-------|
-----9--9--9--9S--10--10--10--|----------------------|-------|
-----x--x--x--x----x---x---x--|--8-------------------|-------|
-----7--7--7--7S---8---8---8--|--8--------8--8-------|-------|
------------------------------|--8--------8--8-------|-------|
 
 
"You sent me..."
   T       T       T            T               T       T      T       
   E   E   E   E   E    E   E   E       E   E   E   E   E   E  E   E   
------------------------------------|---------------------------------|
--10p--6-----------------------10S--|--13p--6-------------------------|
----------10p--3--------------------|----------10p--3----------9p--3--|
------------------10s--12p--3-------|------------------10p--3---------|
------------------------------------|---------------------------------|
------------------------------------|---------------------------------|
 
 
   T       T       T            T               T       T      T       
   E   E   E   E   E    E   E   E       E   E   E   E   E   E  E   E   
------------------------------------|---------------------------------|
--10p--6-----------------------10S--|--13p--6-------------------------|
----------10p--3--------------------|----------10p--3----------9p--3--|
------------------10s--12p--3-------|------------------10p--3---------|
------------------------------------|---------------------------------|
------------------------------------|---------------------------------|
 
 
   T       T       T            T               T       T      T       
   E   E   E   E   E    E   E   E       E   E   E   E   E   E  E   E   
------------------------------------|---------------------------------|
--10p--6-----------------------10S--|--13p--6-------------------------|
----------10p--3--------------------|----------10p--3----------9p--3--|
------------------10s--12p--3-------|------------------10p--3---------|
------------------------------------|---------------------------------|
------------------------------------|---------------------------------|
 
 
   T       T       T            T               T       T       T       
   E   E   E   E   E    E   E   E       E   E   E   E   E   E   E   E   
------------------------------------|----------------------------------|
--10p--6-----------------------10S--|--13p--6--13p--6--13p--6--13p--6--|
----------10p--3--------------------|----------------------------------|
------------------10s--12p--3-------|----------------------------------|
------------------------------------|----------------------------------|
------------------------------------|----------------------------------|
 
 
   T       T       T            T               T       T      T       
   E   E   E   E   E    E   E   E       E   E   E   E   E   E  E   E   
------------------------------------|---------------------------------|
--10p--6-----------------------10S--|--13p--6-------------------------|
----------10p--3--------------------|----------10p--3----------9p--3--|
------------------10s--12p--3-------|------------------10p--3---------|
------------------------------------|---------------------------------|
------------------------------------|---------------------------------|
 
 
   T       T       T            T               T       T      T       
   E   E   E   E   E    E   E   E       E   E   E   E   E   E  E   E   
------------------------------------|---------------------------------|
--10p--6-----------------------10S--|--13p--6-------------------------|
----------10p--3--------------------|----------10p--3----------9p--3--|
------------------10s--12p--3-------|------------------10p--3---------|
------------------------------------|---------------------------------|
------------------------------------|---------------------------------|
 
 
   T       T       T            T               T       T      T       
   E   E   E   E   E    E   E   E       E   E   E   E   E   E  E   E   
------------------------------------|---------------------------------|
--10p--6-----------------------10S--|--13p--6-------------------------|
----------10p--3--------------------|----------10p--3----------9p--3--|
------------------10s--12p--3-------|------------------10p--3---------|
------------------------------------|---------------------------------|
------------------------------------|---------------------------------|
 
 
   T       T       T            T                         
   E   E   E   E   E    E   E   E       W                 
------------------------------------|--------------------|
--10p--6-----------------------10S--|--13----------------|
----------10p--3--------------------|--------------------|
------------------10s--12p--3-------|--------------------|
------------------------------------|--------------------|
------------------------------------|--------------------|
 
 
"Let go of the wires!"
  PM PM PM PM PM PM PM PM PM              PM PM PM    PM PM PM PM PM     
  S  S  S  S  S  S  S  S  E  Q.        E  S  S  E  E  S  S  S  S  E  E   
------------------------------------|-----------------------------------|
------------------------------------|-----------------------------------|
------------------------------------|-----------------------------------|
------------------------------------|-----------------------------------|
--0--0--0--0--0--0--0--0--0---------|-----0--0--0-----0--0--0--0--0-----|
--0--0--0--0--0--0--0--0--0---------|-----0--0--0-----0--0--0--0--0-----|
 
 
  PM PM PM PM PM PM PM PM PM              PM PM PM    PM PM PM PM PM     
  S  S  S  S  S  S  S  S  E  Q.        E  S  S  E  E  S  S  S  S  E  E   
------------------------------------|-----------------------------------|
------------------------------------|-----------------------------------|
------------------------------------|-----------------------------------|
------------------------------------|-----------------------------------|
--0--0--0--0--0--0--0--0--0---------|-----0--0--0-----0--0--0--0--0-----|
--0--0--0--0--0--0--0--0--0---------|-----0--0--0-----0--0--0--0--0-----|
 
 
  PM PM PM PM PM PM PM PM PM          PM PM PM PM   PM PM PM PM PM    
  S  S  S  S  S  S  S  S  H           E  S  S  Q    S  S  S  S  Q     
-----------------------------------|---------------------------------|
-----------------------------------|---------------------------------|
-----------------------------------|---------------------------------|
-----------------------------------|---------------------------------|
--0--0--0--0--0--0--0--0--0--------|--L--0--0--0----0--0--0--0--0----|
--0--0--0--0--0--0--0--0--0--------|--L--0--0--0----0--0--0--0--0----|
 
 
  PM PM PM PM PM PM PM PM PM          PM PM PM PM   PM PM PM PM PM    
  S  S  S  S  S  S  S  S  H           E  S  S  Q    S  S  S  S  Q     
-----------------------------------|---------------------------------|
-----------------------------------|---------------------------------|
-----------------------------------|---------------------------------|
-----------------------------------|---------------------------------|
--0--0--0--0--0--0--0--0--0--------|--L--0--0--0----0--0--0--0--0----|
--0--0--0--0--0--0--0--0--0--------|--L--0--0--0----0--0--0--0--0----|
 
 
  PM PM PM PM PM PM PM PM PM          PM                  PM                
  S  S  S  S  S  S  S  S  H           W                   W                 
-----------------------------------|-------------------|-------------------|
-----------------------------------|-------------------|-------------------|
-----------------------------------|-------------------|-------------------|
-----------------------------------|-------------------|-------------------|
--0--0--0--0--0--0--0--0--0--------|--L----------------|--L----------------|
--0--0--0--0--0--0--0--0--0--------|--L----------------|--L----------------|
 
 
  PM                  PM                 
  W                   W                  
-------------------|-------------------||
-------------------|-------------------||
-------------------|-------------------||
-------------------|-------------------||
--L----------------|--L----------------||
--L----------------|--L----------------||



--------------------------------------------------------------




Guitar 2

           "Won't you scream..."
             E  E  E  H        E     E  E  E  E  E  E  E  E   
E||-------|-----------------------|--------------------------|
B||-------|-----------------------|--------------------------|
G||-------|-----------------------|--------------------------|
D||-------|--7-----7-----------7--|--L--7--7--7--7--7--7--7--|
A||-------|--8-----8-----------8--|--L--8--8--8--8--8--8--8--|
D||-------|-----------------------|--------------------------|
 
 
  E  E  E  E  E  E  E  E     E  E  E  E  E  E  E  E   
--------------------------|--------------------------|
--------------------------|--------------------------|
-----------------------7--|--L--7--7--7--7--7--7--7--|
--7--7--7--7--7--7-----x--|--L--x--x--x--x--x--x--x--|
--8--8--8--8--8--8-----5--|--L--5--5--5--5--5--5--5--|
--------------------------|--------------------------|
 
 
  E  E  E  E   E  Q    E     E   E  E   E  E   E  E   E   
--------------------------|------------------------------|
--------------------------|------------------------------|
--9--9--9--9--10----------|------------------------------|
--x--x--x--x---x-------2--|--Lh--3--5p--0--5h--7--8p--0--|
--7--7--7--7---8----------|------------------------------|
--------------------------|------------------------------|
 
 
  E   E  E   E  E   E  E  E     E   E  E   E  E   E  E   E   
-----------------------------|------------------------------|
-----------------------------|------------------------------|
-----------------------------|------------------------------|
--7p--0--3h--5--3p--0-----2--|--Lh--3--5p--0--5h--7--8p--0--|
-----------------------------|------------------------------|
-----------------------------|------------------------------|
 
 
                             "As I lay down..."
  E   E  E   E  E   E  Q       W                   W                 
----------------------------|-------------------|-------------------|
----------------------------|-------------------|-------------------|
----------------------------|-------------------|-------------------|
--7p--0--3h--5--3p--0-------|--8----------------|--L----------------|
----------------------------|--8----------------|--L----------------|
----------------------------|--8----------------|--L----------------|
 
 
                                          "The hiding place..."
                                                     PM PM               
   W                   H        H           H        E  E  Q             
--------------------|--------------------|----------------------|-------|
--------------------|--------------------|----------------------|-------|
--------------------|--------------------|----------------------|-------|
--------------------|--------------------|--0-------------------|-------|
--12----------------|--L-----------------|--0--------0--0-------|-------|
--12----------------|--L-----------------|--0--------0--0-------|-------|
 
 
           PM PM                          PM PM               
  H        E  E  Q               H        E  E  Q             
----------------------|-------|----------------------|-------|
----------------------|-------|----------------------|-------|
----------------------|-------|----------------------|-------|
--0-------------------|-------|--8-------------------|-------|
--0--------0--0-------|-------|--8--------8--8-------|-------|
--0--------0--0-------|-------|--8--------8--8-------|-------|
 
 
           PM PM                                         
  H        E  E  Q       E   E   E   E   E   E   E   E   
----------------------|---------------------------------|
----------------------|---------------------------------|
----------------------|---------------------------------|
--8-------------------|-----10--10--10--10--10--10--10--|
--8--------8--8-------|-----10--10--10--10--10--10--10--|
--8--------8--8-------|-----10--10--10--10--10--10--10--|
 

"You sent me..." 
   E   E   E   E   E   E   E   E      E   E   E   E   E   E   E   E   
----------------------------------|----------------------------------|
----------------------------------|----------------------------------|
--10--10--10--10--10--10--10--10--|--10--10--10--10--10--10--10--10--|
---x---x---x---x---x---x---x---x--|---x---x---x---x---x---x---x---x--|
---8---8---8---8---8---8---8---8--|---8---8---8---8---8---8---8---8--|
----------------------------------|----------------------------------|
 
 
   E   E   E   E   E   E   E   E      E   E   E   E   E   E   E   E   
----------------------------------|----------------------------------|
----------------------------------|----------------------------------|
--10--10--10--10--10--10--10--10--|--10--10--10--10--10--10--10--10--|
---x---x---x---x---x---x---x---x--|---x---x---x---x---x---x---x---x--|
---8---8---8---8---8---8---8---8--|---8---8---8---8---8---8---8---8--|
----------------------------------|----------------------------------|
 
 
   E   E   E   E   E   E   E   E      E   E   E   E   E   E   E   E   
----------------------------------|----------------------------------|
----------------------------------|----------------------------------|
--10--10--10--10--10--10--10--10--|--10--10--10--10--10--10--10--10--|
---x---x---x---x---x---x---x---x--|---x---x---x---x---x---x---x---x--|
---8---8---8---8---8---8---8---8--|---8---8---8---8---8---8---8---8--|
----------------------------------|----------------------------------|
 
 
   E   E   E   E   E   E   E   E      E   E   E   E   E   E   E   E   
----------------------------------|----------------------------------|
----------------------------------|----------------------------------|
--10--10--10--10--10--10--10--10--|--10--10--10--10--10--10--10--10--|
---x---x---x---x---x---x---x---x--|---x---x---x---x---x---x---x---x--|
---8---8---8---8---8---8---8---8--|---8---8---8---8---8---8---8---8--|
----------------------------------|----------------------------------|
 
 
   E   E   E   E   E   E   E   E      E   E   E   E   E   E   E   E   
----------------------------------|----------------------------------|
----------------------------------|----------------------------------|
--10--10--10--10--10--10--10--10--|--10--10--10--10--10--10--10--10--|
---x---x---x---x---x---x---x---x--|---x---x---x---x---x---x---x---x--|
---8---8---8---8---8---8---8---8--|---8---8---8---8---8---8---8---8--|
----------------------------------|----------------------------------|
 
 
   E   E   E   E   E   E   E   E      E   E   E   E   E   E   E   E   
----------------------------------|----------------------------------|
----------------------------------|----------------------------------|
--10--10--10--10--10--10--10--10--|--10--10--10--10--10--10--10--10--|
---x---x---x---x---x---x---x---x--|---x---x---x---x---x---x---x---x--|
---8---8---8---8---8---8---8---8--|---8---8---8---8---8---8---8---8--|
----------------------------------|----------------------------------|
 
 
   E   E   E   E   E   E   E   E      E   E   E   E   E   E   E   E   
----------------------------------|----------------------------------|
----------------------------------|----------------------------------|
--10--10--10--10--10--10--10--10--|--10--10--10--10--10--10--10--10--|
---x---x---x---x---x---x---x---x--|---x---x---x---x---x---x---x---x--|
---8---8---8---8---8---8---8---8--|---8---8---8---8---8---8---8---8--|
----------------------------------|----------------------------------|
 
 
   E   E   E   E   E   E   E   E     E  E  E  E  E  E  E  E   
----------------------------------|--------------------------|
----------------------------------|--------------------------|
--10--10--10--10--10--10--10--10--|--9--9--9--9--9--9--9--9--|
---x---x---x---x---x---x---x---x--|--x--x--x--x--x--x--x--x--|
---8---8---8---8---8---8---8---8--|--7--7--7--7--7--7--7--7--|
----------------------------------|--------------------------|


"Hold my breath..." 
  Q.     Q.      Q        E  Q.      E   E   E  E     Q.     Q.      Q     
----------------------|----------------------------|----------------------|
----------------------|----------------------------|----------------------|
----------------------|----------------------------|----------------------|
--8------0------10----|---L--8------10--10--10-----|--8------0------10----|
--8------0------10----|---L--8------10--10--10-----|--8------0------10----|
--8------0------10----|---L--8------10--10--10-----|--8------0------10----|
 

                                 "I hold it..." 
   E  Q.      S  S  S  S  E  E      E   E   E   E   E   E   E   E   
--------------------------------|----------------------------------|
--------------------------------|----------------------------------|
--------------------------------|--10--10--10--10--10--10--10--10--|
---L--8------10-10-10-10-10-----|---x---x---x---x---x---x---x---x--|
---L--8------10-10-10-10-10-----|---8---8---8---8---8---8---8---8--|
---L--8------10-10-10-10-10-----|----------------------------------|
 
 
   E   E   E   E   E   E   E   E      E   E   E   E   E   E   E   E   
----------------------------------|----------------------------------|
----------------------------------|----------------------------------|
--10--10--10--10--10--10--10--10--|--10--10--10--10--10--10--10--10--|
---x---x---x---x---x---x---x---x--|---x---x---x---x---x---x---x---x--|
---8---8---8---8---8---8---8---8--|---8---8---8---8---8---8---8---8--|
----------------------------------|----------------------------------|
 
 
   E   E   E   E   E   E   E   E     Q.     Q.      Q        W                 
----------------------------------|----------------------|--------------------|
----------------------------------|----------------------|--------------------|
--10--10--10--10--10--10--10--10--|----------------10----|---L----------------|
---x---x---x---x---x---x---x---x--|--8------0-------x----|---L----------------|
---8---8---8---8---8---8---8---8--|--8------0-------8----|---L----------------|
----------------------------------|--8------0------------|--------------------|
 

"Won't you scream..." 
  E  E  E  H        E     E  E  E  E  E  E  E  E     E  E  E  E  E  E  E  E   
-----------------------|--------------------------|--------------------------|
-----------------------|--------------------------|--------------------------|
-----------------------|--------------------------|-----------------------7--|
--7-----7-----------7--|--L--7--7--7--7--7--7--7--|--7--7--7--7--7--7-----x--|
--8-----8-----------8--|--L--8--8--8--8--8--8--8--|--8--8--8--8--8--8-----5--|
-----------------------|--------------------------|--------------------------|
 
 
  E  E  E  E  E  E  E  E     E  E  E  E   E  Q    E   
--------------------------|--------------------------|
--------------------------|--------------------------|
--L--7--7--7--7--7--7--7--|--9--9--9--9--10----------|
--L--x--x--x--x--x--x--x--|--x--x--x--x---x-------2--|
--L--5--5--5--5--5--5--5--|--7--7--7--7---8----------|
--------------------------|--------------------------|
 
 
  E   E  E   E  E   E  E   E     E   E  E   E  E   E  E  E   
------------------------------|-----------------------------|
------------------------------|-----------------------------|
------------------------------|-----------------------------|
--Lh--3--5p--0--5h--7--8p--0--|--7p--0--3h--5--3p--0-----2--|
------------------------------|-----------------------------|
------------------------------|-----------------------------|
 
 
                                                            "And I regret..."
  E   E  E   E  E   E  E   E     E   E  E   E  E   E  Q       W                 
------------------------------|----------------------------|-------------------|
------------------------------|----------------------------|-------------------|
------------------------------|----------------------------|-------------------|
--Lh--3--5p--0--5h--7--8p--0--|--7p--0--3h--5--3p--0-------|--8----------------|
------------------------------|----------------------------|--8----------------|
------------------------------|----------------------------|--8----------------|
 
 
  W                    W                   H        H         
-------------------|--------------------|--------------------|
-------------------|--------------------|--------------------|
-------------------|--------------------|--------------------|
--L----------------|--------------------|--------------------|
--L----------------|--12----------------|--L-----------------|
--L----------------|--12----------------|--L-----------------|
 
 
"Searching for my plans..."
           PM PM                          PM PM               
  H        E  E  Q               H        E  E  Q             
----------------------|-------|----------------------|-------|
----------------------|-------|----------------------|-------|
----------------------|-------|----------------------|-------|
--0-------------------|-------|--0-------------------|-------|
--0--------0--0-------|-------|--0--------0--0-------|-------|
--0--------0--0-------|-------|--0--------0--0-------|-------|
 
 
           PM PM                          PM PM       
  H        E  E  Q               H        E  E  Q     
----------------------|-------|----------------------|
----------------------|-------|----------------------|
----------------------|-------|----------------------|
--8-------------------|-------|--8-------------------|
--8--------8--8-------|-------|--8--------8--8-------|
--8--------8--8-------|-------|--8--------8--8-------|


   E   E   E   E   E   E   E   E    
---------------------------------|
---------------------------------|
---------------------------------|
-----10--10--10--10--10--10--10--|
-----10--10--10--10--10--10--10--|
-----10--10--10--10--10--10--10--|

"You sent me..."
   E   E   E   E   E   E   E   E      E   E   E   E   E   E   E   E   
----------------------------------|----------------------------------|
----------------------------------|----------------------------------|
--10--10--10--10--10--10--10--10--|--10--10--10--10--10--10--10--10--|
---x---x---x---x---x---x---x---x--|---x---x---x---x---x---x---x---x--|
---8---8---8---8---8---8---8---8--|---8---8---8---8---8---8---8---8--|
----------------------------------|----------------------------------|
 
 
   E   E   E   E   E   E   E   E      E   E   E   E   E   E   E   E   
----------------------------------|----------------------------------|
----------------------------------|----------------------------------|
--10--10--10--10--10--10--10--10--|--10--10--10--10--10--10--10--10--|
---x---x---x---x---x---x---x---x--|---x---x---x---x---x---x---x---x--|
---8---8---8---8---8---8---8---8--|---8---8---8---8---8---8---8---8--|
----------------------------------|----------------------------------|
 
 
   E   E   E   E   E   E   E   E      E   E   E   E   E   E   E   E   
----------------------------------|----------------------------------|
----------------------------------|----------------------------------|
--10--10--10--10--10--10--10--10--|--10--10--10--10--10--10--10--10--|
---x---x---x---x---x---x---x---x--|---x---x---x---x---x---x---x---x--|
---8---8---8---8---8---8---8---8--|---8---8---8---8---8---8---8---8--|
----------------------------------|----------------------------------|
 
 
   E   E   E   E   E   E   E   E      E   E   E   E   E   E   E   E   
----------------------------------|----------------------------------|
----------------------------------|----------------------------------|
--10--10--10--10--10--10--10--10--|--10--10--10--10--10--10--10--10--|
---x---x---x---x---x---x---x---x--|---x---x---x---x---x---x---x---x--|
---8---8---8---8---8---8---8---8--|---8---8---8---8---8---8---8---8--|
----------------------------------|----------------------------------|
 
 
   E   E   E   E   E   E   E   E      E   E   E   E   E   E   E   E   
----------------------------------|----------------------------------|
----------------------------------|----------------------------------|
--10--10--10--10--10--10--10--10--|--10--10--10--10--10--10--10--10--|
---x---x---x---x---x---x---x---x--|---x---x---x---x---x---x---x---x--|
---8---8---8---8---8---8---8---8--|---8---8---8---8---8---8---8---8--|
----------------------------------|----------------------------------|
 
 
   E   E   E   E   E   E   E   E      E   E   E   E   E   E   E   E   
----------------------------------|----------------------------------|
----------------------------------|----------------------------------|
--10--10--10--10--10--10--10--10--|--10--10--10--10--10--10--10--10--|
---x---x---x---x---x---x---x---x--|---x---x---x---x---x---x---x---x--|
---8---8---8---8---8---8---8---8--|---8---8---8---8---8---8---8---8--|
----------------------------------|----------------------------------|
 
 
   E   E   E   E   E   E   E   E      E   E   E   E   E   E   E   E   
----------------------------------|----------------------------------|
----------------------------------|----------------------------------|
--10--10--10--10--10--10--10--10--|--10--10--10--10--10--10--10--10--|
---x---x---x---x---x---x---x---x--|---x---x---x---x---x---x---x---x--|
---8---8---8---8---8---8---8---8--|---8---8---8---8---8---8---8---8--|
----------------------------------|----------------------------------|
 
 
   E   E   E   E   E   E   E   E     E  E  E  E  E  E  E  E   
----------------------------------|--------------------------|
----------------------------------|--------------------------|
--10--10--10--10--10--10--10--10--|--9--9--9--9--9--9--9--9--|
---x---x---x---x---x---x---x---x--|--x--x--x--x--x--x--x--x--|
---8---8---8---8---8---8---8---8--|--7--7--7--7--7--7--7--7--|
----------------------------------|--------------------------|                                  
 
 

"Let go of the wires!"
   PM PM PM PM PM PM PM PM PM         
   S  S  S  S  S  S  S  S  E  Q.      
|------------------------------------|
|------------------------------------|
|------------------------------------|
|------------------------------------|
|--0--0--0--0--0--0--0--0--0---------|
|--0--0--0--0--0--0--0--0--0---------|
 
 
     PM PM PM    PM PM PM PM PM       PM PM PM PM PM PM PM PM PM         
  E  S  S  E  E  S  S  S  S  E  E     S  S  S  S  S  S  S  S  E  Q.      
-----------------------------------|------------------------------------|
-----------------------------------|------------------------------------|
-----------------------------------|------------------------------------|
-----------------------------------|------------------------------------|
-----0--0--0-----0--0--0--0--0-----|--0--0--0--0--0--0--0--0--0---------|
-----0--0--0-----0--0--0--0--0-----|--0--0--0--0--0--0--0--0--0---------|
 
 
     PM PM PM    PM PM PM PM PM       PM PM PM PM PM PM PM PM PM        
  E  S  S  E  E  S  S  S  S  E  E     S  S  S  S  S  S  S  S  H         
-----------------------------------|-----------------------------------|
-----------------------------------|-----------------------------------|
-----------------------------------|-----------------------------------|
-----------------------------------|-----------------------------------|
-----0--0--0-----0--0--0--0--0-----|--0--0--0--0--0--0--0--0--0--------|
-----0--0--0-----0--0--0--0--0-----|--0--0--0--0--0--0--0--0--0--------|
 
 
  PM PM PM PM   PM PM PM PM PM      PM PM PM PM PM PM PM PM PM        
  E  S  S  Q    S  S  S  S  Q       S  S  S  S  S  S  S  S  H         
---------------------------------|-----------------------------------|
---------------------------------|-----------------------------------|
---------------------------------|-----------------------------------|
---------------------------------|-----------------------------------|
--L--0--0--0----0--0--0--0--0----|--0--0--0--0--0--0--0--0--0--------|
--L--0--0--0----0--0--0--0--0----|--0--0--0--0--0--0--0--0--0--------|
 
 
  PM PM PM PM   PM PM PM PM PM      PM PM PM PM PM PM PM PM PM        
  E  S  S  Q    S  S  S  S  Q       S  S  S  S  S  S  S  S  H         
---------------------------------|-----------------------------------|
---------------------------------|-----------------------------------|
---------------------------------|-----------------------------------|
---------------------------------|-----------------------------------|
--L--0--0--0----0--0--0--0--0----|--0--0--0--0--0--0--0--0--0--------|
--L--0--0--0----0--0--0--0--0----|--0--0--0--0--0--0--0--0--0--------|
 
 
  PM                  PM                  PM                
  W                   W                   W                 
-------------------|-------------------|-------------------|
-------------------|-------------------|-------------------|
-------------------|-------------------|-------------------|
-------------------|-------------------|-------------------|
--L----------------|--L----------------|--L----------------|
--L----------------|--L----------------|--L----------------|
 
 
  PM                 
  W                  
-------------------||
-------------------||
-------------------||
-------------------||
--L----------------||
--L----------------||
 
 
 
 
Duration Legend
---------------
W - whole
H - half
Q - quarter
E - 8th
S - 16th
T - 32nd
X - 64th
. - note dotted
|-n-|  - n-tuplets
 
 
Tablature Legend
----------------
L - tied note
x - dead note
g - grace note
(n) - ghost note
> - accentuded note
NH - natural harmonic
AH - artificial harmonic
TH - tapped harmonic
SH - semi harmonic
PH - pitch harmonic
h - hammer on
p - pull off
b - bend
br - bendRelease
pb - preBend
pbr - preBendRelease
brb - bendReleaseBend
\n/ - tremolo bar dip
\n - tremolo bar dive
-/n - tremolo bar Release up
/n\ - tremolo bar inverted dip
/n - tremolo bar return
-\n - tremolo bar Release down
S - shift slide
s - legato slide
/ -  slide into from below or out of upwards
\ -  slide into from above or out of downwards
~ - vibrato
W - wide vibrato
tr - trill
TP - tremolo picking
T - tapping
S - slap
P - pop
< - fade in
^ - brush up
v - brush down
comments
We did not receive enough feedback on this tab! Please rate:
print report bad tab
1 2 3 4 5
I want to post or [tab]
guest
You may want to rate the tab now too:
select rating
Please do not post tabs as comments. Select "correction" instead!