Oops, an error
Loading. Please wait.

Rattlesnake Tab

ver2
ver2

Whole song

More versions @911Tabs.com
2,421 views 3 this week
2 commentsread comments
1 2 3 4 5
excellent!
x 4
Autoscroll
+/-
esc
set tempo
stop
Contributor
Hey! There's an official Ultimate Guitar app which is ideal
for learning songs when you're away from computer. Get the app
WARNING: You are trying to view
                                    content from Ultimate-Guitar.com
                                    in an unauthorized application,
                                    which is prohibited.

                                    Please use an official Ultimate
                                    Guitar Tabs application for iPhone,
                                    iPad or Android to access legitimate
                                    chords, guitar, bass, and drum tabs
                                    from Ultimate-Guitar.com database.

                                    Type "ultimate guitar tabs" in Apple
                                    App Store's or Android Market's
                                    search to find the application.
Band: A Static Lullaby
Album: Rattlesnake!
Song: Rattlesnake!

Tabbed by:wtflolbbq
Email:boxfactory76@yahoo.com

Tuning:Drop D!

 1 (0:00 - 0:20)
E|--------------------------------------------------------------------|-2nd--|
B|-----------------------------------------------------------------x2-|ending|
G|--------------------------------------------------------------------|------|
d|-0-0-3-4-0-0-3-4-0-0-3-4-5-5-5-4-0-0-3-4-0-0-3-4-0-0-3-4-5-5-5-4----|-0--\-|
A|-0-0-3-4-0-0-3-4-0-0-3-4-5-5-5-4-0-0-3-4-0-0-3-4-0-0-3-4-5-5-5-4----|-0--\-|
D|-0-0-3-4-0-0-3-4-0-0-3-4-5-5-5-4-0-0-3-4-0-0-3-4-0-0-3-4-5-5-5-4----|-0--\-|
                                                                         P.S.
 2 (0:20 - 0:30)
E|----------------------------------------------------------------------|
B|-----------------------------------------------------------------x2---|
G|----------------------------------------------------------------------|
d|-0-0-3-4-0-0-3-4-0-0-3-4-5-5-5-4-0-0-3-4-0-0-3-4-0-0-3-4-5-5-5-4------|
A|-0-0-3-4-0-0-3-4-0-0-3-4-5-5-5-4-0-0-3-4-0-0-3-4-0-0-3-4-5-5-5-4------|
D|-0-0-3-4-0-0-3-4-0-0-3-4-5-5-5-4-0-0-3-4-0-0-3-4-0-0-3-4-5-5-5-4------|

 3 (0:30 - 0:39)
E|--------------------------------------------------------------|
B|-----------------------------------------------------------x2-|
G|--------------------------------------------------------------|
d|--------------------------------------------------------------|
A|-5-5-3-5-3---------------------5-5-3-5-3-----------0----------|
D|------------5-5-3-5-3-0-0-3-4------------5-5-3-5-3---5-3-0----|


 4 (0:39 - 0:58)         Guitar 1
E|---------------------------------------------------------------------|
B|---------------------------------------------------------------------|
G|--7-7-7-7-7-7-7-7-7-7-7-7-7-7-7-7------------------------------------|
d|--7-7-7-7-7-7-7-7-7-7-7-7-7-7-7-7-8-8-8-8-8-8-8-8-8-8-8-8-8-8-8-8----|
A|--5-5-5-5-5-5-5-5-5-5-5-5-5-5-5-5-8-8-8-8-8-8-8-8-8-8-8-8-8-8-8-8----|
D|----------------------------------8-8-8-8-8-8-8-8-8-8-8-8-8-8-8-8----|
 Play these two parts twice with Guitar two backing!
E|---------------------------------------------------------------------|
B|---------------------------------------------------------------------|
G|--7-7-7-7-7-7-7-7-7-7-7-7-7-7-7-7-----------------5-5-5-5-5-5-5-5----|
d|--7-7-7-7-7-7-7-7-7-7-7-7-7-7-7-7-----------------5-5-5-5-5-5-5-5----|
A|--5-5-5-5-5-5-5-5-5-5-5-5-5-5-5-5-8-8-8-8-8-8-8-8-3-3-3-3-3-3-3-3----|
D|----------------------------------8-8-8-8-8-8-8-8--------------------|

 Guitar 2   [extremely hard to hear]
E|---------------------------------------------------------------------------|
B|----------------------------------------------------------------------x2---|
G|------------------------------------------------5--------------5-----------|
d|---7-5-7---7-5-7-----5-------5-7--5---7-8-5---8----5---7-8-5-----8---------|
A|-5-------5-------8-5---5-8-------------------------------------------------|
D|---------------------------7--------7-------7--------7-------7-------------|

 5 (0:58 - 1:08)
E|----------------------------------------------------------------------|
B|-----------------------------------------------------------------x2---|
G|----------------------------------------------------------------------|
d|-0-0-3-4-0-0-3-4-0-0-3-4-5-5-5-4-0-0-3-4-0-0-3-4-0-0-3-4-5-5-5-4------|
A|-0-0-3-4-0-0-3-4-0-0-3-4-5-5-5-4-0-0-3-4-0-0-3-4-0-0-3-4-5-5-5-4------|
D|-0-0-3-4-0-0-3-4-0-0-3-4-5-5-5-4-0-0-3-4-0-0-3-4-0-0-3-4-5-5-5-4------|

 6 (1:08 - 1:17)
E|-----------------------------------------------------------|
B|-----------------------------------------------------------|
G|-----------------------------------------------------------|
d|-----------------------------------------------------------|
A|-5-5-3-5-3---------------------5-5-3-5-3-----------0-------|
D|------------5-5-3-5-3-0-0-3-4------------5-5-3-5-3---5-3-0-|

E|----------------------------------------------------|
B|----------------------------------------------------|
G|----------------------------------------------------|
d|----------------------------------------------------|
A|-5-5-3-5-3---------------------5-5-3-5-3------------|
D|------------5-5-3-5-3-0-0-3-4------------5-5-3-5-3--|

 7 (1:17 - 1:22)
E|------------------------------------------------------------------|--------|
B|------------------------------------------------------------------|-----x4-|
G|------------------------------------------------------------------|-[7]----|
d|------------------------------------------------------------------|-[7]----|
A|-----------------x-x---------x-x-----------------x-x---------x-x--|-[5]----|
D|-5-3-5-3-5-3-5-3-x-x-5-3-5-3-x-x-5-3-5-3-5-3-5-3-x-x-5-3-5-3-x-x--|--------|
                                                                        N.H.
 8 (1:22 - 1:39)
E|------------------------------------------------------------------|
B|----------------(That's-nine-repetitions)-------------------------|
G|------------------------------------------------------------------|
d|------------------------------------------------------------------|
A|------------------------------------------------------------------|
D|-0-3-4-0-3-4-0-3-4-0-3-4-0-3-4-0-3-4-0-3-4-0-3-4-0-3-4-0-000-000--|
                                                           ... ...
E|-------------------------------------------------------------------|-2nd|
B|----------------------------------------------------------------x2-|time|
G|-------------------------------------------------------------------|----|
d|-0-3-4-0-3-4-0-3-4-0-3-4-0-3-4-0-3-4-0-3-4-0-3-4-0-3-4-0-----------|-0--|
A|-0-3-4-0-3-4-0-3-4-0-3-4-0-3-4-0-3-4-0-3-4-0-3-4-0-3-4-0-----------|-0--|
D|-0-3-4-0-3-4-0-3-4-0-3-4-0-3-4-0-3-4-0-3-4-0-3-4-0-3-4-0-000-000---|-0--|
CAREFUL, THEY ARE NOT TRIPLETS                             ... ...


 9 (1:39 - 1:57)                  Guitar 1
E|---------------------------------------------------------------------|
B|---------------------------------------------------------------------|
G|--7-7-7-7-7-7-7-7-7-7-7-7-7-7-7-7------------------------------------|
d|--7-7-7-7-7-7-7-7-7-7-7-7-7-7-7-7-8-8-8-8-8-8-8-8-8-8-8-8-8-8-8-8----|
A|--5-5-5-5-5-5-5-5-5-5-5-5-5-5-5-5-8-8-8-8-8-8-8-8-8-8-8-8-8-8-8-8----|
D|----------------------------------8-8-8-8-8-8-8-8-8-8-8-8-8-8-8-8----|

E|---------------------------------------------------------------------|
B|---------------------------------------------------------------------|
G|--7-7-7-7-7-7-7-7-7-7-7-7-7-7-7-7-----------------5-5-5-5-5-5-5-5----|
d|--7-7-7-7-7-7-7-7-7-7-7-7-7-7-7-7-8-8-8-8-8-8-8-8-5-5-5-5-5-5-5-5----|
A|--5-5-5-5-5-5-5-5-5-5-5-5-5-5-5-5-8-8-8-8-8-8-8-8-3-3-3-3-3-3-3-3----|
D|----------------------------------8-8-8-8-8-8-8-8--------------------|

 Guitar 2
E|---------------------------------------------------------------------------|
B|----------------------------------------------------------------------x2---|
G|------------------------------------------------5--------------5-----------|
d|---7-5-7---7-5-7-----5-------5-7--5---7-8-5---8----5---7-8-5-----8---------|
A|-5-------5-------8-5---5-8-------------------------------------------------|
D|---------------------------7--------7-------7--------7-------7-------------|

 10 (1:57 - 2:02)
E|-------------------------------------------------------|
B|-------------------------------------------------------|
G|-------------------------------------------------------|
d|-0-----------------------------------------------------|
A|-0-----------------------------------------------------|
D|-0-----------------------------------------------------|
 |
E|----------------------------------------------------------|
B|----------------------------------------------------------|
G|--7---7---5-----7---5-----7---7---5-----7---5---7---5-5-5-|
d|--7---7---5-----7---5-----7---7---5-----7---5---7---5-5-5-|
A|----5---5---5-5---5---5-5---5---5---5-5---5---5---5-3-3-3-|
D|----------------------------------------------------------|
      .   .   . .   .   . .   .   .   . .   .   .   .

 11 (2:02 - 2:06)
E|-------------------------------------------------------|
B|-------------------------------------------------------|
G|-------------------------------------------------------|
d|-0-----------------------------------------------------|
A|-0-----------------------------------------------------|
D|-0-----------------------------------------------------|
 |        play it clean                               distortion!
E|----------------------------------------------------|-------|
B|----------------------------------------------------|-------|
G|--7---7---5-----7---5-----7---7---5-----7---5---7---|-5-5-5-|
d|--7---7---5-----7---5-----7---7---5-----7---5---7---|-5-5-5-|
A|----5---5---5-5---5---5-5---5---5---5-5---5---5---5-|-3-3-3-|
D|----------------------------------------------------|-------|
    . . . . . . . . . . . . . . . . . . . . . . . . .

 12 (2:06 - 2:25)
E|---------------------------------|
B|---------------------------------|
G|---------------------------------|
d|-0---5---7---8---0---5---3---7---|
A|-0---5---7---8---0---5---3---7---|
D|-0---5---7---8---0---5---3---7---|

 13 (2:25 - 2:30) played clean              distortion!
E|-------------------------------------------|-------|
B|-6-6-12-5-5-8-6-?-?-?-?-?-?-?-?-?-6-6-5-6--|-------|
G|-7-7-12-5-5-7-7-?-?-?-?-?-?-?-?-?-7-7-5-7--|-7-7-7-|
d|-------------------------------------------|-7-7-7-|
A|-------------------------------------------|-5-5-5-|
D|-------------------------------------------|-------|
 sorry, that part is just really confusing to me

 14 (2:30 - 2:51)
E|---------|----------------------------|
B|---------|-------------------------x2-|
G|---------|-7--------------------------|
d|-8--8--7-|-7-x32--8--8--7-------------|
A|-8--8--7-|-5------8--8--7-------------|
D|-8--8--7-|-0------8--8--7-------------|
             played staccato

 15 (2:51 - 2:57)
E|-------------------------------|
B|----------------------------x3-|
G|-------------------------------|
d|-3-0-0-3-0-0-3-0-8--8--7-------|
A|-3-0-0-3-0-0-3-0-8--8--7-------|
D|-3-0-0-3-0-0-3-0-8--8--7-------|
     . .   . . . .
 16 (2:57 - 3:05)
E|-----------------------|
B|-----------------------|
G|-----------------------|
d|-0---0---0-------------|
A|-0---0---0-------------|
D|-0---0---0-------------|
 |
E|-----------------------|
B|-----------------------|
G|-----------------------|
d|---0---0-0-------------|
A|---0---0-0-------------|
D|---0---0-0-------------|

 17 (3:03 - 3:12)                  Guitar 1
E|---------------------------------------------------------------------|
B|---------------------------------------------------------------------|
G|--7-7-7-7-7-7-7-7-7-7-7-7-7-7-7-7------------------------------------|
d|--7-7-7-7-7-7-7-7-7-7-7-7-7-7-7-7-8-8-8-8-8-8-8-8-8-8-8-8-8-8-8-8----|
A|--5-5-5-5-5-5-5-5-5-5-5-5-5-5-5-5-8-8-8-8-8-8-8-8-8-8-8-8-8-8-8-8----|
D|----------------------------------8-8-8-8-8-8-8-8-8-8-8-8-8-8-8-8----|

E|---------------------------------------------------------------------|
B|---------------------------------------------------------------------|
G|--7-7-7-7-7-7-7-7-7-7-7-7-7-7-7-7-----------------5-5-5-5-5-5-5-5----|
d|--7-7-7-7-7-7-7-7-7-7-7-7-7-7-7-7-8-8-8-8-8-8-8-8-5-5-5-5-5-5-5-5----|
A|--5-5-5-5-5-5-5-5-5-5-5-5-5-5-5-5-8-8-8-8-8-8-8-8-3-3-3-3-3-3-3-3----|
D|----------------------------------8-8-8-8-8-8-8-8--------------------|

 Guitar 2
E|---------------------------------------------------------------------|
B|---------------------------------------------------------------------|
G|------------------------------------------------5--------------5-----|
d|---7-5-7---7-5-7-----5-------5-7--5---7-8-5---8----5---7-8-5-----8---|
A|-5-------5-------8-5---5-8-------------------------------------------|
D|---------------------------7--------7-------7--------7-------7-------|

 18 (3:12 - 3:22)                  Guitar 1
E|---------------------------------------------------------------------|
B|---------------------------------------------------------------------|
G|--7-7-7-7-7-7-7-7-7-7-7-7-7-7-7-7------------------------------------|
d|--7-7-7-7-7-7-7-7-7-7-7-7-7-7-7-7-8-8-8-8-8-8-8-8-8-8-8-8-8-8-8-8----|
A|--5-5-5-5-5-5-5-5-5-5-5-5-5-5-5-5-8-8-8-8-8-8-8-8-8-8-8-8-8-8-8-8----|
D|----------------------------------8-8-8-8-8-8-8-8-8-8-8-8-8-8-8-8----|

E|---------------------------------------------------------------------|
B|---------------------------------------------------------------------|
G|--7-7-7-7-7-7-7-7-7-7-7-7-7-7-7-7------------------------------------|
d|--7-7-7-7-7-7-7-7-7-7-7-7-7-7-7-7-8-8-8-8-8-8-8-8--------------------|
A|--5-5-5-5-5-5-5-5-5-5-5-5-5-5-5-5-8-8-8-8-8-8-8-8-3-3-3-3-5-5-5-5----|
D|----------------------------------8-8-8-8-8-8-8-8--------------------|

 Guitar 2
E|---------------------------------------------------------------------|
B|---------------------------------------------------------------------|
G|------------------------------------------------5--------------5-----|
d|---7-5-7---7-5-7-----5-------5-7--5---7-8-5---8----5---7-8-5-----8---|
A|-5-------5-------8-5---5-8-------------------------------------------|
D|---------------------------7--------7-------7--------7-------7-------|

 19 (3:22 - 3:33) missed the outro completely, sorry guys :'(
E|---------------------------------------------------------------------------|
B|---------------------------------------------------------------------------|
G|---------------------------------------------------------------------------|
d|---------------------------------------------------------------------------|
A|---------------------------------------------------------------------------|
D|---------------------------------------------------------------------------|

E|---------------------------------------------------------------------------|
B|---------------------------------------------------------------------------|
G|---------------------------------------------------------------------------|
d|---------------------------------------------------------------------------|
A|---------------------------------------------------------------------------|
D|---------------------------------------------------------------------------|

second tab i think, sorry if its crap :\ i tried. i just tabbed cuz it seemed fun and 
other tab was pretty bad

|
| .  palm mute
|[#] natural harmonic
| x  Mute note
===============================================================================
comments
print report bad tab
2 comments total.
0 reply
andrewjf wrote on April 12 2009, 01:03 pm

perfect tab, even without the outro.
WAY better than mine!

5 Stars

0 reply
wtflolbbq wrote on April 13 2009, 04:02 am

thanks :D i r happy nao ^^

I want to post or [tab]
guest
You may want to rate the tab now too:
select rating
Please do not post tabs as comments. Select "correction" instead!