Oops, an error
Loading. Please wait.

Diver Tab

1,139 views 3 this week
no commentswrite comment
1 2 3 4 5
accurate
x 1
add to favorites launch autoscroll
font size
0
reset
Autoscroll
+/-
esc
set tempo
stop
Contributor
Difficulty
Tuning
intermediate
D A D G B E
WARNING: You are trying to view
                                    content from Ultimate-Guitar.com
                                    in an unauthorized application,
                                    which is prohibited.

                                    Please use an official Ultimate
                                    Guitar Tabs application for iPhone,
                                    iPad or Android to access legitimate
                                    chords, guitar, bass, and drum tabs
                                    from Ultimate-Guitar.com database.

                                    Type "ultimate guitar tabs" in Apple
                                    App Store's or Android Market's
                                    search to find the application.
Artist: A Wilhelm Scream
Track: Diver
Album: Diver 7"
Released: 2006
Label: Nitro

Key:
|---| ~ this is a section which is palm muted
  h   ~ hammer on
  ~   ~ let note ring
  p   ~ pull off
  /   ~ slide from the note before the slash to the note after it unless theres no number to slide
        to, in which case just slide down the neck from the first number..

0:00
Lead
e---------------------------------------------------------------------------------|
B---------------------------------------------------------------------------------|
G-14-14---14-14-14--14-14-14--14-14-16--16-16-16--16-16-16--16-16-16--16-16-14-16-|
D-14-14---14-14-14--14-14-14--14-14-14--14-14-14--14-14-14--14-14-14--14-14-14-14-|
A-12-12---12-12-12--12-12-12--12-12-12--12-11-11--11-11-11--11-11-11--11-11-12-11-|
D---------------------------------------------------------------------------------|

0:10
Rhythm
e-----------------------------------------------|
B-------------------------------------------2---|
G---------------------------------------2-----2-|
D-0-0-0-0-0-0-0-0-0-4-4-4-4-4-4-4-4-4-2---2-----|
A-0-0-0-0-0-0-0-0-0-4-4-4-4-4-4-4-4-4-----------|
D-0-0-0-0-0-0-0-0-0-4-4-4-4-4-4-4-4-4-----------|

0:27 Repeat 3x on 3rd repeat add extra bit
e-----------------------------------------|------|
B-5-3-2-----------------------------------|5-3-2-|
G-6-4-2-----------------------------------|6-4-2-|
D-------0-0-0-0-0-0-0-0-4-4-4-4-4-4-4-4-4-|------|
A-------0-0-0-0-0-0-0-0-4-4-4-4-4-4-4-4-4-|------|
D-------0-0-0-0-0-0-0-0-4-4-4-4-4-4-4-4-4-|------|

0:36
Lead
e---------------------------|
B---------------------------|
G----------6/9\6-4-6-4-1----|
D-2-2-2-0~------------------|
A-2-2-2-0~------------------|
D-2-2-2-0~------------------|

0:36
Rhythm
e---------------------------|
B---------------------------|
G---------------------------|
D-2-2-2-0~-7/9\7-6-7-6------|
A-2-2-2-0~-------------7----|
D-2-2-2-0~------------------|

0:40 - Repeat 3x
e-----------------------|
B-----------------------|
G-----------------------|
D-4-4-7-4-2-0-0-222-0---|
A-4-4-7-4-2-0-0-222-0---|
D-4-4-7-4-2-0-0-222-0---|
               |---|
0:47                         <--- Repeat 9x ---->
Lead
e-------------5---5---5---5-|-------------5------|
B---------------------------|-----------5---5----|
G-----------7---7---7---7---|-6h7p6-6h7-------7--|
D-4-4-7-4-2-----------------|--------------------|
A-4-4-7-4-2-----------------|--------------------|
D-4-4-7-4-2-----------------|--------------------|

0:47                           <--- Repeat 9x ---->
Rhythm
e------------------------------|--------------------|
B------------------------------|--------------------|
G-------------11---11---11---11|-----------6-7-6----|
D-4-4-7-4-2-9----9----9----9---|-7h9p7-7h9-------9--|
A-4-4-7-4-2--------------------|--------------------|
D-4-4-7-4-2--------------------|--------------------|

1:00
Lead
e-------------5-4~---------------------|
B-----------5------10-10-10-10-10------|
G-6h7p6-6h7---------9--9--9--9--9------|
D--------------------------------------|
A--------------------------------------|
D--------------------------------------|

1:00
Rhythm
e--------------------|
B--------------------|
G-----------6-7-6~---|
D-7h9p7-7h9----------|
A--------------------|
D--------------------|

1:03 Repeat 6x          play this after 6th repeat
Lead
e--------------5-----|-------------5-4~----------------|
B------------5---5---|-----------5------10-10-10-10-10-|
G--6h7p6-6h7-------7-|-6h7p6-6h7---------9--9--9--9--9-|
D--------------------|---------------------------------|
A--------------------|---------------------------------|
D--------------------|---------------------------------|

1:03 Repeat 6x        play this after 6th repeat
Rhythm
e---------------------|------------------|
B---------------------|------------------|
G-----------6-7-6-----|-----------6-7-6~-|
D-7h9p7-7h9-------9---|-7h9p7-7h9--------|
A---------------------|------------------|
D---------------------|------------------|

1:12
Lead
e-------------------------------------------------------------|
B-------------------------------------------------------------|
G--------------------------------------4-4-4~-----------------|
D-4-4-4-4-4-4-4-4-4-0-0-0-0-0-0-0-0-0--4-4-4~--4--------------|
A-4-4-4-4-4-4-4-4-4-0-0-0-0-0-0-0-0-0--2-2-2~--4--------------|
D-4-4-4-4-4-4-4-4-4-0-0-0-0-0-0-0-0-0----------4--------------|
 |------------------------------------------------------------|

1:12
Rhythm
e-----------------------------------------------------------------------------|
B-----------------------------------------------------------------------------|
G-6---6---7---7---9---9---7---7---6---6---7---7---9---9---7---7---------------|
D---9---9---9---9---9---9---9---9---9---9---9---9---9---9---9---9-------------|
A-----------------------------------------------------------------------------|
D-----------------------------------------------------------------------------|

1:21
Rhythm
e------------------------------------------------------------------------------|
B------------------------------------------------------------------------------|
G---------------------------------------9---9---11---11---12---12---11---11----|
D-9---9---11---11---12---12---11---11-----9---9----9----9----9----9----9----9\-|
A---9---9----9----9----9----9----9----9----------------------------------------|
D------------------------------------------------------------------------------|


1:24
e--------------------------------------------------------------------------------------|
B--------------------------------------------------------------------------------------|
G-7-7--7-7-7--7-4-4--4-4-4-------------------------------------------------------------|
D-7-7--7-7-7--7-4-4--4-4-4-x-4-4--4-2-2--2-0-0--0-0-0--0-2-2--2-4-4--4-0-0--0-0-0------|
A-5-5--5-5-5--5-2-2--2-2-2-x-4-4--4-2-2--2-0-0--0-0-0--0-2-2--2-4-4--4-0-0--0-0-0------|
D--------------------------x-4-4--4-2-2--2-0-0--0-0-0--0-2-2--2-4-4--4-0-0--0-0-0------|

1:31
e----------------------------------------------------|
B----------------------------------------------------|
G-4-4--4-2-2--2-7-7--7-7-7---------------------------|
D-4-4--4-2-2--2-7-7--7-7-7--4-4444-2-2222-0-0--0-0-0-|
A-2-2--2-0-0--0-5-5--5-5-5--4-4444-2-2222-0-0--0-0-0-|
D---------------------------4-4444-2-2222-0-0--0-0-0-|
                             |----| |----------------|

1:36
Lead
e-------------------------------------------------------|
B-------------------------------------------------------|
G-4-4-4444-4-4--4-4444-4-4---4-4-4444-4-4---7-7-7--6----|
D-4-4-4444-4-4--4-4444-4-4---4-4-4444-4-4---7-7-7--7----|
A-2-2-2222-2-2--2-2222-2-2---2-2-2222-2-2---5-5-5--5----|
D-------------------------------------------------------|
   |------|      |----|       |-----|      |------------|

1:40
e-------------------------------------------------------------------------------------------------|
B-------------------------------------------------------------------------------------------------|
G-2-2--2-2-2--2-2-2--2-2-2--2---------------------------------------------------------------------|
D-2-2--2-2-2--2-2-2--2-2-2--2-6-6--6-6-6--6-6-6--6-6-6--6-4-4--4-4-4--4-4-4--4-2-2--2-0-0--0-0-0--|
A-0-0--0-0-0--0-0-0--0-0-0--0-6-6--6-6-6--6-6-6--6-6-6--6-4-4--4-4-4--4-4-4--4-2-2--2-0-0--0-0-0--|
D-----------------------------6-6--6-6-6--6-6-6--6-6-6--6-4-4--4-4-4--4-4-4--4-2-2--2-0-0--0-0-0--|

1:48
Rhythm
e-------------------------------------------------------------------------------------------------------|
B-------------------------------------------------------------------------------------------------------|
G-7-7-7-7-6-2-2--2-2-2--2-2-2--2-2-2--2-------------6-7-9-7-6-------------------------------------------|
D-7-7-7-7-7-2-2--2-2-2--2-2-2--2-2-2--2-6-6--6-6-6------------7-4-4--4-4-4--4-4-4--4-2-2--2-0-0--0-0-0--|
A-5-5-5-5-5-0-0--0-0-0--0-0-0--0-0-0--0-6-6--6-6-6--------------4-4--4-4-4--4-4-4--4-2-2--2-0-0--0-0-0--|
D---------------------------------------6-6--6-6-6--------------4-4--4-4-4--4-4-4--4-2-2--2-0-0--0-0-0--|
 |-| |---|

1:48
Lead
e-------------------------------------------------------------------------------------------------------|
B-------------------------------------------------------------------------------------------------------|
G-7-7-7-7-6-2-2--2-2-2--2-2-2--2-2-2--2-----------------6-----------------------------------------------|
D-7-7-7-7-7-2-2--2-2-2--2-2-2--2-2-2--2-6-6--6-6-6--7-9---9-6-7-4-4--4-4-4--4-4-4--4-2-2--2-0-0--0-0-0--|
A-5-5-5-5-5-0-0--0-0-0--0-0-0--0-0-0--0-6-6--6-6-6--------------4-4--4-4-4--4-4-4--4-2-2--2-0-0--0-0-0--|
D---------------------------------------6-6--6-6-6--------------4-4--4-4-4--4-4-4--4-2-2--2-0-0--0-0-0--|
 |-| |---|

1:58
Lead
e-------------------------------------------------------|
B-----------------2-2-2-0-2---------------2-3-2/5-3-2---|
G-7-7-7-7-6--4-6------------2-2-4-2-6/4-2---------------|
D-7-7-7-7-7--4-6-4--------------------------------------|
A-5-5-5-5-5--2-4-4--------------------------------------|
D----------------4--------------------------------------|
 |-| |---|

1:58
Rhythm
e------------------------------------------------|
B------------------------------------------------|
G-7-7-7-7-6--4-6---------------------2-4-2-6/4-2-|
D-7-7-7-7-7--4-6-4-6-6-6-4-6-----0~--------------|
A-5-5-5-5-5--2-4-4-----------5---0~--------------|
D----------------4---------------0~--------------|
 |-| |---|

2:04
Lead
e----------------------------------------------------------------------------------|
B-------------------------------2~-2-3-5-3-2--4-2-2-4-4-2-2------2--2--3-2---5-3-2-|
G-------------------------------2~-2-2-2-2-2--4-2-2-4-4-2-2--2-4---4--4----4-------|
D-4-4-4-4--7-4-2-0--0--0--0--0--0~-0-0-0-0-0--6-4-4-6-6-4-4------------------------|
A-4-4-4-4--7-4-2-0--0--0--0--0-----------------------------------------------------|
D-4-4-4-4--7-4-2-0--0--0--0--0-----------------------------------------------------|

2:04
Rhythm
e------------------------------------------------------------|
B-------------------------------2~---------------------------|
G-------------------------------2~-11-11-11--x-x-x-11-11-11--|
D-4-4-4-4--7-4-2-0--0--0--0--0--0~--x--x--x--x-x-x--x--x--x--|
A-4-4-4-4--7-4-2-0--0--0--0--0------9--9--9--x-x-x--9--9--9--|
D-4-4-4-4--7-4-2-0--0--0--0--0-------------------------------|

2:14
Lead
e---------------------------------------------------------------|
B-----2-2-3-2-5-3-2----7---9p7------7---9p7------7---9p7--------|
G-2-4--4-4---4-------9---9-----9--9---9-----9--9---9------------|
D---------------------------------------------------------------|
A---------------------------------------------------------------|
D---------------------------------------------------------------|

2:14
Rhythm
e-----------------------------------------------------|
B-----5---5---7-5---10-7-5-----5---5---7-5---10-7-5---|
G-6-7---7---7-----7--------6-7---7---7-----7----------|
D-----------------------------------------------------|
A-----------------------------------------------------|
D-----------------------------------------------------|

2:17
Rhythm
e---------------------------------------------------------------------------------------------------------------|
B---------------------------------------------------------------------------------------------------------------|
G-9-9-9-x-x-x-9-9-9-x-x-x-11-11-11-x-x-x-11-11-11-x-x-x-7-7--7-9-9--9-11-11-11-9-9--9-7-7--7-6-6--6-9-9--9-7-7--|
D-x-x-x-x-x-x-x-x-x-x-x-x--x--x--x-x-x-x--x--x--x-x-x-x-x-x--x-x-x--x--x--x--x-x-x--x-x-x--x-x-x--x-x-x--x-x-x--|
A-7-7-7-x-x-x-7-7-7-x-x-x--9--9--9-x-x-x--9--9--9-x-x-x-5-5--5-7-7--7--9--9--9-7-7--7-5-5--5-4-4--4-7-7--7-5-5--|
D---------------------------------------------------------------------------------------------------------------|


2:28
Lead
e----------------------------------------------------------------------|
B----------------------------------------------------------------------|
G----------------------------------9-------9-------9-------9/11-9-6~---|
D-------9-11-9-7-9-11-12-11-9-6~-----7-7-7---7-7-7---7-7-7-------------|
A-12-12----------------------------------------------------------------|
D----------------------------------------------------------------------|

2:28
Rhythm
e----------------------------------------------------------|
B----------------------------------------------------------|
G--6-6-7-9-7-6---------------------------------------------|
D---------------6-7-9-7-6----4-4--4-4-4--4-4-4--4-2-2--2-0-|
A-------------------------7--4-4--4-4-4--4-4-4--4-2-2--2-0-|
D----------------------------4-4--4-4-4--4-4-4--4-2-2--2-0-|

2:37
Lead
e-------------------------------------------------------------------------------------------------------|
B-------------------------------------------------------------------------------------------------------|
G-7-7-7-7-6-2-2--2-2-2--2-2-2--2-2-2--2-------------6-7-9-7-6-------------------------------------------|
D-7-7-7-7-7-2-2--2-2-2--2-2-2--2-2-2--2-6-6--6-6-6------------7-4-4--4-4-4--4-4-4--4-2-2--2-0-0--0-0-0--|
A-5-5-5-5-5-0-0--0-0-0--0-0-0--0-0-0--0-6-6--6-6-6--------------4-4--4-4-4--4-4-4--4-2-2--2-0-0--0-0-0--|
D---------------------------------------6-6--6-6-6--------------4-4--4-4-4--4-4-4--4-2-2--2-0-0--0-0-0--|
 |-| |---|

2:37
Rhythm
e-------------------------------------------------------------------------------------------------------|
B-------------------------------------------------------------------------------------------------------|
G-7-7-7-7-6-2-2--2-2-2--2-2-2--2-2-2--2-----------------6-----------------------------------------------|
D-7-7-7-7-7-2-2--2-2-2--2-2-2--2-2-2--2-6-6--6-6-6--7-9---9-6-7-4-4--4-4-4--4-4-4--4-2-2--2-0-0--0-0-0--|
A-5-5-5-5-5-0-0--0-0-0--0-0-0--0-0-0--0-6-6--6-6-6--------------4-4--4-4-4--4-4-4--4-2-2--2-0-0--0-0-0--|
D---------------------------------------6-6--6-6-6--------------4-4--4-4-4--4-4-4--4-2-2--2-0-0--0-0-0--|
 |-| |---|

2:45
Lead
e----------------------------------------------------------------------------------------------------------|
B-----------------2-2-2-0-2--------------------------------------------------------------------------------|
G-7-7-7-7-6--4-6------------2------------------------------------------------------------------------------|
D-7-7-7-7-7--4-6-4--------------4~-2~--0~--4-4-4-2-2-2-0~-4-4-4-2-2-2-0-0-0-0-0-0--4-4--2-2--0-0--0-0-0-0--|
A-5-5-5-5-5--2-4-4--------------4~-2~--0~--4-4-4-2-2-2-0~-4-4-4-2-2-2-0-0-0-0-0-0--4-4--2-2--0-0--0-0-0-0--|
D----------------4--------------4~-2~--0~--4-4-4-2-2-2-0~-4-4-4-2-2-2-0-0-0-0-0-0--4-4--2-2--0-0--0-0-0-0--|
 |-| |---|                                |-----------|  |-------------------------------------------------|

2:45
Rhythm
e----------------------------------------------------------------------------------------------------------|
B----------------------------------------------------------------------------------------------------------|
G-7-7-7-7-6--4-6-------------------------------------------------------------------------------------------|
D-7-7-7-7-7--4-6-4-4-4-4-2-4----4~-2~--0~--4-4-4-2-2-2-0~-4-4-4-2-2-2-0-0-0-0-0-0--4-4--2-2--0-0--0-0-0-0--|
A-5-5-5-5-5--2-4-4-----------4--4~-2~--0~--4-4-4-2-2-2-0~-4-4-4-2-2-2-0-0-0-0-0-0--4-4--2-2--0-0--0-0-0-0--|
D----------------4--------------4~-2~--0~--4-4-4-2-2-2-0~-4-4-4-2-2-2-0-0-0-0-0-0--4-4--2-2--0-0--0-0-0-0--|
 |-| |---|        |------------|          |-----------|  |-------------------------------------------------|
comments
We did not receive enough feedback on this tab! Please rate:
print report bad tab
1 2 3 4 5
I want to post or [tab]
guest
You may want to rate the tab now too:
select rating
Please do not post tabs as comments. Select "correction" instead!