Oops, an error
Loading. Please wait.

Rip Tab

ver1
ver1

Intro

Whole song

Interactive

More versions @911Tabs.com
4,413 views 3 this week
1 commentread comment
1 2 3 4 5
excellent!
x 3
add to favorites launch autoscroll
font size
0
reset
Autoscroll
+/-
esc
set tempo
stop
Difficulty
Tuning
intermediate
D A D G B E
WARNING: You are trying to view
                                    content from Ultimate-Guitar.com
                                    in an unauthorized application,
                                    which is prohibited.

                                    Please use an official Ultimate
                                    Guitar Tabs application for iPhone,
                                    iPad or Android to access legitimate
                                    chords, guitar, bass, and drum tabs
                                    from Ultimate-Guitar.com database.

                                    Type "ultimate guitar tabs" in Apple
                                    App Store's or Android Market's
                                    search to find the application.
THE RIP
As recorded by A Wilhelm Scream
(From the 2004 Album MUTE PRINT)

Transcribed by Russ
	

Words by Trevor Reilly Music by A Wilhelm Scream
Arranged by Bill Stevenson and Jason Livermore

D5
0 0 0 x x x
	
Fmaj7sus2+11
3 3 3 x x x
	
G5
5 5 5 x x x
	
B7sus4+5/A
8 8 8 x x x
E5
x 7 9 9 x x
	
B5
9 9 9 x x x
	
D5V
x 5 7 7 x x
	
C#/Ab
x x x 1 2 1
A5
7 7 7 x x x
	
F
x 8 x 10 x x
	
E
x 7 x 9 x x
	
D
x 5 x 7 x x
C
x 3 x 5 x x
	
A
x 12 x 14 x x
	
G
x 10 x 12 x x
	
F(type 2)
x 8 x 10 x x
E(type 2)
x 7 x 9 x x
	
A/C#
x 4 7 x x x
	
C5
x 3 5 5 x x
	
Bb5
x 1 3 3 x x

Gtr I (D A D G B E) - 'Untitled'
Gtr II (D A D G B E) - 'Untitled'
Gtr III (D A D G B E) - 'Untitled'

 Intro
  Q=220
  D5
 4/4
  Gtr I
                                                                    ~~~
  E E E E E E E E    E   E  E  E  E  E  E  E    E  E E E E E E E    W
|-----------------|--------------------------|-------------------|--------|
|-----------------|--------------------------|-------------------|--------|
|-----------------|--------------------------|-------------------|--------|
|-0-0-8p7-0-8p7-0-|-10--10-10-10-10-10-10-10-|--0--0-8p7-0-8p7-0-|-10-----|
|-----------------|--------------------------|-------------------|--------|
|-----------------|--------------------------|-------------------|--------|
|
| Gtr II
| W                 +W                         +W                  +W
|-----------------|--------------------------|-------------------|--------|
|-----------------|--------------------------|-------------------|--------|
|-----------------|--------------------------|-------------------|--------|
|-0---------------|-(0)----------------------|-(0)---------------|-(0)----|
|-0---------------|-(0)----------------------|-(0)---------------|-(0)----|
|-0---------------|-(0)----------------------|-(0)---------------|-(0)----|


  D5
                                                                         ~~
  E E  E  E E  E  E E    E  E  E  E  E  E  E  E   E E  E  E E  E  E E    W
|---------------------|-------------------------|---------------------|-------|
|---------------------|-------------------------|---------------------|-------|
|---------------------|-------------------------|---------------------|-------|
|-0-0--8p=7-0--8p=7-0-|-10-10-10-10-10-10-10-10-|-0-0--8p=7-0--8p=7-0-|-10----|
|---------------------|-------------------------|---------------------|-------|
|---------------------|-------------------------|---------------------|-------|
|
|                                                                        ~~
| E E  E  E E  E  E E    E  E  E  E  E  E  E  E   E E  E  E E  E  E E    W
|---------------------|-------------------------|---------------------|-------|
|---------------------|-------------------------|---------------------|-------|
|---------------------|-------------------------|---------------------|-------|
|-0-0-12p10-0-12p10-0-|-13-13-13-13-13-13-13-13-|-0-0-12p10-0-12p10-0-|-13----|
|---------------------|-------------------------|---------------------|-------|
|---------------------|-------------------------|---------------------|-------|
|
| Gtr III
| Q    H.                W                        W                      W
|---------------------|-------------------------|---------------------|-------|
|---------------------|-------------------------|---------------------|-------|
|---------------------|-------------------------|---------------------|-------|
|-0-------------------|-------------------------|---------------------|-------|
|-0-------------------|-------------------------|---------------------|-------|
|-0-------------------|-------------------------|---------------------|-------|


 Pre-Verse
  D5
  E E  E E E  E E E    E E  E E  E E  E E
|-------------------|---------------------|
|-------------------|---------------------|
|-------------------|---------------------|
|-0-0-12-0-0-10-0-0-|-12-0-13-0-12-0-10-0-|
|-------------------|---------------------|
|-------------------|---------------------|
|
| E E  E E E  E E E    E E  E E  E E  E E
|-------------------|---------------------|
|-------------------|---------------------|
|-------------------|---------------------|
|-0-0--8-0-0--7-0-0-|--8-0-10-0--8-0--7-0-|
|-------------------|---------------------|
|-------------------|---------------------|
|
| E E  E E E  E E E    E E  E E  E E  E E
|-------------------|---------------------|
|-------------------|---------------------|
|-------------------|---------------------|
|-0-0--0-0-0--0-0-0-|--0-0--0-0--0-0--0-0-|
|-0-0--0-0-0--0-0-0-|--0-0--0-0--0-0--0-0-|
|-0-0--0-0-0--0-0-0-|--0-0--0-0--0-0--0-0-|


  F5
  E E  E E E  E E E    E E  E E  E E  E E
|-------------------|---------------------|
|-------------------|---------------------|
|-------------------|---------------------|
|-0-0-12-0-0-10-0-0-|-12-0-13-0-12-0-10-0-|
|-------------------|---------------------|
|-------------------|---------------------|
|
| E E  E E E  E E E    E E  E E  E E  E E
|-------------------|---------------------|
|-------------------|---------------------|
|-------------------|---------------------|
|-0-0--8-0-0--7-0-0-|--8-0-10-0--8-0--7-0-|
|-------------------|---------------------|
|-------------------|---------------------|
|
| E E  E E E  E E E    E E  E E  E E  E E
|-------------------|---------------------|
|-------------------|---------------------|
|-------------------|---------------------|
|-3-3--3-3-3--3-3-3-|--3-3--3-3--3-3--3-3-|
|-3-3--3-3-3--3-3-3-|--3-3--3-3--3-3--3-3-|
|-3-3--3-3-3--3-3-3-|--3-3--3-3--3-3--3-3-|


  G5
  E E  E  E E  E  E E    E  E  E  E  E  E  E  E
|---------------------|-------------------------|
|---------------------|-------------------------|
|---------------------|-------------------------|
|-0-0--8p=7-0--8p=7-0-|-10-10-10-10-10-10-10-10-|
|---------------------|-------------------------|
|---------------------|-------------------------|
|
| E E  E  E E  E  E E    E  E  E  E  E  E  E  E
|---------------------|-------------------------|
|---------------------|-------------------------|
|---------------------|-------------------------|
|-0-0-12p10-0-12p10-0-|-13-13-13-13-13-13-13-13-|
|---------------------|-------------------------|
|---------------------|-------------------------|
|
| E E  E  E E  E  E E    E  E  E  E  E  E  E  E
|---------------------|-------------------------|
|---------------------|-------------------------|
|---------------------|-------------------------|
|-5-5--5--5-5--5--5-5-|--5--5--5--5--5--5--5--5-|
|-5-5--5--5-5--5--5-5-|--5--5--5--5--5--5--5--5-|
|-5-5--5--5-5--5--5-5-|--5--5--5--5--5--5--5--5-|


  Bb5
                         ~~
  E E  E  E E  E  E E    W
|---------------------|------------------|
|---------------------|------------------|
|---------------------|------------------|
|-0-0--8p=7-0--8p=7-0-|-10---------------|
|---------------------|------------------|
|---------------------|------------------|
|
|                        ~~
| E E  E  E E  E  E E    W
|---------------------|------------------|
|---------------------|------------------|
|---------------------|------------------|
|-0-0-12p10-0-12p10-0-|-13---------------|
|---------------------|------------------|
|---------------------|------------------|
|
| E E  E  E E  E  E E    E E E E E E E E
|---------------------|------------------|
|---------------------|------------------|
|---------------------|------------------|
|-8-8--8--8-8--8--8-8-|--8-8-8-8-8-8-8-8-|
|-8-8--8--8-8--8--8-8-|--8-8-8-8-8-8-8-8-|
|-8-8--8--8-8--8--8-8-|--8-8-8-8-8-8-8-8-|


  D5
  E E  E E E  E E E    E E  E E  E E  E E
|-------------------|---------------------|
|-------------------|---------------------|
|-------------------|---------------------|
|-0-0-12-0-0-10-0-0-|-12-0-13-0-12-0-10-0-|
|-------------------|---------------------|
|-------------------|---------------------|
|
| E E  E E E  E E E    E E  E E  E E  E E
|-------------------|---------------------|
|-------------------|---------------------|
|-------------------|---------------------|
|-0-0--8-0-0--7-0-0-|--8-0-10-0--8-0--7-0-|
|-------------------|---------------------|
|-------------------|---------------------|
|
| E E  E E E  E E E    E E  E E  E E  E E
|-------------------|---------------------|
|-------------------|---------------------|
|-------------------|---------------------|
|-0-0--0-0-0--0-0-0-|--0-0--0-0--0-0--0-0-|
|-0-0--0-0-0--0-0-0-|--0-0--0-0--0-0--0-0-|
|-0-0--0-0-0--0-0-0-|--0-0--0-0--0-0--0-0-|


  F5
  E E  E E E  E E E    E E  E E  E E  E E
|-------------------|---------------------|
|-------------------|---------------------|
|-------------------|---------------------|
|-0-0-12-0-0-10-0-0-|-12-0-13-0-12-0-10-0-|
|-------------------|---------------------|
|-------------------|---------------------|
|
| E E  E E E  E E E    E E  E E  E E  E E
|-------------------|---------------------|
|-------------------|---------------------|
|-------------------|---------------------|
|-0-0--8-0-0--7-0-0-|--8-0-10-0--8-0--7-0-|
|-------------------|---------------------|
|-------------------|---------------------|
|
| E E  E E E  E E E    E E  E E  E E  E E
|-------------------|---------------------|
|-------------------|---------------------|
|-------------------|---------------------|
|-3-3--3-3-3--3-3-3-|--3-3--3-3--3-3--3-3-|
|-3-3--3-3-3--3-3-3-|--3-3--3-3--3-3--3-3-|
|-3-3--3-3-3--3-3-3-|--3-3--3-3--3-3--3-3-|


  G5                                              Bb5
                                                                         ~~
  E E  E  E E  E  E E    E  E  E  E  E  E  E  E   E E  E  E E  E  E E    W
|---------------------|-------------------------|---------------------|-------|
|---------------------|-------------------------|---------------------|-------|
|---------------------|-------------------------|---------------------|-------|
|-0-0--8p=7-0--8p=7-0-|-10-10-10-10-10-10-10-10-|-0-0--8p=7-0--8p=7-0-|-10----|
|---------------------|-------------------------|---------------------|-------|
|---------------------|-------------------------|---------------------|-------|
|
|                                                                        ~~
| E E  E  E E  E  E E    E  E  E  E  E  E  E  E   E E  E  E E  E  E E    W
|---------------------|-------------------------|---------------------|-------|
|---------------------|-------------------------|---------------------|-------|
|---------------------|-------------------------|---------------------|-------|
|-0-0-12p10-0-12p10-0-|-13-13-13-13-13-13-13-13-|-0-0-12p10-0-12p10-0-|-13----|
|---------------------|-------------------------|---------------------|-------|
|---------------------|-------------------------|---------------------|-------|
|
|                                                 PM|
| E E  E  E E  E  E E    E  E  E  E  E  E  E  E   E E  H.                W
|---------------------|-------------------------|---------------------|-------|
|---------------------|-------------------------|---------------------|-------|
|---------------------|-------------------------|---------------------|-------|
|-5-5--5--5-5--5--5-5-|--5--5--5--5--5--5--5--5-|-8-8-----------------|-------|
|-5-5--5--5-5--5--5-5-|--5--5--5--5--5--5--5--5-|-8-8-----------------|-------|
|-5-5--5--5-5--5--5-5-|--5--5--5--5--5--5--5--5-|-8-8-----------------|-------|


 Verse
  D5                       Bb5                   F5        G5
  Gtrs I, II
  PM|
  E E H.        W          E E +E  E E E +E  E   E E +E  E E E +E  E
|-------------|----------|---------------------|---------------------|
|-------------|----------|---------------------|---------------------|
|-------------|----------|---------------------|---------------------|
|-0-0---------|----------|-8-8-(8)-8-8-8-(8)-8-|-3-3-(3)-3-5-5-(5)-5-|
|-0-0---------|----------|-8-8-(8)-8-8-8-(8)-8-|-3-3-(3)-3-5-5-(5)-5-|
|-0-0---------|----------|-8-8-(8)-8-8-8-(8)-8-|-3-3-(3)-3-5-5-(5)-5-|


    Gtr I
      PM--------|   PM--------|
    E S S S S S S E S S S S S S
||-------------------------------||
||o-----------------------------o||
||-------------------------------||
||--0-------------0--------------||
||o-0-------------0-------------o||
||--0-0-0-0-0-0-0-0-0-0-0-0-0-0--||
|
|   Gtr II
|     PM--------|   PM--------|
|   E S S S S S S E S S S S S S
||-------------------------------||
||o-----------------------------o||
||--7-------------7--------------||
||--7-------------7--------------||
||o-5-5-5-5-5-5-5-5-5-5-5-5-5-5-o||
||-------------------------------||


  F5            Bb5         C5
   E  E  +E   E E E +E  E    E  E  +E   E  E  E  +E   E
|-------------------------|-----------------------------|
|-------------------------|-----------------------------|
|-10-10-(10)-10-----------|-----------------------------|
|-10-10-(10)-10-8-8-(8)-8-|-10-10-(10)-10-10-10-(10)-10-|
|--8--8--(8)--8-8-8-(8)-8-|-10-10-(10)-10-10-10-(10)-10-|
|---------------8-8-(8)-8-|-10-10-(10)-10-10-10-(10)-10-|
|
|  E  E  +E   E E E +E  E    E  E  +E   E  E  E  +E   E
|-------------------------|-----------------------------|
|-------------------------|-----------------------------|
|-10-10-(10)-10-----------|-----------------------------|
|-10-10-(10)-10-8-8-(8)-8-|-10-10-(10)-10-10-10-(10)-10-|
|--8--8--(8)--8-8-8-(8)-8-|-10-10-(10)-10-10-10-(10)-10-|
|---------------8-8-(8)-8-|-10-10-(10)-10-10-10-(10)-10-|


   Chorus
    Bb5                 F5     G5
    Q.   E E  E  E  E   Q  E E E +E  E E
||--------------------|------------------|
||o-------------------|------------------|
||-----------10-10-10-|------------------|
||--8----8------------|-3--3-3-5-(5)-5-5-|
||o-8----8------------|-3--3-3-5-(5)-5-5-|
||--8----8------------|-3--3-3-5-(5)-5-5-|
|
|   Q.   E E  E  E  E   Q  E E E +E  E E
||--------------------|------------------|
||o-------------------|------------------|
||--------------------|------------------|
||--8----8----8--8--8-|-3--3-3-5-(5)-5-5-|
||o-8----8----8--8--8-|-3--3-3-5-(5)-5-5-|
||--8----8----8--8--8-|-3--3-3-5-(5)-5-5-|


  D5
  E E E E E E E E   E E E E E E E E
|-----------------|-------------------||
|-----------------|------------------o||
|-----------------|-------------------||
|-0-0-0-0-0-0-0-0-|-0-0-0-0-0-0-0-0---||
|-0-0-0-0-0-0-0-0-|-0-0-0-0-0-0-0-0--o||
|-0-0-0-0-0-0-0-0-|-0-0-0-0-0-0-0-0---||
|
|                   ~
| E E E E E E E E   W
|-----------------|-------------------||
|-----------------|------------------o||
|-----------------|-------------------||
|-0-0-0-0-0-0-0-0-|-------------------||
|-0-0-0-0-0-0-0-0-|-5----------------o||
|-0-0-0-0-0-0-0-0-|-------------------||


 Out-Chorus
  N.C.
  Gtrs I, II
  PM---------------------------------
  E E E E E E E E   E E E E E E E E
|-----------------|-----------------|
|-----------------|-----------------|
|-----------------|-----------------|
|-----------------|-----------------|
|-1-1-1-1-1-1-1-1-|-3-3-3-3-3-3-3-3-|
|-----------------|-----------------|


 -----------------------------------------|
  S S S S E E E E E E   S S S S E E E E E E
|---------------------|---------------------|
|---------------------|---------------------|
|---------------------|---------------------|
|---------------------|---------------------|
|-5-5-5-5-5-5-5-5-5-5-|-5-5-5-5-5-5-5-5-5-5-|
|---------------------|---------------------|


                                                            F5     G5
  PM----------------------------------------------------|
  E E E E E E E E   E E E E E E E E   S S S S E E E E E E   Q  E E E +E  E E
|-----------------|-----------------|---------------------|--------------------|
|-----------------|-----------------|---------------------|--------------------|
|-----------------|-----------------|---------------------|--------------------|
|-----------------|-----------------|---------------------|-3--3-3-5-(5)-5-5---|
|-1-1-1-1-1-1-1-1-|-3-3-3-3-3-3-3-3-|-5-5-5-5-5-5-5-5-5-5-|-3--3-3-5-(5)-5-5---|
|-----------------|-----------------|---------------------|-3--3-3-5-(5)-5-5---|


 Verse
  D5                      Bb5                   F5        G5
  Gtr I
  Q  H.        W          E E +E  E E E +E  E   E E +E  E E E +E  E
|------------|----------|---------------------|---------------------|
|------------|----------|---------------------|---------------------|
|------------|----------|---------------------|---------------------|
|-0----------|----------|-8-8-(8)-8-8-8-(8)-8-|-3-3-(3)-3-5-5-(5)-5-|
|-0----------|----------|-8-8-(8)-8-8-8-(8)-8-|-3-3-(3)-3-5-5-(5)-5-|
|-0----------|----------|-8-8-(8)-8-8-8-(8)-8-|-3-3-(3)-3-5-5-(5)-5-|
|
| Gtr II
| Q  H.        W          E E +E  E E E +E  E   E E +E  E E E +E  E
|------------|----------|---------------------|---------------------|
|------------|----------|---------------------|---------------------|
|------------|----------|---------------------|---------------------|
|-0----------|----------|-8-8-(8)-8-8-8-(8)-8-|-3-3-(3)-3-5-5-(5)-5-|
|-0----------|----------|-8-8-(8)-8-8-8-(8)-8-|-3-3-(3)-3-5-5-(5)-5-|
|-0----------|----------|-8-8-(8)-8-8-8-(8)-8-|-3-3-(3)-3-5-5-(5)-5-|


    D5
      PM--------|   PM--------|
    E S S S S S S E S S S S S S
||-------------------------------||
||o-----------------------------o||
||-------------------------------||
||--0-------------0--------------||
||o-0-------------0-------------o||
||--0-0-0-0-0-0-0-0-0-0-0-0-0-0--||
|
|     PM--------|   PM--------|
|   E S S S S S S E S S S S S S
||-------------------------------||
||o-----------------------------o||
||--7-------------7--------------||
||--7-------------7--------------||
||o-5-5-5-5-5-5-5-5-5-5-5-5-5-5-o||
||-------------------------------||


  F5            Bb5         C5
   E  E  +E   E E E +E  E    E  E  +E   E  E  E  +E   E
|-------------------------|-----------------------------|
|-------------------------|-----------------------------|
|-10-10-(10)-10-----------|-----------------------------|
|-10-10-(10)-10-8-8-(8)-8-|-10-10-(10)-10-10-10-(10)-10-|
|--8--8--(8)--8-8-8-(8)-8-|-10-10-(10)-10-10-10-(10)-10-|
|---------------8-8-(8)-8-|-10-10-(10)-10-10-10-(10)-10-|
|
|  E  E  +E   E E E +E  E    E  E  +E   E  E  E  +E   E
|-------------------------|-----------------------------|
|-------------------------|-----------------------------|
|-10-10-(10)-10-----------|-----------------------------|
|-10-10-(10)-10-8-8-(8)-8-|-10-10-(10)-10-10-10-(10)-10-|
|--8--8--(8)--8-8-8-(8)-8-|-10-10-(10)-10-10-10-(10)-10-|
|---------------8-8-(8)-8-|-10-10-(10)-10-10-10-(10)-10-|


   Chorus
    Bb5                 F5     G5
    Q.   E E  E  E  E   Q  E E E +E  E E
||--------------------|------------------|
||o-------------------|------------------|
||-----------10-10-10-|------------------|
||--8----8------------|-3--3-3-5-(5)-5-5-|
||o-8----8------------|-3--3-3-5-(5)-5-5-|
||--8----8------------|-3--3-3-5-(5)-5-5-|
|
|   Q.   E E  E  E  E   Q  E E E +E  E E
||--------------------|------------------|
||o-------------------|------------------|
||--------------------|------------------|
||--8----8----8--8--8-|-3--3-3-5-(5)-5-5-|
||o-8----8----8--8--8-|-3--3-3-5-(5)-5-5-|
||--8----8----8--8--8-|-3--3-3-5-(5)-5-5-|


  D5
  E E E E E E E E   E E E E E E E E
|-----------------|-------------------||
|-----------------|------------------o||
|-----------------|-------------------||
|-0-0-0-0-0-0-0-0-|-0-0-0-0-0-0-0-0---||
|-0-0-0-0-0-0-0-0-|-0-0-0-0-0-0-0-0--o||
|-0-0-0-0-0-0-0-0-|-0-0-0-0-0-0-0-0---||
|
|                   ~
| E E E E E E E E   W
|-----------------|-------------------||
|-----------------|------------------o||
|-----------------|-------------------||
|-0-0-0-0-0-0-0-0-|-------------------||
|-0-0-0-0-0-0-0-0-|-5----------------o||
|-0-0-0-0-0-0-0-0-|-------------------||


 Out-Chorus
  N.C.
  Gtrs I, II
  PM---------------------------------
  E E E E E E E E   E E E E E E E E
|-----------------|-----------------|
|-----------------|-----------------|
|-----------------|-----------------|
|-----------------|-----------------|
|-1-1-1-1-1-1-1-1-|-3-3-3-3-3-3-3-3-|
|-----------------|-----------------|


 -----------------------------------------|
  S S S S E E E E E E   S S S S E E E E E E
|---------------------|---------------------|
|---------------------|---------------------|
|---------------------|---------------------|
|---------------------|---------------------|
|-5-5-5-5-5-5-5-5-5-5-|-5-5-5-5-5-5-5-5-5-5-|
|---------------------|---------------------|


                                                            F5     G5
  PM----------------------------------------------------|
  E E E E E E E E   E E E E E E E E   S S S S E E E E E E   Q  E E E +E  E E
|-----------------|-----------------|---------------------|--------------------|
|-----------------|-----------------|---------------------|--------------------|
|-----------------|-----------------|---------------------|--------------------|
|-----------------|-----------------|---------------------|-3--3-3-5-(5)-5-5---|
|-1-1-1-1-1-1-1-1-|-3-3-3-3-3-3-3-3-|-5-5-5-5-5-5-5-5-5-5-|-3--3-3-5-(5)-5-5---|
|-----------------|-----------------|---------------------|-3--3-3-5-(5)-5-5---|


 Interlude
  D5
  Gtr I
                                          ~
  Q  H.          W          Q  Q  Q  Q    W
|--------------|----------|----------5--|------|
|--------------|----------|----6--------|-6----|
|--------------|----------|-5-----5-----|------|
|-0------------|----------|-------------|------|
|-0------------|----------|-------------|------|
|-0------------|----------|-------------|------|
|
| Gtr II
|                ~
| Q  Q   Q  Q    W          W             W
|-----------5--|----------|-------------|------|
|----6---------|-6--------|-------------|------|
|-5------5-----|----------|-------------|------|
|--------------|----------|-------------|------|
|--------------|----------|-------------|------|
|--------------|----------|-------------|------|


                                              F/C
                                         ~
  W             W          Q  Q  Q  Q    H    E Q.
|-------------|----------|----------5--|------5------|
|-------------|----------|----6--------|-6----6------|
|-------------|----------|-5-----5-----|------5------|
|-------------|----------|-------------|-------------|
|-------------|----------|-------------|-------------|
|-------------|----------|-------------|-------------|
|
|               ~
| Q  Q  Q  Q    W          W             H    E Q.
|----------5--|----------|-------------|------5------|
|----6--------|-6--------|-------------|------6------|
|-5-----5-----|----------|-------------|------5------|
|-------------|----------|-------------|-------------|
|-------------|----------|-------------|-------------|
|-------------|----------|-------------|-------------|


   Verse
    D5
    Gtrs I, II
    E E +E  E E E +E  E  4x
||-----------------------||-|
||o---------------------o||-|
||--7-7-(7)-7-7-7-(7)-7--||-|
||--7-7-(7)-7-7-7-(7)-7--||-|
||o-5-5-(5)-5-5-5-(5)-5-o||-|
||-----------------------||-|


    Bb5                         D5
    E E +E  E E E +E  E  4x     E E +E  E E E +E  E  4x
||-----------------------||-||-----------------------||
||o---------------------o||-||o---------------------o||
||-----------------------||-||--7-7-(7)-7-7-7-(7)-7--||
||--8-8-(8)-8-8-8-(8)-8--||-||--7-7-(7)-7-7-7-(7)-7--||
||o-8-8-(8)-8-8-8-(8)-8-o||-||o-5-5-(5)-5-5-5-(5)-5-o||
||--8-8-(8)-8-8-8-(8)-8--||-||-----------------------||


  G5
  E +E  E E E +E  E E   E +E  E E E +E  E E
|---------------------|---------------------|
|---------------------|---------------------|
|---------------------|---------------------|
|-5-(5)-5-5-5-(5)-5-5-|-5-(5)-5-5-5-(5)-5-5-|
|-5-(5)-5-5-5-(5)-5-5-|-5-(5)-5-5-5-(5)-5-5-|
|-5-(5)-5-5-5-(5)-5-5-|-5-(5)-5-5-5-(5)-5-5-|


  A5
  E +E  E E E +E  E E   E +E  E E E +E  E E
|---------------------|---------------------|
|---------------------|---------------------|
|---------------------|---------------------|
|-7-(7)-7-7-7-(7)-7-7-|-7-(7)-7-7-7-(7)-7-7-|
|-7-(7)-7-7-7-(7)-7-7-|-7-(7)-7-7-7-(7)-7-7-|
|-7-(7)-7-7-7-(7)-7-7-|-7-(7)-7-7-7-(7)-7-7-|


  Bb5
  E +E  E E E +E  E E   E +E  E E E +E  E E
|---------------------|---------------------|
|---------------------|---------------------|
|---------------------|---------------------|
|-8-(8)-8-8-8-(8)-8-8-|-8-(8)-8-8-8-(8)-8-8-|
|-8-(8)-8-8-8-(8)-8-8-|-8-(8)-8-8-8-(8)-8-8-|
|-8-(8)-8-8-8-(8)-8-8-|-8-(8)-8-8-8-(8)-8-8-|


  G5
  E +E  E E E +E  E E   E +E  E E E +E  E E
|---------------------|---------------------|
|---------------------|---------------------|
|---------------------|---------------------|
|-5-(5)-5-5-5-(5)-5-5-|-5-(5)-5-5-5-(5)-5-5-|
|-5-(5)-5-5-5-(5)-5-5-|-5-(5)-5-5-5-(5)-5-5-|
|-5-(5)-5-5-5-(5)-5-5-|-5-(5)-5-5-5-(5)-5-5-|


 Guitar Solo
  D5
  Gtr I
   |--3---|  |-3-| |-3-|        |--3---|  |-3-| |-3-|
   E  E   E  E E E E E E E E    E  E   E  E E E E E E E E
|----------------------------|----------------------------|
|-10h11p==8h10p6h8p5h6p3h5---|-10h11p==8h10p6h8p5h6p3h5---|
|----------------------------|----------------------------|
|----------------------------|----------------------------|
|----------------------------|----------------------------|
|----------------------------|----------------------------|
|
| Gtr II
|  PM---|                       PM---|
|  E    E    H.                 E    E    H.
|----------------------------|----------------------------|
|----------------------------|----------------------------|
|----------------------------|----------------------------|
|--0----0--------------------|--0----0--------------------|
|--0----0--------------------|--0----0--------------------|
|--0----0--------------------|--0----0--------------------|


  N.C.
                                               ~
   |--3--|  |--3--| |-3--|
   E  E  E  E  E  E E  E E E E   Q  Q  Q  Q    W
|------------------------------|-------------|------|
|-10h11p=8h10p=6h=8p5h=6p3h5---|-6--5--------|------|
|------------------------------|-------7--5--|------|
|------------------------------|-------------|-7----|
|------------------------------|-------------|------|
|------------------------------|-------------|------|
|
|                                              ~
|  |--3--|  |--3--| |-3--|
|  E  E  E  E  E  E E  E E E E   Q  Q  Q  Q    W
|------------------------------|-5-----------|------|
|-13h15p11h13p10h11p8h10p6h8---|----8--6--5--|------|
|------------------------------|-------------|-5----|
|------------------------------|-------------|------|
|------------------------------|-------------|------|
|------------------------------|-------------|------|


   ~~~~~~~~~~~~~~~~~~~~~~~~~~~~~
  +W           +W           +W
|------------|------------|--------|
|------------|------------|--------|
|------------|------------|--------|
|-(7)--------|-(7)--------|-(7)----|
|------------|------------|--------|
|------------|------------|--------|
|
|  ~~~~~~~~~~~~~~~~~~~~~~~~~~~~~
| +W           +W           +W
|------------|------------|--------|
|------------|------------|--------|
|-(5)--------|-(5)--------|-(5)----|
|------------|------------|--------|
|------------|------------|--------|
|------------|------------|--------|


 Verse
      Bb5
  Gtrs I, II
  PM|    PM|      PM|    PM|      PM|    PM|      PM|    PM|
  E E Q  E E Q    E E Q  E E Q    E E Q  E E Q    E E Q  E E Q
|---------------|---------------|---------------|---------------|
|---------------|---------------|---------------|---------------|
|---------------|---------------|---------------|---------------|
|-----8------8--|-----8------8--|-----8------8--|-----8------8--|
|-----8------8--|-----8------8--|-----8------8--|-----8------8--|
|-8-8-8--8-8-8--|-8-8-8--8-8-8--|-8-8-8--8-8-8--|-8-8-8--8-8-8--|


      A5                             N.C.
  Gtr I
  PM|    PM|      PM|    PM|
  E E Q  E E Q    E E Q  E E Q    Q   E  E  E Q.      E  E  Q   E  E Q
|---------------|---------------|------------------|--------------------|
|---------------|---------------|------------------|--------------------|
|---------------|---------------|----10S=9-10------|-10S=9-10---9S=7-5--|
|-----7------7--|-----7------7--|-----x--x--x------|--x--x--x---x--x-x--|
|-----7------7--|-----7------7--|-----8S=7--8------|--8S=7--8---7S=5-3--|
|-7-7-7--7-7-7--|-7-7-7--7-7-7--|------------------|--------------------|
|
| Gtr II
| PM|    PM|      PM|    PM|
| E E Q  E E Q    E E Q  E E Q    Q   E  E  E Q.      E  E  Q   E  E Q
|---------------|---------------|------------------|--------------------|
|---------------|---------------|------------------|--------------------|
|---------------|---------------|----14S12-14------|-14S12-14--12S10-9--|
|-----7------7--|-----7------7--|-----x--x--x------|--x--x--x---x--x-x--|
|-----7------7--|-----7------7--|----12S10-12------|-12S10-12--10S=8-7--|
|-7-7-7--7-7-7--|-7-7-7--7-7-7--|------------------|--------------------|


      Bb5
  Gtrs I, II
  PM|    PM|      PM|    PM|      PM|    PM|      PM|    PM|
  E E Q  E E Q    E E Q  E E Q    E E Q  E E Q    E E Q  E E Q
|---------------|---------------|---------------|---------------|
|---------------|---------------|---------------|---------------|
|---------------|---------------|---------------|---------------|
|-----8------8--|-----8------8--|-----8------8--|-----8------8--|
|-----8------8--|-----8------8--|-----8------8--|-----8------8--|
|-8-8-8--8-8-8--|-8-8-8--8-8-8--|-8-8-8--8-8-8--|-8-8-8--8-8-8--|


      A5                             N.C.
  Gtr I
  PM|    PM|      PM|    PM|
  E E Q  E E Q    E E Q  E E Q    Q   E  E  E Q.      E  E  Q   E  E Q
|---------------|---------------|------------------|--------------------|
|---------------|---------------|------------------|--------------------|
|---------------|---------------|----10S=9-10------|-10S=9-10---9S=7-5--|
|-----7------7--|-----7------7--|-----x--x--x------|--x--x--x---x--x-x--|
|-----7------7--|-----7------7--|-----8S=7--8------|--8S=7--8---7S=5-3--|
|-7-7-7--7-7-7--|-7-7-7--7-7-7--|------------------|--------------------|
|
| Gtr II
| PM|    PM|      PM|    PM|
| E E Q  E E Q    E E Q  E E Q    Q   E  E  E Q.      E  E  Q   E  E Q
|---------------|---------------|------------------|--------------------|
|---------------|---------------|------------------|--------------------|
|---------------|---------------|----14S12-14------|-14S12-14--12S10-9--|
|-----7------7--|-----7------7--|-----x--x--x------|--x--x--x---x--x-x--|
|-----7------7--|-----7------7--|----12S10-12------|-12S10-12--10S=8-7--|
|-7-7-7--7-7-7--|-7-7-7--7-7-7--|------------------|--------------------|


  N.C.                     D5
   Q  H.        W          E +E  E E E E E E   E +E  E E E E E E
|-------------|----------|-------------------|-------------------|
|-------------|----------|-------------------|-------------------|
|--7----------|----------|-7-(7)-7-7-7-7-7-7-|-7-(7)-7-7-7-7-7-7-|
|--x----------|----------|-7-(7)-7-7-7-7-7-7-|-7-(7)-7-7-7-7-7-7-|
|--5----------|----------|-5-(5)-5-5-5-5-5-5-|-5-(5)-5-5-5-5-5-5-|
|-------------|----------|-------------------|-------------------|
|
|  Q  H.        W          E +E  E E E E E E   E +E  E E E E E E
|-------------|----------|-------------------|-------------------|
|-------------|----------|-------------------|-------------------|
|-10----------|----------|-7-(7)-7-7-7-7-7-7-|-7-(7)-7-7-7-7-7-7-|
|--x----------|----------|-7-(7)-7-7-7-7-7-7-|-7-(7)-7-7-7-7-7-7-|
|--8----------|----------|-5-(5)-5-5-5-5-5-5-|-5-(5)-5-5-5-5-5-5-|
|-------------|----------|-------------------|-------------------|


 Verse
  D
  Gtrs I, II
  E +E  E E E E E E   E +E  E E E E E E
|-------------------|-------------------|
|-------------------|-------------------|
|-7-(7)-7-7-7-7-7-7-|-7-(7)-7-7-7-7-7-7-|
|-7-(7)-7-7-7-7-7-7-|-7-(7)-7-7-7-7-7-7-|
|-5-(5)-5-5-5-5-5-5-|-5-(5)-5-5-5-5-5-5-|
|-------------------|-------------------|


  A/C#
  E +E  E E E E E E   E +E  E E E E E E
|-------------------|-------------------|
|-------------------|-------------------|
|-------------------|-------------------|
|-7-(7)-7-7-7-7-7-7-|-7-(7)-7-7-7-7-7-7-|
|-4-(4)-4-4-4-4-4-4-|-4-(4)-4-4-4-4-4-4-|
|-------------------|-------------------|


  E +E  E E E E E E   E +E  E E E E E E
|-------------------|-------------------|
|-------------------|-------------------|
|-------------------|-------------------|
|-7-(7)-7-7-7-7-7-7-|-7-(7)-7-7-7-7-7-7-|
|-4-(4)-4-4-4-4-4-4-|-4-(4)-4-4-4-4-4-4-|
|-------------------|-------------------|


  C5
  E +E  E E E E E E   E +E  E E E E E E
|-------------------|-------------------|
|-------------------|-------------------|
|-5-(5)-5-5-5-5-5-5-|-5-(5)-5-5-5-5-5-5-|
|-5-(5)-5-5-5-5-5-5-|-5-(5)-5-5-5-5-5-5-|
|-3-(3)-3-3-3-3-3-3-|-3-(3)-3-3-3-3-3-3-|
|-------------------|-------------------|


                                          G5
  E +E  E E E E E E   E +E  E E E E E E   H    H      H    H
|-------------------|-------------------|-----------|-----------|
|-------------------|-------------------|-----------|-----------|
|-5-(5)-5-5-5-5-5-5-|-5-(5)-5-5-5-5-5-5-|-----------|-----------|
|-5-(5)-5-5-5-5-5-5-|-5-(5)-5-5-5-5-5-5-|-5----5----|-5----5----|
|-3-(3)-3-3-3-3-3-3-|-3-(3)-3-3-3-3-3-3-|-5----5----|-5----5----|
|-------------------|-------------------|-5----5----|-5----5----|


  Bb5                          D5
  Gtr I
   W              +W           Q  Q  Q  Q    Q  Q  Q  Q
|--------------|-------------|-------------|-------------|
|--------------|-------------|-------------|-------------|
|--------------|-------------|-7--7--7--7--|-7--7--7--7--|
|-/8-----------|--(8)--------|-7--7--7--7--|-7--7--7--7--|
|-/8-----------|--(8)--------|-5--5--5--5--|-5--5--5--5--|
|-/8-----------|--(8)--------|-------------|-------------|
|
| Gtr II
|                  ~~~~
|  Q   H.         +W           Q  Q  Q  Q    Q  Q  Q  Q
|--------------|-------------|-------------|-------------|
|--------------|-------------|-------------|-------------|
|--5S=10-------|-(10)--------|-7--7--7--7--|-7--7--7--7--|
|--------------|-------------|-7--7--7--7--|-7--7--7--7--|
|--------------|-------------|-5--5--5--5--|-5--5--5--5--|
|--------------|-------------|-------------|-------------|


 Breakdown
  D
  Gtrs I, II
  Q  Q  Q  Q    Q  Q  Q  Q
|-------------|-------------|
|-------------|-------------|
|-7--7--7--7--|-7--7--7--7--|
|-7--7--7--7--|-7--7--7--7--|
|-5--5--5--5--|-5--5--5--5--|
|-------------|-------------|


  A/C#
                                            PM|    PM|
  Q  Q  Q  Q    Q  Q  Q  Q    Q  Q  Q  Q    E E Q  E E Q
|-------------|-------------|-------------|---------------|
|-------------|-------------|-------------|---------------|
|-------------|-------------|-------------|---------------|
|-7--7--7--7--|-7--7--7--7--|-7--7--7--7--|-----7------7--|
|-4--4--4--4--|-4--4--4--4--|-4--4--4--4--|-4-4-4--4-4-4--|
|-------------|-------------|-------------|---------------|


  C5
  Q  Q  Q  Q    Q  Q  Q  Q    Q  Q  Q  Q    Q  Q  Q  Q
|-------------|-------------|-------------|-------------|
|-------------|-------------|-------------|-------------|
|-5--5--5--5--|-5--5--5--5--|-5--5--5--5--|-5--5--5--5--|
|-5--5--5--5--|-5--5--5--5--|-5--5--5--5--|-5--5--5--5--|
|-3--3--3--3--|-3--3--3--3--|-3--3--3--3--|-3--3--3--3--|
|-------------|-------------|-------------|-------------|


  G5                      Bb5
  Gtr I
  H    H      H    H       W              +W
|-----------|-----------|--------------|---------|
|-----------|-----------|--------------|---------|
|-----------|-----------|--------------|---------|
|-5----5----|-5----5----|-/8-----------|--(8)----|
|-5----5----|-5----5----|-/8-----------|--(8)----|
|-5----5----|-5----5----|-/8-----------|--(8)----|
|
| Gtr II
|                          ~~~~~~~
| H    H      H    H       Q   H.         +W
|-----------|-----------|--------------|---------|
|-----------|-----------|--------------|---------|
|-----------|-----------|--------------|---------|
|-5----5----|-5----5----|--5S=10-------|-(10)----|
|-5----5----|-5----5----|--------------|---------|
|-5----5----|-5----5----|--------------|---------|


 Bridge
  D5     C5       Bb5
  Gtrs I, II
  PM---|    PM          PM|                           PM
  Q  E E Q  E E   Q  Q  E E Q    +W           +Q.   E q  Q
|---------------|--------------|------------|---------------|
|---------------|--------------|------------|---------------|
|-7------5------|-3--3------3--|-(3)--------|-(3)--------3--|
|-7------5------|-3--3------3--|-(3)--------|-(3)--------3--|
|-5--3-3-3--1-1-|-1--1--1-1-1--|-(1)--------|-(1)-----1--1--|
|---------------|--------------|------------|---------------|


               PM------|
  +W           E E E E E E Q    +W           +W           +W
|------------|----------------|------------|------------|--------|
|------------|----------------|------------|------------|--------|
|-(3)--------|-------------3--|-(3)--------|-(3)--------|-(3)----|
|-(3)--------|-------------3--|-(3)--------|-(3)--------|-(3)----|
|-(1)--------|-1-1-1-1-1---1--|-(1)--------|-(1)--------|-(1)----|
|------------|----------------|------------|------------|--------|


   Outro
    N.C.
    Gtr I
    PM------|   PM------|
    S S S S E E S S S S E E
||--------------------------|
||o-------------------------|
||--------------------------|
||--------------------------|
||o-5-5-5-5-5---5-5-5-5-5---|
||--------------------------|
|
|   Gtr II
|   PM------|   PM------|
|   S S S S E E S S S S E E
||--------------------------|
||o-------------------------|
||--------------------------|
||--------------------------|
||o-------------------------|
||--0-0-0-0-0---0-0-0-0-0---|


  PM------|   PM------|     PM------|   PM------|
  S S S S E E S S S S E E   S S S S E E S S S S E E
|-------------------------|-------------------------|
|-------------------------|-------------------------|
|-------------------------|-------------------------|
|-------------------------|-------------------------|
|-5-5-5-5-5---5-5-5-5-5---|-5-5-5-5-5---5-5-5-5-5---|
|-------------------------|-------------------------|
|
| PM------|   PM------|     PM------|     PM----|
| S S S S E E S S S S E E   S S S S E E S S S S E E
|-------------------------|-------------------------|
|-------------------------|-------------------------|
|-------------------------|-------------------------|
|-------------------------|-------------------------|
|-------------------------|-------------------------|
|-0-0-0-0-0---0-0-0-0-0---|-0-0-0-0-0---0-0-0-0-0---|


                         PM------|   PM------|     PM------|   PM------|
   E  E  Q   E  E Q   3x S S S S E E S S S S E E   S S S S E E S S S S E E
|---------------------||-------------------------|--------------------------|
|--------------------o||-------------------------|--------------------------|
|-10S=9-10---9S=7-5---||-------------------------|--------------------------|
|--x--x--x---x--x-x---||-------------------------|--------------------------|
|--8S=7--8---7S=5-3--o||-5-5-5-5-5---5-5-5-5-5---|-5-5-5-5-5---5-5-5-5-5----|
|---------------------||-------------------------|--------------------------|
|
|                        PM------|   PM------|     PM------|   PM------|
|  E  E  Q   E  E Q   3x S S S S E E S S S S E E   S S S S E E S S S S E E
|---------------------||-------------------------|--------------------------|
|--------------------o||-------------------------|--------------------------|
|-14S12-14--12S10-9---||-------------------------|--------------------------|
|--x--x--x---x--x-x---||-------------------------|--------------------------|
|-12S10-12--10S=8-7--o||-------------------------|--------------------------|
|---------------------||-0-0-0-0-0---0-0-0-0-0---|-0-0-0-0-0---0-0-0-0-0----|


  PM------|   PM------|
  S S S S E E S S S S E E    E  E  Q   E  E Q     H     H
|-------------------------|--------------------|-------------*|
|-------------------------|--------------------|-------------*|
|-------------------------|-10S=9-10---9S=7-5--|--7\---------*|
|-------------------------|--x--x--x---x--x-x--|--x\---------*|
|-5-5-5-5-5---5-5-5-5-5---|--8S=7--8---7S=5-3--|--5\---------*|
|-------------------------|--------------------|-------------*|
|
| S S S S E E S S S S E E    E  E  Q   E  E Q     H     H
|-------------------------|--------------------|-------------*|
|-------------------------|--------------------|-------------*|
|-------------------------|-14S12-14--12S10-9--|-10\---------*|
|-------------------------|--x--x--x---x--x-x--|--x\---------*|
|-------------------------|-12S10-12--10S=8-7--|--8\---------*|
|-0-0-0-0-0---0-0-0-0-0---|--------------------|-------------*|



Duration Legend
---------------
W - whole; H - half; Q - quarter; E - 8th; S - 16th; T - 32nd; X - 64th; a - acciaccatura
+ - note tied to previous; . - note dotted; .. - note double dotted
Uncapitalized letters represent notes that are staccato (1/2 duration)
Irregular groupings are notated above the duration line
Duration letters will always appear directly above the note/fret number it represents the
duration for.  Duration letters with no fret number below them represent rests.  Multi-
bar rests are notated in the form Wxn, where n is the number of bars to rest for.  Low
melody durations appear below the staff

Tablature Legend
----------------
 h   - hammer-on
 p   - pull-off
 b   - bend
 pb  - pre-bend
 r   - bend release (if no number after the r, then release immediately)
 /\  - slide into or out of (from/to "nowhere")
 s   - legato slide
 S   - shift slide
<n> - natural harmonic
[n]  - artificial harmonic
n(n) - tapped harmonic
 ~   - vibrato
 tr  - trill
 T   - tap
 TP  - trem. picking
 PM  - palm muting
\n/  - tremolo bar dip; n = amount to dip
 \n  - tremolo bar down
 n/  - tremolo bar up
/n\  - tremolo bar inverted dip
 =   - hold bend; also acts as connecting device for hammers/pulls
 <> - volume swell (louder/softer)
 x   - on rhythm slash represents muted slash
 o   - on rhythm slash represents single note slash

Misc Legend
-----------
 |  - bar
||  - double bar
||o - repeat start
o|| - repeat end
*|  - double bar (ending)
 :  - bar (freetime)
 $  - Segno
 &  - Coda
Tempo markers - <E/E./Q/Q./H/H.> = BPM(8/16=s8/s16), where s8 = swing 8ths, s16 = swing 16ths

comments
We did not receive enough feedback on this tab! Please rate:
print report bad tab
1 2 3 4 5
1 comment total.
0 reply
Nosf3ratu wrote on June 9 2006, 10:10 am

Great song, great band.

I'm not sure if the parts throughout the song and in the outro where it's tabbed as single muted notes are really singles. I'm pretty sure it's two-string power chords. But it's deceptive, because it's two guitars, so maybe it is single notes. For one guitar, I'd play them as chords to "thicken" up the sound.

I want to post or [tab]
guest
You may want to rate the tab now too:
select rating
Please do not post tabs as comments. Select "correction" instead!