Oops, an error
Loading. Please wait.

Route 40 One Six Tab

176 views 1 this week
no commentswrite comment
1 2 3 4 5
please rate
Autoscroll
+/-
esc
set tempo
stop
Contributor
Difficulty
Tuning
intermediate
D A D G B E
WARNING: You are trying to view
                                    content from Ultimate-Guitar.com
                                    in an unauthorized application,
                                    which is prohibited.

                                    Please use an official Ultimate
                                    Guitar Tabs application for iPhone,
                                    iPad or Android to access legitimate
                                    chords, guitar, bass, and drum tabs
                                    from Ultimate-Guitar.com database.

                                    Type "ultimate guitar tabs" in Apple
                                    App Store's or Android Market's
                                    search to find the application.
-------------------------------------------------------------------------------
                            Route 40 One Six - A Wilhelm Scream
-------------------------------------------------------------------------------
Tabbed by: Lee Bowman   
Email: offtopic.182@gmail.com

Tuning: Drop D

| *   palm mute
| /   slide up
| \   slide down
| b   bend
| x   Mute note

First tab after many, many years of guitaring. Hope you like it.


Intro
0:00 - 0:09
e|---------------------------------------------------------------------------|
B|---------------------------------------------------------------------------|
G|---------------------------------------------------------------------------|
D|-2-2-0-5-2-2-0-9-7-7-7-9-7-7-7-9-10-10-7-10-9-7-5-7-9-7-5-4-2-0-2-5--------|
A|-2-2-0-5-2-2-0-9-7-7-7-9-7-7-7-9-10-10-7-10-9-7-5-7-9-7-5-4-2-0-2-5--------|
D|-2-2-0-5-2-2-0-9-7-7-7-9-7-7-7-9-10-10-7-10-9-7-5-7-9-7-5-4-2-0-2-5--------|

e|---------------------------------------------------------------------------|
B|---------------------------------------------------------------------------|
G|---------------4-2-2-2-4---------------------------------------------------|
D|-2-2-0-5-2-2-0-4-2-2-2-4-5-4-2---------------------------------------------|
A|-2-2-0-5-2-2-0-2-0-0-0-2-5-4-2-2-3-3-0-3-2-0---3-2-0-----------------------|
D|-2-2-0-5-2-2-0-----------5-4-2---------------5-------5-4-2-0-2-------------|

Verse 
0:10 - 0:30
e|---------------------------------------------------------------------------|
B|---------------------------------------------------------------------------|
G|-7-7-7-7-7-7--2-2-2-2-2-2--5-5-5-5-5-5-5-5---------------------------------|
D|-5-5-5-5-5-5--2-2-2-2-2-2--5-5-5-5-5-5-5-5---------------------------------|
A|-5-5-5-5-5-5--0-0-0-0-0-0--3-3-3-3-3-3-3-3---------------------------------|
D|-5-5-5-5-5-5---------------------------------------------------------------|
       * * * *      * * * *

e|---------------------------------------------------------------------------|
B|---------------------------------------------------------------------------|
G|-7-7-7-7-7-7--2-2-2-2-2-2--5-5-5-5-5-5-5-5---------------------------------|
D|-5-5-5-5-5-5--2-2-2-2-2-2--5-5-5-5-5-5-5-5---------------------------------|
A|-5-5-5-5-5-5--0-0-0-0-0-0--3-3-3-3-3-3-3-3---------------------------------|
D|-5-5-5-5-5-5---------------------------------------------------------------|
       * * * *      * * * *
 
e|---------------------------------------------------------------------------|
B|---------------------------------------------------------------------------|
G|------------5-5-5-5-5-5-5-5--9-9-9-9-9--7-7-7-7-7-7-7/9--------------------|
D|-2-2-2-2-2--5-5-5-5-5-5-5-5--x-x-x-x-x--x-x-x-x-x-x-x-x--------------------|
A|-2-2-2-2-2--3-3-3-3-3-3-3-3--7-7-7-7-7--5-5-5-5-5-5-5/7--------------------|
D|-2-2-2-2-2-----------------------------------------------------------------|


e|---------------------------------------------------------------------------|
B|---------------------------------------------------------------------------|
G|-7-7-7-7-7-7--2-2-2-2-2-2--5-5-5-5-5-5-5-5---------------------------------|
D|-5-5-5-5-5-5--2-2-2-2-2-2--5-5-5-5-5-5-5-5---------------------------------|
A|-5-5-5-5-5-5--0-0-0-0-0-0--3-3-3-3-3-3-3-3---------------------------------|
D|-5-5-5-5-5-5---------------------------------------------------------------|
       * * * *      * * * *

e|---------------------------------------------------------------------------|
B|---------------------------------------------------------------------------|
G|-7-7-7-7-7-7--2-2-2-2-2-2--5-5-5-5-5-5-5-5---------------------------------|
D|-5-5-5-5-5-5--2-2-2-2-2-2--5-5-5-5-5-5-5-5---------------------------------|
A|-5-5-5-5-5-5--0-0-0-0-0-0--3-3-3-3-3-3-3-3---------------------------------|
D|-5-5-5-5-5-5---------------------------------------------------------------|
       * * * *      * * * *
 
e|---------------------------------------------------------------------------|
B|---------------------------------------------------------------------------|
G|------------5-5-5-5-5-5-5-5---------2-2-x--5-5-5-5-5-5-5-------------------|
D|-2-2-2-2-2--5-5-5-5-5-5-5-5--5-5-x--2-2-x--5-5-5-5-5-5-5-------------------|
A|-2-2-2-2-2--3-3-3-3-3-3-3-3--5-5-x--0-0-x--3-3-3-3-3-3-3-------------------|
D|-2-2-2-2-2-------------------5-5-x-----------------------------------------|
                                                 * * * * *

Intro
0:31 - 0:40
e|---------------------------------------------------------------------------|
B|---------------------------------------------------------------------------|
G|---------------------------------------------------------------------------|
D|-2-2-0-5-2-2-0-9-7-7-7-9-7-7-7-9-10-10-7-10-9-7-5-7-9-7-5-4-2-0-2-5--------|
A|-2-2-0-5-2-2-0-9-7-7-7-9-7-7-7-9-10-10-7-10-9-7-5-7-9-7-5-4-2-0-2-5--------|
D|-2-2-0-5-2-2-0-9-7-7-7-9-7-7-7-9-10-10-7-10-9-7-5-7-9-7-5-4-2-0-2-5--------|

e|---------------------------------------------------------------------------|
B|---------------------------------------------------------------------------|
G|---------------4-2-2-2-4---------------------------------------------------|
D|-2-2-0-5-2-2-0-4-2-2-2-4-5-4-2---------------------------------------------|
A|-2-2-0-5-2-2-0-2-0-0-0-2-5-4-2-2-3-3-0-3-2-0---0-2-0-----------------------|
D|-2-2-0-5-2-2-0-----------5-4-2---------------5-------5-4-2-0-2-------------|


Verse 
0:40 - 0:59
e|---------------------------------------------------------------------------|
B|---------------------------------------------------------------------------|
G|-7-7-7-7-7-7--2-2-2-2-2-2--5-5-5-5-5-5-5-5---------------------------------|
D|-5-5-5-5-5-5--2-2-2-2-2-2--5-5-5-5-5-5-5-5---------------------------------|
A|-5-5-5-5-5-5--0-0-0-0-0-0--3-3-3-3-3-3-3-3---------------------------------|
D|-5-5-5-5-5-5---------------------------------------------------------------|
       * * * *      * * * *

e|---------------------------------------------------------------------------|
B|---------------------------------------------------------------------------|
G|-7-7-7-7-7-7--2-2-2-2-2-2--5-5-5-5-5-5-5-5---------------------------------|
D|-5-5-5-5-5-5--2-2-2-2-2-2--5-5-5-5-5-5-5-5---------------------------------|
A|-5-5-5-5-5-5--0-0-0-0-0-0--3-3-3-3-3-3-3-3---------------------------------|
D|-5-5-5-5-5-5---------------------------------------------------------------|
       * * * *      * * * *
 
e|---------------------------------------------------------------------------|
B|---------------------------------------------------------------------------|
G|------------5-5-5-5-5-5-5-5--9-9-9-9-9--7-7-7-7-7-7-7/9--------------------|
D|-2-2-2-2-2--5-5-5-5-5-5-5-5--x-x-x-x-x--x-x-x-x-x-x-x-x--------------------|
A|-2-2-2-2-2--3-3-3-3-3-3-3-3--7-7-7-7-7--5-5-5-5-5-5-5/7--------------------|
D|-2-2-2-2-2-----------------------------------------------------------------|


e|---------------------------------------------------------------------------|
B|---------------------------------------------------------------------------|
G|-7-7-7-7-7-7--2-2-2-2-2-2--5-5-5-5-5-5-5-5---------------------------------|
D|-5-5-5-5-5-5--2-2-2-2-2-2--5-5-5-5-5-5-5-5---------------------------------|
A|-5-5-5-5-5-5--0-0-0-0-0-0--3-3-3-3-3-3-3-3---------------------------------|
D|-5-5-5-5-5-5---------------------------------------------------------------|
       * * * *      * * * *

e|---------------------------------------------------------------------------|
B|---------------------------------------------------------------------------|
G|-7-7-7-7-7-7--2-2-2-2-2-2--5-5-5-5-5-5-5-5---------------------------------|
D|-5-5-5-5-5-5--2-2-2-2-2-2--5-5-5-5-5-5-5-5---------------------------------|
A|-5-5-5-5-5-5--0-0-0-0-0-0--3-3-3-3-3-3-3-3---------------------------------|
D|-5-5-5-5-5-5---------------------------------------------------------------|
       * * * *      * * * *
 
e|---------------------------------------------------------------------------|
B|---------------------------------------------------------------------------|
G|------------5-5-5-5-5-5-5-5---------2-2-x--5-5-5-5-5-5-5-------------------|
D|-2-2-2-2-2--5-5-5-5-5-5-5-5--5-5-x--2-2-x--5-5-5-5-5-5-5-------------------|
A|-2-2-2-2-2--3-3-3-3-3-3-3-3--5-5-x--0-0-x--3-3-3-3-3-3-3-------------------|
D|-2-2-2-2-2-------------------5-5-x-----------------------------------------|
                                                 * * * * *

Solo Part 1
1:00 - 1:12

The bend is tough to tab properly. Bend 10 on B to 11 for 7 notes then bring 
it back to 10 for the last one.
e|---------------------------------------------------------------------------|
B|----------------------------10-8---8-10-8---8-12-8---8---8-10b11b10-x7-8---|
G|-9-9-7-7-9-9---12-9-12-12--------9--------9--------9---9-----------------9-|
D|---------------------------------------------------------------------------|
A|---------------------------------------------------------------------------|
D|---------------------------------------------------------------------------|

e|---------------------------------------------------------------------------|
B|---------------------------------------------------------------------------|
G|-7-7-5-5-4-4-2-2-4-4-5-5-2-2-----------------------------------------------|
D|-0-0-0-0-0-0-0-0-0-0-0-0-0-0-----------------------------------------------|
A|---------------------------------------------------------------------------|
D|---------------------------------------------------------------------------|

Solo Part 2 AKA the part I haven't figured out yet. Sorry. Here's the rhythm
part though, or something very close to it.
1:13 - 1:22
e|---------------------------------------------------------------------------|
B|---------------------------------------------------------------------------|
G|---------------------------------7-7-7-7-7-7-------------------------------|
D|-2-2-2-2-2-2-2-2-2-2-0-0-0-0-0-0-5-5-5-5-5-5-------------------------------|
A|-2-2-2-2-2-2-2-2-2-2-0-0-0-0-0-0-5-5-5-5-5-5-------------------------------|
E|-2-2-2-2-2-2-2-2-2-2-0-0-0-0-0-0-5-5-5-5-5-5-------------------------------|



Interlude
1:23 - 1:35
e|---------------------------------------------------------------------------|
B|---------------------------------------------------------------------------|
G|--------------5-5-5-5-5-5---------------5-5-5-5-5-5------------------------|
D|-2-2-2-2-2-2--5-5-5-5-5-5--2-2-2-2-2-2--5-5-5-5-5-5------------------------|
A|-2-2-2-2-2-2--3-3-3-3-3-3--2-2-2-2-2-2--3-3-3-3-3-3------------------------|
E|-2-2-2-2-2-2---------------2-2-2-2-2-2-------------------------------------|


e|---------------------------------------------------------------------------|
B|---------------------------------------------------------------------------|
G|--------2-2-2--5-5-5-5-5-5-5-----------------------------------------------|
D|-5-5-5--2-2-2--5-5-5-5-5-5-5-----------------------------------------------|
A|-5-5-5--0-0-0--3-3-3-3-3-3-3-----------------------------------------------|
E|-5-5-5---------------------------------------------------------------------|


e|---------------------------------------------------------------------------|
B|---------------------------------------------------------------------------|
G|--------------5-5-5-5-5-5---------------5-5-5-5-5-5------------------------|
D|-2-2-2-2-2-2--5-5-5-5-5-5--2-2-2-2-2-2--5-5-5-5-5-5------------------------|
A|-2-2-2-2-2-2--3-3-3-3-3-3--2-2-2-2-2-2--3-3-3-3-3-3------------------------|
E|-2-2-2-2-2-2---------------2-2-2-2-2-2-------------------------------------|
                                              * * * * 
1:36 - 1:45
e|---------------------------------------------------------------------------|
B|---------------------------------------------------------------------------|
G|-7-7-7-7-7-7--2-2-2-2-2-2--5-5-5-5-5-5-5-5---------------------------------|
D|-5-5-5-5-5-5--2-2-2-2-2-2--5-5-5-5-5-5-5-5---------------------------------|
A|-5-5-5-5-5-5--0-0-0-0-0-0--3-3-3-3-3-3-3-3---------------------------------|
D|-5-5-5-5-5-5---------------------------------------------------------------|
       * * * *      * * * *

e|---------------------------------------------------------------------------|
B|---------------------------------------------------------------------------|
G|-7-7-7-7-7-7--2-2-2-2-2-2--5-5-5-5-5-5-5-5---------------------------------|
D|-5-5-5-5-5-5--2-2-2-2-2-2--5-5-5-5-5-5-5-5---------------------------------|
A|-5-5-5-5-5-5--0-0-0-0-0-0--3-3-3-3-3-3-3-3---------------------------------|
D|-5-5-5-5-5-5---------------------------------------------------------------|
       * * * *      * * * *

e|---------------------------------------------------------------------------|
B|---------------------------------------------------------------------------|
G|-7-7-7-7-7-7--2-2-2-2-2-2--5-5-5-5-5-5-5-5---------------------------------|
D|-5-5-5-5-5-5--2-2-2-2-2-2--5-5-5-5-5-5-5-5---------------------------------|
A|-5-5-5-5-5-5--0-0-0-0-0-0--3-3-3-3-3-3-3-3---------------------------------|
D|-5-5-5-5-5-5---------------------------------------------------------------|
       * * * *      * * * *

e|---------------------------------------------------------------------------|
B|---------------------------------------------------------------------------|
G|--------------7-6-5\-------------------------------------------------------|
D|-7-7-7-7-7-5--5-4-3\-------------------------------------------------------|
A|-7-7-7-7-7-5--5-4-3\-------------------------------------------------------|
E|-7-7-7-7-7-5--5-4-3\-------------------------------------------------------|


Outro
1:46 - End
e|---------------------------------------------------------------------------|
B|---------------------------------------------------------------------------|
G|---------------------------------------------------------------------------|
D|-2-2-0-5-2-2-0-9-7-7-7-9-7-7-7-9-10-10-7-10-9-7-5-7-9-7-5-4-2-0-2-5--------|
A|-2-2-0-5-2-2-0-9-7-7-7-9-7-7-7-9-10-10-7-10-9-7-5-7-9-7-5-4-2-0-2-5--------|
D|-2-2-0-5-2-2-0-9-7-7-7-9-7-7-7-9-10-10-7-10-9-7-5-7-9-7-5-4-2-0-2-5--------|

e|---------------------------------------------------------------------------|
B|---------------------------------------------------------------------------|
G|---------------4-2-2-2-4---------------------------------------------------|
D|-2-2-0-5-2-2-0-4-2-2-2-4-5-4-2-------------------------------2-------------|
A|-2-2-0-5-2-2-0-2-0-0-0-2-5-4-2-2-3-3-0-3-2-0---3-2-0---------2-------------|
D|-2-2-0-5-2-2-0-----------5-4-2---------------5-------5-4-2-0-2-------------|
comments
We did not receive enough feedback on this tab! Please rate:
print report bad tab
1 2 3 4 5
I want to post or [tab]
guest
You may want to rate the tab now too:
select rating
Please do not post tabs as comments. Select "correction" instead!