Oops, an error
Loading. Please wait.

Stab Stab Stab Tab

513 views 3 this week
no commentswrite comment
1 2 3 4 5
please rate
Autoscroll
+/-
esc
set tempo
stop
Difficulty
intermediate
WARNING: You are trying to view
                                    content from Ultimate-Guitar.com
                                    in an unauthorized application,
                                    which is prohibited.

                                    Please use an official Ultimate
                                    Guitar Tabs application for iPhone,
                                    iPad or Android to access legitimate
                                    chords, guitar, bass, and drum tabs
                                    from Ultimate-Guitar.com database.

                                    Type "ultimate guitar tabs" in Apple
                                    App Store's or Android Market's
                                    search to find the application.
=====================================
Stab. Stab. Stab. -  A WILHELM SCREAM
        Tabbed by Fueller777
=====================================


 ==================
 STANDARD TUNING!!!
 ==================

 Just play along.


[0:01] 2x
E|------------------------------------||
B|------------------------------------||
G|-----10p7---9----10p7---9----10p7---||
D|--77------7---77------7---77--------||
A|------------------------------------||
E|------------------------------------||

E|-------------------------------------------------||
B|-------------------------------------------------||
G|-------14p10----12------14p10----12------14p10---||
D|-------------------------------------------------||
A|--1010-------10----1010-------10----1010---------||
E|-------------------------------------------------||

E|---------------------------------||
B|---------------------------------||
G|-----5p3---7----5p3---7----5p3---||
D|--33-----3---33-----3---33-------||
A|---------------------------------||
E|---------------------------------||

E|--------------------------||
B|--------------------------||
G|-----3p2---5----3p2---5---||
D|--33-----3---33-----3-----||
A|--------------------------||
E|--------------------------||

[0:18]
E|---------------------------------------------10-----------||
B|----------10--13-11-10----------------10--13---13-11-11---||
G|--10--12---------------12-12--10--12----------------------||
D|----------------------------------------------------------||
A|----------------------------------------------------------||
E|----------------------------------------------------------||

E|--------------------10------------------------------------||
B|--10--13--13h15p13-----13-11-10------------10--13-11-10---||
G|--------------------------------12-10--12-----------------||
D|----------------------------------------------------------||
A|----------------------------------------------------------||
E|----------------------------------------------------------||

[0:35]
E|-----------------------------------------||
B|--------------10-----------------5-------||
G|--------10-------10----------5-----5-----||
D|--10-10----10-------10---7-7---7-----7---||
A|-----------------------------------------||
E|-----------------------------------------||

[0:38] 4x
E|----------------||
B|----------------||
G|--7-7-7-77777---||
D|--0-0-0-00000---||
A|--0-0-0-00000---||
E|----------------||

[0:42]
E|-------------------------------------||
B|-------------------------------------||
G|-------------------------------------||
D|--8-8--5--8-8--7--8-8--10--5-5-5-5---||
A|--8-8-----8-8-----8-8------5-5-5-5---||
E|--6-6-----6-6-----6-6------3-3-3-3---||

[0:46]
E|-----------------||
B|-----------------||
G|--14-14--12--5---||
D|--X--X---X---X---||
A|--12-12--10--7---||
E|-----------------||

[0:51]
E|-----------------------------------------||
B|-----------------------------------------||
G|-----------------------------------------||
D|--8-8--5--8-8--7--8-8--10--10-10-10-10---||
A|--8-8-----8-8-----8-8------10-10-10-10---||
E|--6-6-----6-6-----6-6------8--8--8--8----||

[0:56]
E|-------------------------------------------||
B|-------------------------------------------||
G|-------------------------------------------||
D|--8...--10...--8...--10-10-10-10-8-8-8-8---||
A|--8...--10...--8...--10-10-10-10-8-8-8-8---||
E|--6...--8...---6...--8--8--8--8--6-6-6-6---||

[1:04]
E|-------------------------------------||
B|-------------------------------------||
G|--10...-----------------14-14--9-9---||
D|--X...---10...--8.....--X--X---X-X---||
A|--8...---10...--8.....--12-12--7-7---||
E|---------8...---6.....---------------||

[1:13]
E|------------------------------------||
B|------------------------------------||
G|-----10p7---9----10p7---9----10p7---||
D|--77------7---77------7---77--------||
A|------------------------------------||
E|------------------------------------||

E|-----------------------------------||
B|-----------------------------------||
G|-----9p5----10----9p5---10----9p5--||
D|--55------5----55-----5---55-------||
A|-----------------------------------||
E|-----------------------------------||

E|---------------------------------||
B|---------------------------------||
G|-----5p3---7----5p3---7----5p3---||
D|--33-----3---33-----3---33-------||
A|---------------------------------||
E|---------------------------------||

E|--------------------------||
B|--------------------------||
G|-----3p2---5---7-7--5-5---||
D|--33-----3-----7-7--5-5---||
A|---------------5-5--3-3---||
E|--------------------------||

[1:22]
E|-----------------------------------------------------------||
B|-----------------------------------------------------------||
G|-------------------------------------------7-7--5-5--------||
D|--8-8----------10p7---------10p7-----------7-7--5-5--(8)---||
A|--8-8------8p5----------8p5----------------5-5--3-3--(8)---||
E|--6-6--6-6----------6-6-----------6-6-6-6------------(6)---||

[1:27] Guitar I 16x
E|-------------------||
B|-------------------||
G|-------------------||
D|-------------------||
A|--5--8--7--5-5-5---||
E|-------------------||

[1:31] Guitar II 12x
E|--------------------||
B|--------------------||
G|--7--10--9--7-7-7---||
D|--------------------||
A|--------------------||
E|--------------------||

[1:43]
E|-------------------------------||
B|-----------10------------------||
G|--10h12p10----9-9h10p9h10------||
D|--------------------------12---||
A|-------------------------------||
E|-------------------------------||

[1:46] 4x
E|----------------||
B|----------------||
G|--7-7-7-77777---||
D|--0-0-0-00000---||
A|--0-0-0-00000---||
E|----------------||

[1:50]
E|-------------------------------------||
B|-------------------------------------||
G|-------------------------------------||
D|--8-8--5--8-8--7--8-8--10--5-5-5-5---||
A|--8-8-----8-8-----8-8------5-5-5-5---||
E|--6-6-----6-6-----6-6------3-3-3-3---||

[1:54]
E|-----------------||
B|-----------------||
G|--14-14--12--5---||
D|--X--X---X---X---||
A|--12-12--10--7---||
E|-----------------||

[1:59]
E|-----------------------------------------||
B|-----------------------------------------||
G|-----------------------------------------||
D|--8-8--5--8-8--7--8-8--10--10-10-10-10---||
A|--8-8-----8-8-----8-8------10-10-10-10---||
E|--6-6-----6-6-----6-6------8--8--8--8----||

[2:03]
E|-------------------------------------------||
B|-------------------------------------------||
G|-------------------------------------------||
D|--8...--10...--8...--10-10-10-10-8-8-8-8---||
A|--8...--10...--8...--10-10-10-10-8-8-8-8---||
E|--6...--8...---6...--8--8--8--8--6-6-6-6---||

[2:12]
E|-------------------------------------||
B|-------------------------------------||
G|--10...-----------------14-14--9-9---||
D|--X...---10...--8.....--X--X---X-X---||
A|--8...---10...--8.....--12-12--7-7---||
E|---------8...---6.....---------------||

[2:21]
E|------------------------------------||
B|------------------------------------||
G|-----10p7---9----10p7---9----10p7---||
D|--77------7---77------7---77--------||
A|------------------------------------||
E|------------------------------------||

E|-----------------------------------||
B|-----------------------------------||
G|-----9p5----10----9p5---10----9p5--||
D|--55------5----55-----5---55-------||
A|-----------------------------------||
E|-----------------------------------||

E|---------------------------------||
B|---------------------------------||
G|-----5p3---7----5p3---7----5p3---||
D|--33-----3---33-----3---33-------||
A|---------------------------------||
E|---------------------------------||

E|--------------------------||
B|--------------------------||
G|-----3p2---5---7-7--5-5---||
D|--33-----3-----7-7--5-5---||
A|---------------5-5--3-3---||
E|--------------------------||

[2:30] 2x
E|------------------------------------------------------||
B|------------------------------------------------------||
G|-------------------------------------------7-7--5-5---||
D|--8-8----------10p7---------10p7-----------7-7--5-5---||
A|--8-8------8p5----------8p5----------------5-5--3-3---||
E|--6-6--6-6----------6-6-----------6-6-6-6-------------||

[2:39] 8x
E|-------------------------------||
B|-----------10------------------||
G|--10h12p10----9-9h10p9h10------||
D|--------------------------12---||
A|-------------------------------||
E|-------------------------------||

[2:56] 8x
E|--------------------------------------||
B|-----------10-------------------------||
G|--10h12p10----9-9h10p9h10-----10-12---||
D|--------------------------12----------||
A|--------------------------------------||
E|--------------------------------------||

[2:58]
E|---------------------------------------------10-----------||
B|----------10--13-11-10----------------10--13---13-11-11---||
G|--10--12---------------12-12--10--12----------------------||
D|----------------------------------------------------------||
A|----------------------------------------------------------||
E|----------------------------------------------------------||

E|--------------------10------------------------------------||
B|--10--13--13h15p13-----13-11-10------------10--13-11-10---||
G|--------------------------------12-10--12-----------------||
D|----------------------------------------------------------||
A|----------------------------------------------------------||
E|----------------------------------------------------------||

[3:16]
E|-------------------------------------------------------||
B|-------------------------------------------------------||
G|--10--9--10--------------------------------------------||
D|-------------12-10-------------------------------------||
A|-------------------13-12--13--15--13-12-10-8--10--12---||
E|-------------------------------------------------------||

E|------------------------------------||
B|------------------------------------||
G|------------------------------------||
D|------------12--14--15--12-10-8-----||
A|--13-12-13----------------------8---||
E|------------------------------------||
comments
We did not receive enough feedback on this tab! Please rate:
1 2 3 4 5
I want to post or [tab]
guest
You may want to rate the tab now too:
select rating
Please do not post tabs as comments. Select "correction" instead!