Oops, an error
Loading. Please wait.

The Kids Can Eat A Bag Of Dicks Tab

ver1
ver1

Whole song

Interactive

More versions @911Tabs.com
2,305 views 1 this week
no commentswrite comment
1 2 3 4 5
worth learning
x 3
Autoscroll
+/-
esc
set tempo
stop
Difficulty
Tuning
intermediate
D A D G B E
Hey! There's an official Ultimate Guitar app which is ideal
for learning songs when you're away from computer. Get the app
WARNING: You are trying to view
                                    content from Ultimate-Guitar.com
                                    in an unauthorized application,
                                    which is prohibited.

                                    Please use an official Ultimate
                                    Guitar Tabs application for iPhone,
                                    iPad or Android to access legitimate
                                    chords, guitar, bass, and drum tabs
                                    from Ultimate-Guitar.com database.

                                    Type "ultimate guitar tabs" in Apple
                                    App Store's or Android Market's
                                    search to find the application.
----------------------------------------------------------------------------
             The Kids Can Eat A Bag Of Dicks - A Wilhelm Scream
----------------------------------------------------------------------------

Tabbed by: Evan Kaps
Email: Kapster666@aol.com

Tuning: Drop D (DADGBe)


 Guitar 1 (0:01-0:12) 4x
e|-----------------------------------------------------|
B|-----------------------------------------------------|
G|-8---------------------------------------------------|
D|-x-(16x)---------------------------------------------|
A|-6---------------------------------------------------|
D|-----------------------------------------------------|
                   

 Guitar 2 (0:05-0:12)
e|-----------------------------------------------------|
B|-----------------------------------------------------|
G|-----------------------------------------------------|
D|-----------------------------------------------------|
A|-9-(8x)---9----9----9----9---------------------------|
D|----------8------------------------------------------|
 

 Guitars 1 & 2 (0:12-0:21)
e|-----------------------------------------------------|
B|-----------------------------------------------------|
G|---------8-8-8-8---------------8-8-8-8---------------|
D|---------x-x-x-x-(4x)----------x-x-x-x-(3x)----------|
A|-2-2-2---6-6-6-6-------5-5-5---6-6-6-6---------------|
D|-2-2-2-----------------5-5-5-------------------------|
 PM-----                 -----
 
 Guitar 1 (0:21-0:22)         Guitar 2 (0:21-0:22)
e|------------------------|   |------------------------|
B|------------------------|   |------------------------|
G|-------6~---------------|   |-8--8--6~---------------|
D|-------x----------------|   |-x--x--x----------------|
A|-1--1--4~---------------|   |-6--6--4~---------------|
D|-1--1-------------------|   |------------------------|
PM----

 Guitar 1 (0:22-0:27) 4x      Guitar 2 (0:22-0:27)
e|------------------------|   |------------------------|
B|---7~--7~--7~--7~-------|   |------------------------|
G|-8~--8~--8~--8~---------|   |------------------------|
D|------------------------|   |------------------------|
A|------------------------|   |------------------------|
D|------------------------|   |------------------------|

 Guitar 1 & 2 (0:27-0:37) 2x
e|-----------------------------------------------------|
B|-----------------------------------------------------|
G|-----------------------------------------------------|
D|-------7---------------------------------------------|
A|-6--6--7--9-9-8--(3x)--4--4--2--66666666-------------|
D|-6--6-----9-9-8--------4--4--2--66666666-------------|
 PM                               --------

 Guitar 1 (0:38-0:42)
e|-----------------------------------------------------|
B|-----------------------------------------------------|
G|-----------------------------------------------------|
D|-----------------------------------------------------|
A|-9--7--6--4--2-4-6------9--7--6--4-6-----------------|
D|-----------------------------------------------------|

 Guitar 2 (0:38-0:42)
e|-----------------------------------------------------|
B|-----------------------------------------------------|
G|-8--6--4--3--1-3-4------8--6--4--3-4-----------------|
D|-----------------------------------------------------|
A|-----------------------------------------------------|
D|-----------------------------------------------------|

 Guitars 1 & 2 (0:42-0:43)
e|-----------------------------------------------------|
B|-----------------------------------------------------|
G|-----------------------------------------------------|
D|-----------------------------------------------------|
A|-9-9-9-8-6--6-6--------------------------------------|
D|-9-9-9-8-6--6-6--------------------------------------|
 PM--------------

 Guitars 1 & 2 (0:48-0:52) 4x
e|-----------------------------------------------------|
B|-----------------------------------------------------|
G|-----------------------------------------------------|
D|-2--2--4-4-4-2-2-------------------------------------|
A|-2--2--2-2-2-2-2-------------------------------------|
D|-2--2--2-2-2-2-2-------------------------------------|


 Guitars 1 & 2 (0:53-0:58) 
e|-----------------------------------------------------|
B|-----------------------------------------------------|
G|-----------------------------------------------------|
D|-6-6---6-6---6-6---6-6---6-6---6-6---6-6---6-6-------|
A|-6-6---6-6---6-6---6-6---6-6---6-6---6-6---6-6-------|
D|-6-6---6-6---6-6---6-6---6-6---6-6---6-6---6-6-------|


 Guitars 1 & 2 (0:58-1:02) 4x
e|-----------------------------------------------------|
B|-----------------------------------------------------|
G|-----------------------------------------------------|
D|-2--2--4-4-4-2-2-------------------------------------|
A|-2--2--2-2-2-2-2-------------------------------------|
D|-2--2--2-2-2-2-2-------------------------------------|


 Guitars 1 & 2 (1:03-1:08)
e|-----------------------------------------------------|
B|-----------------------------------------------------|
G|-----------------------------------------------------|
D|-2-2-2-2-2-2-2-2-2-2-2-2--4-4-4-4-4-4-4-4-4-4-4-4----|
A|-2-2-2-2-2-2-2-2-2-2-2-2--4-4-4-4-4-4-4-4-4-4-4-4----|
D|-2-2-2-2-2-2-2-2-2-2-2-2--4-4-4-4-4-4-4-4-4-4-4-4----|


 Guitars 1 & 2 (1:08-1:10)
e|-----------------------------------------------------|
B|-----------------------------------------------------|
G|-8-8-8-8-8----8--6-----------------------------------|
D|-8-8-8-8-8----8--6-9-6-6--6-6-6----------------------|
A|-6-6-6-6-6----6--4-9-6-6--6-6-6----------------------|
D|-------------------9-6-6--6-6-6----------------------|
 PM---------    -  - - 


 Guitars 1 & 2 (1:11-1:13)
e|-----------------------------------------------------|
B|-----------------------------------------------------|
G|-8-8-8-8-8----8--6-----------------------------------|
D|-8-8-8-8-8----8--6-9-6-6--6-4-4--4-2~----------------|
A|-6-6-6-6-6----6--4-9-6-6--6-4-4--4-2~----------------|
D|-------------------9-6-6--6-4-4--4-2~----------------|
 PM---------    -  - - 


 Guitar 1 (1:13-1:18)          Guitar 2 (1:13-1:18)
e|------------------------|   |------------------------|
B|------------------------|   |------------------------|
G|-8-----8-----8-----8----|   |-----6~----------6~-----|
D|---9-----9-----9-----9--|   |-----6~----2~----6~-----|
A|-----7-----7-----7------|   |-----4~----2~----4~-----|
D|------------------------|   |-----------2~-----------|


 Guitars 1 & 2 (1:19-1:28)
e|-----------------------------------------------------|
B|-----------------------------------------------------|
G|----------------------------6--------4-4-------------|
D|-6--------4--------2--------x-(6x)---x-x-------------|
A|-6-(8x)---4-(8x)---2-(8x)---4--------2-2-------------|
D|-6--------4--------2---------------------------------|


 Guitar 1 & 2 (1:28-1:33)
e|-----------------------------------------------------|
B|-----------------------------------------------------|
G|-----------------------------------------------------|
D|-------7---------------------------------------------|
A|-6--6--7--9-9-8--(3x)--4--4--2----9-9-9-8-6--6-6-----|
D|-6--6-----9-9-8--------4--4--2----9-9-9-8-6--6-6-----|
 PM                                 --------------


 Guitars 1 & 2 (1:38-1:43) 4x
e|-----------------------------------------------------|
B|-----------------------------------------------------|
G|-----------------------------------------------------|
D|-2--2--4-4-4-2-2-------------------------------------|
A|-2--2--2-2-2-2-2-------------------------------------|
D|-2--2--2-2-2-2-2-------------------------------------|


 Guitars 1 & 2 (1:44-1:48) 
e|-----------------------------------------------------|
B|-----------------------------------------------------|
G|-----------------------------------------------------|
D|-6-6---6-6---6-6---6-6---6-6---6-6---6-6---6-6-------|
A|-6-6---6-6---6-6---6-6---6-6---6-6---6-6---6-6-------|
D|-6-6---6-6---6-6---6-6---6-6---6-6---6-6---6-6-------|


 Guitars 1 & 2 (1:49-1:53) 4x
e|-----------------------------------------------------|
B|-----------------------------------------------------|
G|-----------------------------------------------------|
D|-2--2--4-4-4-2-2-------------------------------------|
A|-2--2--2-2-2-2-2-------------------------------------|
D|-2--2--2-2-2-2-2-------------------------------------|


 Guitars 1 & 2 (1:54-1:58)
e|-----------------------------------------------------|
B|-----------------------------------------------------|
G|-----------------------------------------------------|
D|-2-2-2-2-2-2-2-2-2-2-2-2--4-4-4-4-4-4-4-4-4-4-4-4----|
A|-2-2-2-2-2-2-2-2-2-2-2-2--4-4-4-4-4-4-4-4-4-4-4-4----|
D|-2-2-2-2-2-2-2-2-2-2-2-2--4-4-4-4-4-4-4-4-4-4-4-4----|


 Guitars 1 & 2 (1:59-2:01)
e|-----------------------------------------------------|
B|-----------------------------------------------------|
G|-8-8-8-8-8----8--6-----------------------------------|
D|-8-8-8-8-8----8--6-9-6-6--6-6-6----------------------|
A|-6-6-6-6-6----6--4-9-6-6--6-6-6----------------------|
D|-------------------9-6-6--6-6-6----------------------|
 PM---------    -  - - 


 Guitars 1 & 2 (2:01-2:04)
e|-----------------------------------------------------|
B|-----------------------------------------------------|
G|-8-8-8-8-8----8--6-----------------------------------|
D|-8-8-8-8-8----8--6-9-6-6--6-4-4--4-2~----------------|
A|-6-6-6-6-6----6--4-9-6-6--6-4-4--4-2~----------------|
D|-------------------9-6-6--6-4-4--4-2~----------------|
 PM---------    -  - - 


 Guitar 1 (2:04-2:08)          Guitar 2 (2:04-2:08)
e|------------------------|   |------------------------|
B|------------------------|   |------------------------|
G|-8-----8-----8-----8----|   |-----6~----------6~-----|
D|---9-----9-----9-----9--|   |-----6~----2~----6~-----|
A|-----7-----7-----7------|   |-----4~----2~----4~-----|
D|------------------------|   |-----------2~-----------|


 Guitars 1 & 2 (2:09-2:18)
e|-----------------------------------------------------|
B|-----------------------------------------------------|
G|----------------------------6--------4-4-------------|
D|-6--------4--------2--------x-(6x)---x-x-------------|
A|-6-(8x)---4-(8x)---2-(8x)---4--------2-2-------------|
D|-6--------4--------2---------------------------------|

 Guitar 1 (2:19-2:23)         Guitar 2 (2:19-2:23)
e|------------------------|   |------------------------|
B|------------------------|   |------------------------|
G|------------------------|   |-8--6--5--4-------------|
D|-8--6--5--4-------------|   |-x--x--x--x-------------|
A|-6--4--3--2-------------|   |-6--4--3--2-------------|
D|------------------------|   |------------------------|


 Guitars 1 & 2 (2:24-2:34) 4x
e|-----------------------------------------------------|
B|-----------------------------------------------------|
G|-----------------------------------------------------|
D|-6-6-6-6---6--6--6-6-6-6---6-------------------------|
A|-6-6-6-6---6--6--6-6-6-6---6-------------------------|
D|-6-6-6-6---6--6--6-6-6-6---6-------------------------|
 PM-------   -  -  -------   -


 Guitars 1 & 2 (2:34-2:54) 2x
e|-----------------------------------------------------|
B|-----------------------------------------------------|
G|---------8-8-8-8---------------8-8-8-8-------8-8-8-6-|
D|---------x-x-x-x-(4x)----------x-x-x-x-(3x)--8-8-8-6-|
A|-2-2-2---6-6-6-6-------5-5-5---6-6-6-6-------6-6-6-4-|
D|-2-2-2-----------------5-5-5-------------------------|
 PM-----                 -----



 Guitars 1 & 2 (2:54-3:01) 3x
e|-----------------------------------------------------|
B|-----------------------------------------------------|
G|-------------8~--------------------------------------|
D|-2--2--2--2--x---------------------------------------|
A|-2--2--2--2--6~--------------------------------------|
D|-2--2--2--2------------------------------------------|


 Guitars 1 & 2 (3:02-3:12)
e|-----------------------------------------------------|
B|-----------------------------------------------------|
G|-----------------------------------------------------|
D|-2~--------------------------------------------------|
A|-2~--------------------------------------------------|
D|-2~--------------------------------------------------|


 Guitar 1 (3:12-3:19) 3x      Guitar 2 (3:12-3:19) 3x
e|------------------------|   |------------------------|
B|------------------------|   |------------------------|
G|------------------------|   |------------------------|
D|------------------------|   |------------------------|
A|-6-6--4-2~--------------|   |-6-6--4-2~--------------|
D|-6-6--4-2~--------------|   |------------------------|


 Guitar 1 (3:20-End)          Guitar 2 (3:20-End)
e|------------------------|   |------------------------|
B|------------------------|   |------------------------|
G|------------------------|   |------------------------|
D|------------------------|   |--------11~-------------|
A|-6-6--4-2~----------/6~-|   |-6-6--4-----------------|
D|-6-6--4-2~--------------|   |------------------------|


| /     slide up
| \     slide down
| h     hammer-on
| p     pull-off
| ~     vibrato
| +     harmonic
| PM -  Mute note
===============================================================================
comments
We did not receive enough feedback on this tab! Please rate:
print report bad tab
1 2 3 4 5
I want to post or [tab]
guest
You may want to rate the tab now too:
select rating
Please do not post tabs as comments. Select "correction" instead!