Oops, an error
Loading. Please wait.

One Man Woman Tab

13,037 views 81 this week
3 commentsread comments
1 2 3 4 5
excellent!
x 3
add to favorites launch autoscroll
font size
0
reset
Autoscroll
+/-
esc
set tempo
stop
Contributor
Difficulty
Tuning
intermediate
D G C F A D
WARNING: You are trying to view
                                    content from Ultimate-Guitar.com
                                    in an unauthorized application,
                                    which is prohibited.

                                    Please use an official Ultimate
                                    Guitar Tabs application for iPhone,
                                    iPad or Android to access legitimate
                                    chords, guitar, bass, and drum tabs
                                    from Ultimate-Guitar.com database.

                                    Type "ultimate guitar tabs" in Apple
                                    App Store's or Android Market's
                                    search to find the application.
-------------------------------------------------------------------------------------------------------------
                     ONE MAN WOMAN - Aaliyah ft Playa - as played by Jeremy Passion & Tori Kelly
-------------------------------------------------------------------------------------------------------------
Tabbed by: Ndermawan
E-mail: ndermawan@yahoo.com

Tuning:Full step down (E becomes D)

Capo 1


https://www.youtube.com/watch?v=7QKmLFCwGdI <-- video here


Chords used: Bbm7 Am7 Abm7 C#9 F#maj7 <- actual sounds of chords, not their position necessarily 

- For help on chords I recommend chordbook.com
  http://www.chordbook.com/guitarchords.php - you can find chords using single notes + hear them

- The whole song is BASICALLY 4 chords, but can have variations/adlibs that I can't 
  really figure out from the video

- So technically you could play this song on standard tuning with no capo using the chords I listed above, 
  it just means you can't play it exactly the same as the video as the picking part of the intro would be 
  harder to play.

- Strumming/rhythm can be followed from the video, as I'm not that good of a tabber



Tab is UNRELATED TO CAPO so place your fingers on the actual fret number


CHORDS:
    Bbm7     Am7              Abm7  C#9  F#maj7
e|----------------------------------------------------------------------------------|
B|---8---8----7-------7---------6---6-----------------------------------------------|
G|---8---8----7-----7---7-------6---6---5-------------------------------------------|
D|---8---8----7---7-------7-----6---5---5-------------------------------------------|
A|----------------------------------6---6-------------------------------------------|
E|---8---8----7-----------------6-------4-------------------------------------------|




INTRO AD LIB                                 This part is relative to capo 
                                             as I think its easier to get the chord shape this way
                  
                                               C5/A
e|-----------------------------------------|-------------------5--------8-----8-----|
B|---8---8----7-------7---------6---6------|---3--3-----0------4--4-----7-----7-----|
G|---8---8----7-----7---7-------6---6---5--|---2--2--1-----2/5-------5--------------|
D|---8---8----7---7-------7-----6---5---5--|---0--0------------------------8--------|
A|----------------------------------6---6--|---2--2---------------------------------|
E|---8---8----7-----------------6-------4--|----------------------------------------|

and switches back to unrelated to capo (same as earlier)

e|-----------------------------------------------------------------|
B|---------/6---6--------------------------------------------------|
G|----pause/6---6---5----------------------------------------------|
D|---------/6---5---5----------------------------------------------|
A|--------------6---6----------------------------------------------|
E|---------/6-------4----------------------------------------------|


I got a car a J-O-B
I'm an independent man God is blessing me
A lot of girls that i can call
9 times out of 10 i don't call them at all
The fun and games are overdue
I miss having someone to answer to
I got a house i got a key
There's one more thing that i really need
chorus:I need a one man woman
And you need a one lady man (I understand)
Girl you don't have to find another
Cause i'll be your man plus your friend (Well here i am)
I need a one man woman
And you need a one lady man (I understand)
Girl you don't have to find another
Cause we can be lovers and friends (Well here i am)
Aaliyah:I saw you out with all the guys
I love the way you look with those big brown eyes yeah
And if it were up to me
We'd both run away and start a family
And on a scale from 1 to 10
I'm giving you 11 boy you're worth that much
only you can rescue me
I will provide anything you need
chorus: repeat 4 times
bridge; Haven't i proved to you
I think i'm ready for you
Baby don't fight my love
Baby invite my love
Haven't i proved to you
I think i'm ready for you
Baby don't fight my love
Baby invite my love
chorus; repeat until song ends





IN THE MIDDLE OF EDIT - Need sleep first - adding lyrics/chords and additional info and corrections





Feel free to comment and correct me/fill in the gaps! I.e timing and whatnot

Hope it helps


************************************

| /   slide up
| \   slide down
| h   hammer-on
| p   pull-off
| ~   vibrato
| +   harmonic
| x   Mute note
| b   Bend
| pb  Pre-bend
| br  Bend release
| pbr Pre-bend release
| brb Bend release bend

************************************
comments
We did not receive enough feedback on this tab! Please rate:
print report bad tab
1 2 3 4 5
3 comments total.
0 reply
Deshaun14 wrote on December 21 2012, 11:33 am

can u do a video?

0 reply
Ctrl_V wrote on March 6 2013, 04:24 pm

Can you give some chords for a simpleton like myself to strum?

0 reply
RR-1443 wrote on January 22 2014, 12:32 am

If you need a capo for some parts and you don't for others, how is it supposed to be played continually without stopping to put on a capo? Sorry, I don't really understand it.

I want to post or [tab]
guest
You may want to rate the tab now too:
select rating
Please do not post tabs as comments. Select "correction" instead!