Oops, an error
Loading. Please wait.

Havisham Tab

38 views 1 this week
no commentswrite comment
1 2 3 4 5
please rate
add to favorites launch autoscroll
font size
0
reset
Autoscroll
+/-
esc
set tempo
stop
Contributor
Difficulty
advanced
WARNING: You are trying to view
                                    content from Ultimate-Guitar.com
                                    in an unauthorized application,
                                    which is prohibited.

                                    Please use an official Ultimate
                                    Guitar Tabs application for iPhone,
                                    iPad or Android to access legitimate
                                    chords, guitar, bass, and drum tabs
                                    from Ultimate-Guitar.com database.

                                    Type "ultimate guitar tabs" in Apple
                                    App Store's or Android Market's
                                    search to find the application.
ABOLITION - HAVISHAM

feedback

    e|---------------------------------------|
    B|---------------------------------------|
GTR G|---------------------------------------|
 1  D|---------------------------------------|
    A|---------------------------------------|
    E|----------------------------pick slide-|

    e|------------------------------ x4 -----------------------------------|
    B|---------------------------------------------------------------------|
GTR G|----------------101010101010-----------------------------------------|
1+2 D|-2--------------101010101010-10--------------------------------------|
    A|-2-222222222222-8-8-8-8-8-8--10-101010101010101010101010-5-8-8-3-6-6-|
    E|-0-000000000000--------------8--8-8-8-8-8-8-8-8-8-8-8-8--3-6-6-1-4-4-|
         PMPMPMPMPMPM                 P M P M P M P M P M P M

    e|------------------------------------------------------------|
    B|------------------------------------------------------------|
GTR G|---------------------------------------------------10101010-|
 1  D|-2------2------2--------------2------2------2------10101010-|
    A|-2--2-2-2--2-2-2--2-2-3-2-----2--2-2-2--2-2-2--2-2-8-8-8-8--|
    E|-0--0-0-0--0-0-0--0-0-----3-2-0--0-0-0--0-0-0--0-0----------|
          P M    P M    P M            P M    P M    P M

    e|------------------------------------------------------------|
    B|------------------------------------------------------------|
GTR G|---------------------------------------------------10101010-|
 2  D|---------------------------------------------------10101010-|
    A|----------------------3-2--------------------------8-8-8-8--|
    E|--------------------------3-2-------------------------------|

    e|------------------------------------------------------------|
    B|------------------------------------------------------------|
GTR G|---------------------------------------------------10101010-|
 1  D|-2------2------2--------------2------2------2------10101010-|
    A|-2--2-2-2--2-2-2--2-2-3-2-----2--2-2-2--2-2-2--2-2-8-8-8-8--|
    E|-0--0-0-0--0-0-0--0-0-----3-2-0--0-0-0--0-0-0--0-0----------|
          P M    P M    P M            P M    P M    P M

    e|------------------------------------------------------------|
    B|------------------------------------------------------------|
GTR G|---------------------------------------------------10101010-|
 2  D|-2-------------------------------------------------10101010-|
    A|-2--------------------3-2--------------------------8-8-8-8--|
    E|-0------------------------3-2-------------------------------|

slight pause

    e|------------------------------------------------------------|
    B|------------------------------------------------------------|
GTR G|---------------------------------------------------10101010-|
1+2 D|-2------2------2--------------2------2------2------10101010-| x4
    A|-2--2-2-2--2-2-2--2-2-3-2-----2--2-2-2--2-2-2--2-2-8-8-8-8--|
    E|-0--0-0-0--0-0-0--0-0-----3-2-0--0-0-0--0-0-0--0-0----------|
          P M    P M    P M            P M    P M    P M

    e|--------------------------- x2 --------------------------------------|
    B|---------------------------------------------------------------------|
GTR G|----------------101010101010-----------------------------------------|
1+2 D|-2--------------101010101010-10--------------------------------------| 
    A|-2-222222222222-8-8-8-8-8-8--10-101010101010101010101010-5-8-8-3-6-6-|
    E|-0-000000000000--------------8--8-8-8-8-8-8-8-8-8-8-8-8--3-6-6-1-4-4-|
         PMPMPMPMPMPM                 P M P M P M P M P M P M

solo rhythm

    e|---------------------------- x2 -------------------------------------|
    B|---------------------------------------------------------------------|
GTR G|----------------101010101010-----------------------------------------|
 1  D|-2--------------101010101010-10--------------------------------------| 
    A|-2-222222222222-8-8-8-8-8-8--10-101010101010101010101010-5-8-8-3-6-6-|
    E|-0-000000000000--------------8--8-8-8-8-8-8-8-8-8-8-8-8--3-6-6-1-4-4-|
         PMPMPMPMPMPM                 P M P M P M P M P M P M

solo lead. Play each note twice, unless stated. Tremelo pick.

    e|-24-23-21----------------------------------------|
    B|----------24-22-21-------------------------------|
GTR G|-------------------23-21-------------------------|
 2  D|-------------------------21-19-------------------|
    A|-------------------------------19-17-16----------|
    E|----------------------------------------19-17-16-|

    e|------------------------------------------|
    B|------------------------------------------|
GTR G|-------------------------2424242424242424-|
 2  D|----------------16-18-19------------------|
    A|-------16-17-19---------------------------|
    E|-17-19------------------------------------|

    e|-------------------------------------------|
    B|-------------------------------------------|
GTR G|----------------------------------------12-|
 2  D|----------------------------11----11-14----|
    A|----------10----10-13-10-13----13----------|
    E|-12-10-12----12----------------------------|

    e|-22222222-------------------19192020-21212121--------13131313-|
    B|-------------------21212121-------------------222222----------|
GTR G|----------19191919--------------------------------------------|
 2  D|--------------------------------------------------------------|
    A|--------------------------------------------------------------|
    E|--------------------------------------------------------------|

    e|--------------|
    B|--------------|
GTR G|--------------|
1+2 D|-2------------|
    A|-2-(let ring)-|
    E|-0------------|

    e|----------------------------------------------------|
    B|----------------------------------------------------|
GTR G|--------------------10-9----------------------------|
 1  D|--------------------10-9-10-------------------------|
    A|-2-2--2-2--2-2--2-2-8--7-10-2-2--2-2--2-2-5-3-6-5-3-|
    E|-0-0--0-0--0-0--0-0------8--0-0--0-0--0-0-3-1-4-3-1-|
       P M  P M  P M  P M         P M  P M  P M

    e|----------------------------------------------------|
    B|----------------------------------------------------|
GTR G|--------------------10-9----------------------------|
 1  D|--------------------10-9-10-------------------------|
    A|-2-2--2-2--2-2--2-2-8--7-10-2-2--2-2--2-2-5-3-6-5-3-|
    E|-0-0--0-0--0-0--0-0------8--0-0--0-0--0-0-3-1-4-3-1-|
       P M  P M  P M  P M         P M  P M  P M

    e|----------------------------------------------------|
    B|----------------------------------------------------|
GTR G|----------------------------------------------------|
 2  D|----------------------------------------------------|
    A|-2-2--2-2-------------------2-2--2-2----------------|
    E|-0-0--0-0-------------------0-0--0-0----------------|
       P M  P M                   P M  P M

    e|----------------------------------------------------|
    B|----------------------------------------------------|
GTR G|--------------------10-9----------------------------|
 1  D|--------------------10-9-10-------------------------|
    A|-2-2--2-2--2-2--2-2-8--7-10-2-2--2-2--2-2-5-3-6-5-3-|
    E|-0-0--0-0--0-0--0-0------8--0-0--0-0--0-0-3-1-4-3-1-|
       P M  P M  P M  P M         P M  P M  P M

    e|----------------------------------------------------|
    B|----------------------------------------------------|
GTR G|----------------------------------------------------|
 2  D|----------------------------------------------------|
    A|-2-2--2-2-------------------2-2--2-2------5-3-6-5-3-|
    E|-0-0--0-0-------------------0-0--0-0------3-1-4-3-1-|
       P M  P M                 

    e|----------------------------------------------------|
    B|----------------------------------------------------|
GTR G|----------------------------------------------------|
 3  D|----------------------------------------------------|
    A|-2-2--2-2-------------------DIVEBOMB----------------|
    E|-0-0--0-0-------------------------------------------|
       P M  P M      

    e|----------------------------------------------------|
    B|----------------------------------------------------|
GTR G|--------------------10-9----------------------------|
 1  D|--------------------10-9-10-------------------------| x4
    A|-2-2--2-2--2-2--2-2-8--7-10-2-2--2-2--2-2-5-3-6-5-3-|
    E|-0-0--0-0--0-0--0-0------8--0-0--0-0--0-0-3-1-4-3-1-|
       P M  P M  P M  P M         P M  P M  P M          

    e|----------------------------------------------------|
    B|----------------------------------------------------|
GTR G|--------------------10-9----------------------------|
 1  D|--------------------10-9-10-------------------------|
    A|-2-2--2-2--2-2--2-2-8--7-10-2-2--2-2--2-2-5-3-6-5-3-|
    E|-0-0--0-0--0-0--0-0------8--0-0--0-0--0-0-3-1-4-3-1-|
       P M  P M  P M  P M         P M  P M  P M

    e|----------------------------------------------------|
    B|----------------------------------------------------|
GTR G|----------------------------------------------------|
 2  D|----------------------------------------------------|
    A|-2-2--2-2-------------------2-2--2-2----------------|
    E|-0-0--0-0-------------------0-0--0-0----------------|
       P M  P M                   P M  P M 

    e|----------------------------------------------------|
    B|----------------------------------------------------|
GTR G|--------------------10-9----------------------------|
 1  D|--------------------10-9-10-------------------------|
    A|-2-2--2-2--2-2--2-2-8--7-10-2-2--2-2--2-2-5-3-6-5-3-|
    E|-0-0--0-0--0-0--0-0------8--0-0--0-0--0-0-3-1-4-3-1-|
       P M  P M  P M  P M         P M  P M  P M

    e|----------------------------------------------------|
    B|----------------------------------------------------|
GTR G|----------------------------------------------------|
 2  D|----------------------------------------------------|
    A|-2-2--2-2-------------------2-2--2-2------5-3-6-5-3-|
    E|-0-0--0-0-------------------0-0--0-0------3-1-4-3-1-|
       P M  P M  

    e|--------------|
    B|--------------|
GTR G|--------------|
1+2 D|-2------------|
    A|-2-(let ring)-|
    E|-0------------|
comments
We did not receive enough feedback on this tab! Please rate:
print report bad tab
1 2 3 4 5
I want to post or [tab]
guest
You may want to rate the tab now too:
select rating
Please do not post tabs as comments. Select "correction" instead!