Oops, an error
Loading. Please wait.

Chartered Carnal Effigy Tab

ver1
ver1

Whole song

Interactive

More versions @911Tabs.com
1,465 views 6 this week
no commentswrite comment
1 2 3 4 5
excellent!
x 2
add to favorites launch autoscroll
font size
0
reset
Autoscroll
+/-
esc
set tempo
stop
Contributor
WARNING: You are trying to view
                                    content from Ultimate-Guitar.com
                                    in an unauthorized application,
                                    which is prohibited.

                                    Please use an official Ultimate
                                    Guitar Tabs application for iPhone,
                                    iPad or Android to access legitimate
                                    chords, guitar, bass, and drum tabs
                                    from Ultimate-Guitar.com database.

                                    Type "ultimate guitar tabs" in Apple
                                    App Store's or Android Market's
                                    search to find the application.
                            Chartered Carnal Effigy                             


                                                                         Aborted
Matty [Guitar Right]



      PM PM PM    PM PM PM    PM PM   PM PM PM  
      T  S  S  E  T  S  S  E  T  S  S T  S  S   
B ||-------------------------------------------|
F#||-------------------------------------------|
D ||-----------4-----------4--------3----------|
A ||--2--2--2-----5--3--2-----5--3----6--5--3--|
E ||-------------------------------------------|
B ||-------------------------------------------|


  PM PM PM    PM PM PM    PM PM   PM PM PM  
  T  S  S  E  T  S  S  E  T  S  S T  S  S   
-------------------------------------------|
-------------------------------------------|
-----------4-----------4--------3----------|
--2--2--2-----5--3--2-----5--3----6--5--3--|
-------------------------------------------|
-------------------------------------------|


  PM PM PM    PM PM PM    PM PM   PM PM PM  
  T  S  S  E  T  S  S  E  T  S  S T  S  S   
-------------------------------------------|
-------------------------------------------|
-----------4-----------4--------3----------|
--2--2--2-----5--3--2-----5--3----6--5--3--|
-------------------------------------------|
-------------------------------------------|


  PM PM PM    PM PM PM                
  T  S  S  E  T  S  S  E  E  E  E  S  
-------------------------------------|
-------------------------------------|
-----------4-------------------------|
--2--2--2-----5--3--2----------------|
-----------------------2--3--6--5--3-|
-----------------------0--1--4--3--1-|


  PM PM PM    PM PM PM    PM PM   PM PM PM  
  T  S  S  E  T  S  S  E  T  S  S T  S  S   
-------------------------------------------|
-------------------------------------------|
-----------4-----------4--------3----------|
--2--2--2-----5--3--2-----5--3----6--5--3--|
-------------------------------------------|
-------------------------------------------|


  PM PM PM    PM PM PM    PM PM   PM PM PM  
  T  S  S  E  T  S  S  E  T  S  S T  S  S   
-------------------------------------------|
-------------------------------------------|
-----------4-----------4--------3----------|
--2--2--2-----5--3--2-----5--3----6--5--3--|
-------------------------------------------|
-------------------------------------------|


  PM PM PM    PM PM PM    PM PM   PM PM PM                                  
  T  S  S  E  T  S  S  E  T  S  S T  S  S      E  S S S S E  E  S S S S E   
-------------------------------------------|-------------------------------|
-------------------------------------------|--/6--5-3----------------------|
-----------4-----------4--------3----------|----------5-4-2--5--4-2--------|
--2--2--2-----5--3--2-----5--3----6--5--3--|------------------------6-5-3--|
-------------------------------------------|-------------------------------|
-------------------------------------------|-------------------------------|


                                       PM PM               W             
    H        H           H        Q    E  E       Q.       E   H         
|---------------------|-----------------------||------------------------|
|---------------------|-----------------------||------------------------|
|*-----------5--------|----------------------*||------------------------|
|*--2--------5--------|--4--------5----------*||--4------------3--------|
|---0--------3--------|--4--------5----4--4---||--4------<>2b--1--------|
|---0-----------------|--2--------3----2--2---||--2------------1--------|


     PM PM PM PM PM      PM   PM        
  E  S  S  S  S  S  S E  S  S S  S S S  
---------------------------------------|
---------------------------------------|
--------------------4-------4----4-3---|
-----2--5--2--4--5-------2----2------5-|
----------------------3----------------|
--0------------------------------------|


     PM PM PM PM PM PM    PM PM PM PM PM PM  
  E  S  S  S  S  S  S  E  S  S  S  S  S  S   
--------------------------------------------|
--------------------------------------------|
--------------------------------------------|
-----2--5--2--4--5--4-----2--5--2--4--5--4--|
--------------------------------------------|
--3--------------------2--------------------|


     PM PM PM PM PM      PM   PM        
  E  S  S  S  S  S  S E  S  S S  S S S  
---------------------------------------|
---------------------------------------|
--------------------4-------4----4-3---|
-----2--5--2--4--5-------2----2------5-|
----------------------3----------------|
--0------------------------------------|


     PM PM PM PM PM PM    PM PM PM PM PM PM  
  E  S  S  S  S  S  S  E  S  S  S  S  S  S   
--------------------------------------------|
--------------------------------------------|
--------------------------------------------|
-----2--5--2--4--5--4-----2--5--2--4--5--4--|
--------------------------------------------|
--3--------------------2--------------------|


       PM   PM      PM    PM   PM      PM  
    E  S  S S  S  S S  E  S  S S  S  S S   
|-----------------------------------------|
|-----------------------------------------|
|*----------------------------------------|
|*--2-----2----2p-1----3-----2----2p-1----|
|---2------------------3------------------|
|---0--0----0-------0--1--0----0-------0--|


     PM   PM      PM     PM    PM PM         PM   PM      PM     PM    PM PM  
  E  S  S S  S  S S  E.  S  E  S  S       E  S  S S  S  S S  E.  S  E  S  S   
--------------------------------------||-------------------------------------|
--------------------------------------||-------------------------------------|
-------------------------------------*||-------------------------------------|
--6-----5----5p-4----5------6--------*||--6-----5----5p-4----5------3--------|
--6------------------5------6---------||--6------------------5------3--------|
--4--0----0-------0--3---0--4--0--0---||--4--0----0-------0--3---0--1--0--0--|


       PM   PM      PM    PM   PM      PM  
    E  S  S S  S  S S  E  S  S S  S  S S   
|-----------------------------------------|
|-----------------------------------------|
|*----------------------------------------|
|*--2-----2----2p-1----3-----2----2p-1----|
|---2------------------3------------------|
|---0--0----0-------0--1--0----0-------0--|


     PM   PM      PM     PM    PM PM         PM   PM      PM     PM    PM PM  
  E  S  S S  S  S S  E.  S  E  S  S       E  S  S S  S  S S  E.  S  E  S  S   
--------------------------------------||-------------------------------------|
--------------------------------------||-------------------------------------|
-------------------------------------*||-------------------------------------|
--6-----5----5p-4----5------6--------*||--6-----5----5p-4----5------3--------|
--6------------------5------6---------||--6------------------5------3--------|
--4--0----0-------0--3---0--4--0--0---||--4--0----0-------0--3---0--1--0--0--|


       PM   PM      PM    PM   PM      PM  
    E  S  S S  S  S S  E  S  S S  S  S S   
|-----------------------------------------|
|-----------------------------------------|
|*----------------------------------------|
|*--2-----2----2p-1----3-----2----2p-1----|
|---2------------------3------------------|
|---0--0----0-------0--1--0----0-------0--|


     PM   PM      PM     PM    PM PM         PM   PM      PM     PM    PM PM  
  E  S  S S  S  S S  E.  S  E  S  S       E  S  S S  S  S S  E.  S  E  S  S   
--------------------------------------||-------------------------------------|
--------------------------------------||-------------------------------------|
-------------------------------------*||-------------------------------------|
--6-----5----5p-4----5------6--------*||--6-----5----5p-4----5------3--------|
--6------------------5------6---------||--6------------------5------3--------|
--4--0----0-------0--3---0--4--0--0---||--4--0----0-------0--3---0--1--0--0--|


                                 |--3-|          
    E  S  S  S  S  S  S  S  S S  S S  S S  S  S  
|-----------------------------------------------|
|-----------------------------------------------|
|*--9-------------------------------------------|
|*-----7h-9-10p-9p-7----------4h-5--------------|
|--------------------10p-9p-7------5h-7---------|
|---------------------------------------8p-7p-5-|


                               |--3-|            
  E  S  S  S  S  S  S  S  S S  S S  S S  S  S    
-----------------------------------------------||
-----------------------------------------------||
--8-------------------------------------------*||
-----7h-9-10p-9p-7----------4h-5--------------*||
-------------------10p-9p-7------5h-7----------||
--------------------------------------8p-7p-5--||


          |--3--|                  |--3--|          
  S S  S  S  S  S  S  S  S S S  S  S  S  S  S  S S  
---------------------------------------------------|
---------------------------------------------------|
--8------------------------8-----------------------|
----7h-9-10p-9p-7------------7h-9-10p-9p-7---------|
------------------10p-9p-7-----------------10p-9-7-|
---------------------------------------------------|


                       PM PM PM PM                       PM PM PM PM    
    E  E   E  E  E  E  S  T  T  E     E  E   E  E  E  E  S  T  T  E     
|----------------------------------|----------------------------------||
|----------------------------------|----------------------------------||
|*---------------------------------|---------------------------------*||
|*--9------------------------------|--8------------------------------*||
|---7--9--10--9--8--9--------------|--6--9--10--9--8--9---------------||
|------7---8--7--6--7--0--0--0--0--|-----7---8--7--6--7--0--0--0--0---||


  E  E   E  E  E  E   E  E        E  E   E  E  Q    Q     
-----------------------------||--------------------------|
-----------------------------||--------------------------|
----------------------------*||*-------------------------|
--8------------8------------*||*--8-----------------7----|
--6--9--10--9--6--9--10--9---||---6--9--10--8--9----5----|
-----7---8--7-----7---8--7---||------7---8--6--7---------|


    H        H           H        H             Q    S  S  E  H         
|---------------------|---------------------||-------------------------|
|---------------------|---------------------||-------------------------|
|*--------------------|--------------------*||-------------------------|
|*--5--------4--------|--2--------1--------*||--5----5s-7p-5--4--------|
|---7--------6--------|--3--------2---------||-------------------------|
|---------------------|---------------------||-------------------------|


    H        H           H        H             Q    S  S  E  H         
|---------------------|---------------------||-------------------------|
|---------------------|---------------------||-------------------------|
|*--------------------|--------------------*||-------------------------|
|*--5--------4--------|--2--------1--------*||--5----5s-7p-5--4--------|
|---7--------6--------|--3--------2---------||-------------------------|
|---------------------|---------------------||-------------------------|


       PM   PM      PM    PM   PM      PM  
    E  S  S S  S  S S  E  S  S S  S  S S   
|-----------------------------------------|
|-----------------------------------------|
|*----------------------------------------|
|*--2-----2----2p-1----3-----2----2p-1----|
|---2------------------3------------------|
|---0--0----0-------0--1--0----0-------0--|


     PM   PM      PM     PM    PM PM         PM   PM      PM     PM    PM PM  
  E  S  S S  S  S S  E.  S  E  S  S       E  S  S S  S  S S  E.  S  E  S  S   
--------------------------------------||-------------------------------------|
--------------------------------------||-------------------------------------|
-------------------------------------*||-------------------------------------|
--6-----5----5p-4----5------6--------*||--6-----5----5p-4----5------3--------|
--6------------------5------6---------||--6------------------5------3--------|
--4--0----0-------0--3---0--4--0--0---||--4--0----0-------0--3---0--1--0--0--|


       PM   PM      PM    PM   PM      PM  
    E  S  S S  S  S S  E  S  S S  S  S S   
|-----------------------------------------|
|-----------------------------------------|
|*----------------------------------------|
|*--2-----2----2p-1----3-----2----2p-1----|
|---2------------------3------------------|
|---0--0----0-------0--1--0----0-------0--|


     PM   PM      PM     PM    PM PM         PM   PM      PM     PM    PM PM  
  E  S  S S  S  S S  E.  S  E  S  S       E  S  S S  S  S S  E.  S  E  S  S   
--------------------------------------||-------------------------------------|
--------------------------------------||-------------------------------------|
-------------------------------------*||-------------------------------------|
--6-----5----5p-4----5------6--------*||--6-----5----5p-4----5------3--------|
--6------------------5------6---------||--6------------------5------3--------|
--4--0----0-------0--3---0--4--0--0---||--4--0----0-------0--3---0--1--0--0--|


                       PM PM PM PM                       PM PM PM PM    
    E  E   E  E  E  E  S  T  T  E     E  E   E  E  E  E  S  T  T  E     
|----------------------------------|----------------------------------||
|----------------------------------|----------------------------------||
|*---------------------------------|---------------------------------*||
|*--9------------------------------|--8------------------------------*||
|---7--9--10--9--8--9--------------|--6--9--10--9--8--9---------------||
|------7---8--7--6--7--0--0--0--0--|-----7---8--7--6--7--0--0--0--0---||


  E  E   E  E  E  E   E  E        E  E   E  E  Q    Q     
-----------------------------||--------------------------|
-----------------------------||--------------------------|
----------------------------*||*-------------------------|
--8------------8------------*||*--8-----------------7----|
--6--9--10--9--6--9--10--9---||---6--9--10--8--9----5----|
-----7---8--7-----7---8--7---||------7---8--6--7---------|


    |-3-|      |---5---|    |-3-|       |-3-|      |---5---|    |-3-|       
    S S S Q    S S S S S E  S S S E     S S S Q    S S S S S E  S S S E     
|------------------------------------|------------------------------------||
|------------------------------------|------------------------------------||
|*-----------------------------------|-----------------------------------*||
|*-----------------------------------|-----------------------------------*||
|------------------------------------|------------------------------------||
|---0-0-0-0----0-0-0-0-0-0--0-0-0-0--|--0-0-0-0----0-0-0-0-0-0--0-0-0-0---||


                              W                                      W      
  |-3-|      |-3-| |--3--|               |-3-|      |-3-| |--3--|           
  S S S Q    S S S E  E  E    Q          S S S Q    S S S E  E  E    Q      
-------------------------------------||------------------------------------|
-------------------------------------||------------------------------------|
------------------------------------*||------------------------------------|
------------------------------------*||----------------------------<>5b----|
-------------------4--4--4-----------||-------------------4--4--4----------|
--0-0-0-0----0-0-0-2--2--2--<>3b-----||--0-0-0-0----0-0-0-2--2--2----------|


  |-3-|               |-3-|       |-3-|                      
  S S S E  E   Q.     S S S E     S S S E  E  Q.     S S E   
-------------------------------|----------------------------|
-------------------------------|----------------------------|
-------------------------------|----------------------------|
-------------------------------|----------------------------|
--------------10---------------|--------------9------2-2----|
--0-0-0-0--0----------0-0-0-0--|--0-0-0-0--0---------0-0----|


  S S S  E.  E  S S S E.  E     S S S E.  E  S S S E.  E   
-----------------------------|----------------------------|
-----------------------------|----------------------------|
-----------------------------|----------------------------|
-----------------------------|----------------------------|
------7-10---7------6-9---6--|------3-7---3------2-6---2--|
--0-0-----------0-0----------|--0-0----------0-0----------|


  E  S  E.  E   E   S  E.   E      E   S  E.   E   E   S  E.   E    
--------------------------------|----------------------------------|
--------------------------------|----------------------------------|
-----9-12---9\-----11-14---11\--|-----12-16---12\-----14-17---14\--|
--------------------------------|----------------------------------|
--------------------------------|----------------------------------|
--------------------------------|----------------------------------|


                                                                         W   
   E.     Q       S  S  E   E   E   S     E   E    E   E     E   E   E   E   
--------------------------------------|---------------15br--------------14--|
--20br---20br----17------------12--13-|------12S--13--------17--16--17------|
--------------------11-12--14---------|--14---------------------------------|
--------------------------------------|-------------------------------------|
--------------------------------------|-------------------------------------|
--------------------------------------|-------------------------------------|


                                                                      W     
  E   S  E.   E   E   S  E.   E       S  E.   S  S  S  S  S  S  S  S  Q     
--L--12-15---12\-----14-17---14\--|--15-19---17-19-15-17-14-15-14----------|
----------------------------------|-------------------------------15-------|
----------------------------------|----------------------------------16----|
----------------------------------|----------------------------------------|
----------------------------------|----------------------------------------|
----------------------------------|----------------------------------------|


                                                                   W            
                                  |---3---|  |---3---|  |---3---|               
   H           E    E    Q        S   S   S  S   S   S  S   S   S  Q    Q.      
------------------------------|------------------------------------------------|
--17br--------16h--17S--13----|--12h-13p-12------------------------------------|
------------------------------|-------------14p-12p-11-------------------------|
------------------------------|------------------------14p-12p-10S-9----L------|
------------------------------|------------------------------------------------|
------------------------------|------------------------------------------------|


   PM PMPM  PM PMPM                               
   S  S S   S  S E   S   S  S  S   S  S S   S  S  
-------------------------------------------------|
-------------------------------------------------|
-----------------9--12p-11p-9--------------------|
--------9--10-12--------------12p-10p-9-9h-10p-9-|
--10-12------------------------------------------|
-------------------------------------------------|


   |---3---|  |---3--|  |---3---|  |---3--|  |---3---|  |---3--|  |---3---|  |--
   S   S   S  S   S  S  S   S   S  S   S  S  S   S   S  S   S  S  S   S   S  S  
--------------------------------------------------------------------------------
--------------------------------------------------------------------------------
--14p-12p-11-12p-11p-9----------------------------------------------------------
-----------------------14p-12p-10-12p-10p-9-14p-12p-10-12p-10p-9----------------
-----------------------------------------------------------------14p-12p-10-12p-
--------------------------------------------------------------------------------


  mortuary_slayer@hotmail.com              
  W                                        
  Q.                          H        E   
------------------------------------------|
------------------------------------------|
------------------------------------------|
------------------------------------------|
--7---------------------------------------|
------------------------------------------|


  PM PM PM    PM PM PM    PM PM   PM PM PM  
  T  S  S  E  T  S  S  E  T  S  S T  S  S   
-------------------------------------------|
-------------------------------------------|
-----------4-----------4--------3----------|
--2--2--2-----5--3--2-----5--3----6--5--3--|
-------------------------------------------|
-------------------------------------------|


  PM PM PM    PM PM PM    PM PM   PM PM PM  
  T  S  S  E  T  S  S  E  T  S  S T  S  S   
-------------------------------------------|
-------------------------------------------|
-----------4-----------4--------3----------|
--2--2--2-----5--3--2-----5--3----6--5--3--|
-------------------------------------------|
-------------------------------------------|


  PM PM PM    PM PM PM    PM PM   PM PM PM  
  T  S  S  E  T  S  S  E  T  S  S T  S  S   
-------------------------------------------|
-------------------------------------------|
-----------4-----------4--------3----------|
--2--2--2-----5--3--2-----5--3----6--5--3--|
-------------------------------------------|
-------------------------------------------|


  PM PM PM    PM PM PM                
  T  S  S  E  T  S  S  E  E  E  E  S  
-------------------------------------|
-------------------------------------|
-----------4-------------------------|
--2--2--2-----5--3--2----------------|
-----------------------2--3--6--5--3-|
-----------------------0--1--4--3--1-|


  PM PM PM    PM PM PM    PM PM   PM PM PM  
  T  S  S  E  T  S  S  E  T  S  S T  S  S   
-------------------------------------------|
-------------------------------------------|
-----------4-----------4--------3----------|
--2--2--2-----5--3--2-----5--3----6--5--3--|
-------------------------------------------|
-------------------------------------------|


  PM PM PM    PM PM PM    PM PM   PM PM PM  
  T  S  S  E  T  S  S  E  T  S  S T  S  S   
-------------------------------------------|
-------------------------------------------|
-----------4-----------4--------3----------|
--2--2--2-----5--3--2-----5--3----6--5--3--|
-------------------------------------------|
-------------------------------------------|


  PM PM PM    PM PM PM    PM PM   PM PM PM  
  T  S  S  E  T  S  S  E  T  S  S T  S  S   
-------------------------------------------|
-------------------------------------------|
-----------4-----------4--------3----------|
--2--2--2-----5--3--2-----5--3----6--5--3--|
-------------------------------------------|
-------------------------------------------|


  PM PM PM    PM PM PM                 
  T  S  S  E  T  S  S  E  E  E  E  S   
-------------------------------------||
-------------------------------------||
-----------4-------------------------||
--2--2--2-----5--3--2----------------||
-----------------------2--3--6--5--3-||
-----------------------0--1--4--3--1-||




Duration Legend
---------------
W - whole
H - half
Q - quarter
E - 8th
S - 16th
T - 32nd
X - 64th
. - note dotted
|-n-|  - n-tuplets


Tablature Legend
----------------
L - tied note
x - dead note
g - grace note
(n) - ghost note
> - accentuded note
NH - natural harmonic
AH - artificial harmonic
TH - tapped harmonic
SH - semi harmonic
PH - pitch harmonic
h - hammer on
p - pull off
b - bend
br - bendRelease
pb - preBend
pbr - preBendRelease
brb - bendReleaseBend
\n/ - tremolo bar dip
\n - tremolo bar dive
-/n - tremolo bar Release up
/n\ - tremolo bar inverted dip
/n - tremolo bar return
-\n - tremolo bar Release down
S - shift slide
s - legato slide
/ -  slide into from below or out of upwards
\ -  slide into from above or out of downwards
~ - vibrato
W - wide vibrato
tr - trill
TP - tremolo picking
T - tapping
S - slap
P - pop
< - fade in
^ - brush up
v - brush down
comments
We did not receive enough feedback on this tab! Please rate:
print report bad tab
1 2 3 4 5
I want to post or [tab]
guest
You may want to rate the tab now too:
select rating
Please do not post tabs as comments. Select "correction" instead!