Oops, an error
Loading. Please wait.

Inertia Tab

978 views 6 this week
no commentswrite comment
1 2 3 4 5
excellent!
x 1
add to favorites launch autoscroll
font size
0
reset
Autoscroll
+/-
esc
set tempo
stop
Contributor
WARNING: You are trying to view
                                    content from Ultimate-Guitar.com
                                    in an unauthorized application,
                                    which is prohibited.

                                    Please use an official Ultimate
                                    Guitar Tabs application for iPhone,
                                    iPad or Android to access legitimate
                                    chords, guitar, bass, and drum tabs
                                    from Ultimate-Guitar.com database.

                                    Type "ultimate guitar tabs" in Apple
                                    App Store's or Android Market's
                                    search to find the application.
                                  The Inertia                                   


                                                                         Aborted
Piste 1



      Intro [A]                                                              
      E         S S S S S S  E   S  S  E  S S    E  S S S S S S E  S S Q     
B ||------------------------------------------|-----------------------------|
F#||------------------------------------------|-----------------------------|
D ||------------------------------------------|-----------------------------|
A ||------------------5-4---------------------|-----------5-4---5--5-5-4----|
E ||--3---------6-3-6-----6-(6)--6-(6)--------|--3--6-3-6-----6-------------|
B ||-------------------------7------7--3--2-0-|-----------------------------|


  Intro [B]                                
  E         S S S S S S  E   S  S  E  S S  
------------------------------------------|
------------------------------------------|
------------------------------------------|
------------------5-4---------------------|
--3---------6-3-6-----6-(6)--6-(6)------4-|
-------------------------7------7--3--2-2-|


     PM PM PM PM PM PM PM   PM PM   PM PM    
  E  S  S  S  S  S  S  S  S S  S  S S  S  S  
--------------------------------------------|
--------------------------------------------|
--------------------------------------------|
--------------------------------------------|
--6--6--6--6--6--6--6--6S-9-9--9--9-9--9--9-|
--4--4--4--4--4--4--4--4S-7-7--7--7-7--7--7-|


                                    PM  
  T T S T T S T T S T T S S S S E.  E   
---------------------------------------|
---------------------------------------|
---------------------------------------|
----------------------------1----------|
--3-3-3-3-3-3-3-3-3-3-3-3-2---2--------|
--------------------------------4---3--|


                             PM    PM     
  T T S T T S T T S T T S E  S  E  S  E   
-----------------------------------------|
-----------------------------------------|
-----------------------------------------|
-----------------------------------------|
--3-3-3-3-3-3-3-3-3-3-3-3-6-----9-----9--|
--------------------------4--0--7--0--7--|


                                    PM  
  T T S T T S T T S T T S S S S E.  E   
---------------------------------------|
---------------------------------------|
---------------------------------------|
----------------------------1----------|
--3-3-3-3-3-3-3-3-3-3-3-3-2---2--------|
--------------------------------4---3--|


     PM PM PM PM PM PM PM   PM PM   PM PM    
  E  S  S  S  S  S  S  S  S S  S  S S  S  S  
--------------------------------------------|
--------------------------------------------|
--------------------------------------------|
--------------------------------------------|
--6-----------------------------------------|
--4--4--4--4--4--4--4--4S-7-7--7--7-7--7--7-|


  E  S S S S S S  E   S  S  E  S S    E  S S S S S S E  S S Q     
-----------------------------------|-----------------------------|
-----------------------------------|-----------------------------|
-----------------------------------|-----------------------------|
-----------5-4---------------------|-----------5-4---5--5-5-4----|
--3--6-3-6-----6-(6)--6-(6)--------|--3--6-3-6-----6-------------|
------------------7------7--3--2-0-|-----------------------------|


                                 PM  
  E  S S S S S S  E   S  S  E  S S   
------------------------------------|
------------------------------------|
------------------------------------|
-----------5-4----------------------|
--3--6-3-6-----6-(6)--6-(6)------4--|
------------------7------7--3--2-2--|


     PM PM PM PM PM PM PM   PM PM   PM PM                          
  E  S  S  S  S  S  S  S  S S  S  S S  S  S     H        H         
--------------------------------------------|---------------------|
--------------------------------------------|---------------------|
--------------------------------------------|---------------------|
--------------------------------------------|--10--------9--------|
--6--6--6--6--6--6--6--6S-9-9--9--9-9--9--9-|---------------------|
--4--4--4--4--4--4--4--4S-7-7--7--7-7--7--7-|---------------------|


  H        H            H        H           H        H         
--------------------|---------------------|--------------------|
--------------------|---------------------|--------------------|
--------------------|---------------------|--7--------8--------|
--5--------6--------|--10--------9--------|--------------------|
--------------------|---------------------|--------------------|
--------------------|---------------------|--------------------|


  H        H           H        H           H        H         
--------------------|--------------------|--------------------|
--8--------7--------|--3--------4--------|--8--------7--------|
--------------------|--------------------|--------------------|
--------------------|--------------------|--------------------|
--------------------|--------------------|--------------------|
--------------------|--------------------|--------------------|


  E  Q.      H           T T T T T T E  S S S S S S S S S S S  
-----5b---------------|---------------------------------------|
--8----------8--------|---------------------------------------|
----------------------|---------------------------------------|
----------------------|---------------------------------------|
----------------------|--------------2------------------------|
----------------------|--1-1-1-1-1-1-0--x-x-x-x-x-x-x-x-x-0-0-|


                        W                                             
  E  S E  S E  S E  S   Q       T T T T T T E  S S S S S S S S S S S  
-----------------------------|---------------------------------------|
-----------------------------|---------------------------------------|
-----------------------------|---------------------------------------|
-----------------------------|---------------------------------------|
--3----5----6----5-----------|--------------2------------------------|
--1--0-3--0-4--0-3--0-<>4----|--1-1-1-1-1-1-0--x-x-x-x-x-x-x-x-x-0-0-|


                            PM PM PM    PM PM PM PM PM PM PM PM PM PM    
  E.  E.  E.  E.  E  S S    S  S  S  E  S  S  S  S  S  S  S  S  S  S  S  
-------------------------|----------------------------------------------|
-------------------------|----------------------------------------------|
-------------------------|----------------------------------------------|
-------------------------|----------------------------------------------|
--3---5---6---5---5--5-5-|--3--3--3--2----------------------------------|
--1---3---4---3---3--3-3-|--1--1--1--0--0--0--0--0--0--0--0--0--0--0--0-|


                              PM PM PM    PM PM PM PM PM PM PM PM PM PM    
  E  S E  S E  S E  S Q       S  S  S  E  S  S  S  S  S  S  S  S  S  S  S  
---------------------------|----------------------------------------------|
---------------------------|----------------------------------------------|
---------------------------|----------------------------------------------|
---------------------------|----------------------------------------------|
--3----5----6----5--5-5----|--3--3--3--2----------------------------------|
--1--0-3--0-4--0-3--3-3----|--1--1--1--0--0--0--0--0--0--0--0--0--0--0--0-|


                                                               PM  
  E  S E  S E  S Q    E.     T T S T T S T T S T T S S S S E.  E   
--------------------------|---------------------------------------|
--------------------------|---------------------------------------|
--------------------------|---------------------------------------|
-----------------4----L---|----------------------------1----------|
--3----5----6----2----L---|--3-3-3-3-3-3-3-3-3-3-3-3-2---2--------|
--1--0-3--0-4--0----------|--------------------------------4---3--|


                             PM    PM     
  T T S T T S T T S T T S E  S  E  S  E   
-----------------------------------------|
-----------------------------------------|
-----------------------------------------|
-----------------------------------------|
--3-3-3-3-3-3-3-3-3-3-3-3-6-----9-----9--|
--------------------------4--0--7--0--7--|


                                    PM  
  T T S T T S T T S T T S S S S E.  E   
---------------------------------------|
---------------------------------------|
---------------------------------------|
----------------------------1----------|
--3-3-3-3-3-3-3-3-3-3-3-3-2---2--------|
--------------------------------4---3--|


     PM PM PM PM PM PM PM   PM PM   PM PM    
  E  S  S  S  S  S  S  S  S S  S  S S  S  S  
--------------------------------------------|
--------------------------------------------|
--------------------------------------------|
--------------------------------------------|
--6-----------------------------------------|
--4--4--4--4--4--4--4--4S-7-7--7--7-7--7--7-|


  Intro [A]                                                              
  E         S S S S S S  E   S  S  E  S S    E  S S S S S S E  S S Q     
------------------------------------------|-----------------------------|
------------------------------------------|-----------------------------|
------------------------------------------|-----------------------------|
------------------5-4---------------------|-----------5-4---5--5-5-4----|
--3---------6-3-6-----6-(6)--6-(6)--------|--3--6-3-6-----6-------------|
-------------------------7------7--3--2-0-|-----------------------------|


  Intro [B]                                
  E         S S S S S S  E   S  S  E  S S  
------------------------------------------|
------------------------------------------|
------------------------------------------|
------------------5-4---------------------|
--3---------6-3-6-----6-(6)--6-(6)------4-|
-------------------------7------7--3--2-2-|


     PM PM PM PM PM PM PM   PM PM   PM PM    
  E  S  S  S  S  S  S  S  S S  S  S S  S  S  
--------------------------------------------|
--------------------------------------------|
--------------------------------------------|
--------------------------------------------|
--6--6--6--6--6--6--6--6S-9-9--9--9-9--9--9-|
--4--4--4--4--4--4--4--4S-7-7--7--7-7--7--7-|


  PM PM PM    PM PM PM PM PM PM PM PM PM PM PM                              
  S  S  S  E  S  S  S  S  S  S  S  S  S  S  S     E  S E  S E  S E  S Q     
-----------------------------------------------|---------------------------|
-----------------------------------------------|---------------------------|
-----------------------------------------------|---------------------------|
-----------------------------------------------|---------------------------|
--3--3--3--2-----------------------------------|--3----5----6----5--5-5----|
--1--1--1--0--0--0--0--0--0--0--0--0--0--0--0--|--1--0-3--0-4--0-3--3-3----|


  PM PM PM    PM PM PM PM PM PM PM PM PM PM PM                              
  S  S  S  E  S  S  S  S  S  S  S  S  S  S  S     E  S E  S E  S E  S Q     
-----------------------------------------------|---------------------------|
-----------------------------------------------|---------------------------|
-----------------------------------------------|---------------------------|
-----------------------------------------------|---------------------------|
--3--3--3--2-----------------------------------|--3----5----6----5--5-5----|
--1--1--1--0--0--0--0--0--0--0--0--0--0--0--0--|--1--0-3--0-4--0-3--3-3----|


  PM PM PM    PM PM PM PM PM PM PM PM PM PM PM                              
  S  S  S  E  S  S  S  S  S  S  S  S  S  S  S     E  S E  S E  S E  S Q     
-----------------------------------------------|---------------------------|
-----------------------------------------------|---------------------------|
-----------------------------------------------|---------------------------|
-----------------------------------------------|---------------------------|
--6--6--6--5-----------------------------------|--6----8----9----8--8-8----|
--4--4--4--3--3--3--3--3--3--3--3--3--3--3--3--|--4--3-6--3-7--3-6--6-6----|


  PM PM PM    PM PM PM PM PM PM PM PM PM PM PM                              
  S  S  S  E  S  S  S  S  S  S  S  S  S  S  S     E  S E  S E  S E  S Q     
-----------------------------------------------|---------------------------|
-----------------------------------------------|---------------------------|
-----------------------------------------------|---------------------------|
-----------------------------------------------|---------------------------|
--6--6--6--5-----------------------------------|--6----8----9----8----5----|
--4--4--4--3--3--3--3--3--3--3--3--3--3--3--3--|--4--3-6--3-7--3-6--3-3----|


  TP TP TP TP TP TP TP TP    TP                  TP TP TP TP TP TP TP TP  
  E  E  E  E  E  E  E  E     W                   E  E  E  E  E  E  E  E   
--------------------------|-------------------|--------------------------|
--------------------------|-------------------|--------------------------|
--------7--6--------------|-------------------|--------7--6--------------|
--5--8--------8--5--8--5--|--8----------------|--5--8--------8--5--8--5--|
--------------------------|--6----------------|--------------------------|
--------------------------|-------------------|--------------------------|


                                 TP TP TP TP TP TP TP TP    TP       TP        
  S S E  S S E  S S E  S S E     E  E  E  E  E  E  E  E     H        H         
------------------------------|--------------------------|--------------------|
------------------------------|--------------------------|--------------------|
--7-6-7--6---6----------------|--------7--6--------------|--------------------|
-----------8----8-7-8--7---7--|--5--8--------8--5--8--5--|--8--------4--------|
-------------------------8----|--------------------------|--6-----------------|
------------------------------|--------------------------|--------------------|


  TP TP TP TP TP TP TP TP                                                     
  E  E  E  E  E  E  E  E     S S E  S S E  S S E  S S E     W                 
--------------------------|------------------------------|-------------------|
--------------------------|------------------------------|-------------------|
--------7--6--------------|--7-6-7--6---6----------------|-------------------|
--5--8--------8--5--8--5--|-----------8----8-7-8--7---7--|-------------------|
--------------------------|-------------------------8----|-------------------|
--------------------------|------------------------------|-------------------|


  W                   W                   W                   W                 
-------------------|-------------------|-------------------|-------------------|
-------------------|-------------------|-------------------|-------------------|
-------------------|-------------------|-------------------|-------------------|
-------------------|-------------------|-------------------|-------------------|
-------------------|-------------------|-------------------|-------------------|
-------------------|-------------------|-------------------|-------------------|


  W                   W                   W                 
-------------------|-------------------|-------------------|
-------------------|-------------------|-------------------|
-------------------|-------------------|-------------------|
-------------------|-------------------|-------------------|
-------------------|-------------------|-------------------|
-------------------|-------------------|-------------------|


  |--3--|  |---3--|  |--3--|  |--3--|   
  E  E  E  E  E   E  E  E  E  E  E  E   
---------------------------------------|
---------------------------------------|
---------------------------------------|
---------------------------------------|
--2--2-----2--4S--5-----2--2--2-----2--|
--0--0-----0--2S--3-----0--0--0-----0--|


  |---3--|  |--3--|  |--3--|  |--3--|    
  E   E  E  E  E  E  E  E  E  E  E  E    
----------------------------------------|
----------------------------------------|
----------------------------------------|
----------------------------------------|
--5S--4--2--3--L--3--3--3--3--3--3--3S--|
--3S--2--0--1--L--1--1--1--1--1--1--1S--|


     PM PM    PM PM                                                             
  |--3--|  |--3--|  |---3--|  |--3--|     |--3--|  |--3--|  |---3--|  |--3--|   
  E  E  E  E  E  E  S S E  E  E  E  E     E  E  E  E  E  E  E  E   E  E  E  E   
---------------------------------------|---------------------------------------|
---------------------------------------|---------------------------------------|
---------------------------------------|---------------------------------------|
---------------------------------------|---------------------------------------|
--6--6--6--6--6--6--6---2--2-----2--4--|--5-----2--2--2-----2--5S--4--2--3--L--|
--4--4--4--4--4--4--4---0--0-----0--2--|--3-----0--0--0-----0--3S--2--0--1--L--|


                           PM PM    PM  
  |--3--|  |--3--|  |---3--|  |--3--|   
  E  E  E  E  E  E  E   E  E  E  E  E   
---------------------------------------|
---------------------------------------|
---------------------------------------|
--5--5--5--5--5--5--5------------------|
--3--3--3--3--3--3--3S--6--6--6--6--6--|
------------------------4--4--4--4--4--|


  PM                                     
  |-3| |3|  |--3--|  |---3--|  |--3--|   
  E  S S E  E  E  E  E   E  E  E  E  E   
----------------------------------------|
----------------------------------------|
----------------------------------------|
----------------------------------------|
--6--6---2--2-----2--4S--5-----2--2--2--|
--4--4---0--0-----0--2S--3-----0--0--0--|


  |--3--|   |--3--|  |--3--|  |--3--|   
  E  E  E   E  E  E  E  E  E  E  E  E   
---------------------------------------|
---------------------------------------|
---------------------------------------|
---------------------------------------|
-----2--5S--4--2--3--L--3--3--3--3--3--|
-----0--3S--2--0--1--L--1--1--1--1--1--|


            PM PM    PM PM               
  |---3--|  |--3--|  |---3---| |--3--|   
  E  E   E  E  E  E  E  E  S S E  E  E   
----------------------------------------|
----------------------------------------|
----------------------------------------|
----------------------------------------|
--3--3S--6--6--6--6--6--6--6---2--2-----|
--1--1S--4--4--4--4--4--4--4---0--0-----|


  |---3--|  |--3--|  |--3--|  |---3--|   
  E  E   E  E  E  E  E  E  E  E   E  E   
----------------------------------------|
----------------------------------------|
----------------------------------------|
----------------------------------------|
--2--4S--5-----2--2--2-----2--5S--4--2--|
--0--2S--3-----0--0--0-----0--3S--2--0--|


                                 PM PM       PM PM           
  |--3--|  |--3--|  |--3--|   |--3--|     |--3--|  |--3--|   
  E  E  E  E  E  E  E  E  E   E  E  E     E  E  E  E  E  E   
---------------------------------------|--------------------|
---------------------------------------|--------------------|
---------------------------------------|--------------------|
---------------------------------------|--------------------|
--3--L--3--3--3--3--3--3--3S--6--6--6--|--6--6--6--6--------|
--1--L--1--1--1--1--1--1--1S--4--4--4--|--4--4--4--4--------|


  |--3--|   |--3--|  |--3--|  |---3--|   
  E  E  E   E  E  E  E  E  E  E  E   E   
----------------------------------------|
----------------------------------------|
----------------------------------------|
-----7--9--10-----6--7--9---------------|
--7------------7--------------7--9--10--|
---------------------------9------------|


  |--3--|   3   |---3--|   |--3--|  3       |---3--|  |---3--|      
  E  E  E   E.  E   E  E   E  E  E  E.      S S E  E  E  E   E  E   
-----------------------------------------|-------------------------|
-----------------------------------------|-------------------------|
-----------------------------------------|-------------------------|
-----------------------------------------|-------------------------|
--9--7--9\---------10-----10-------------|-------------------------|
------------8---8------8------8--0--4~---|--4-4-4--4--4--1S--L--x--|


  |--3--|   |--3--|  |--3--|  |---3--|     |--3--|         |--3--|  |--3--|   
  E  E  E   E  E  E  E  E  E  E  E   E     E  E  E   E.  S E  E  E  E  E  E   
----------------------------------------|------------------------------------|
----------------------------------------|------------------------------------|
----------------------------------------|---------------------7--6-----------|
-----7--9--10-----6--7--9---------------|------------5---8-5--------8--8--L--|
--7------------7--------------7--9--10--|--9--7--9\--------------------9--L--|
---------------------------9------------|------------------------------------|


  |---3--|          |--3--|   |--3--|  |--3--|  |---3--|   
  E  E   E  Q       E  E  E   E  E  E  E  E  E  E  E   E   
-----------------|----------------------------------------|
-----------------|----------------------------------------|
-----------------|----------------------------------------|
--8--------------|-----7--9--10-----6--7--9---------------|
-----9-----------|--7------------7--------------7--9--10--|
--------10--L----|---------------------------9------------|


  |--3--|   3   |---3--|   |--3--|  3       |---3--|  |---3--|      
  E  E  E   E.  E   E  E   E  E  E  E.      S S E  E  E  E   E  E   
-----------------------------------------|-------------------------|
-----------------------------------------|-------------------------|
-----------------------------------------|-------------------------|
-----------------------------------------|-------------------------|
--9--7--9\---------10-----10-------------|-------------------------|
------------8---8------8------8--0--4~---|--4-4-4--4--4--1S--L--x--|


  |--3--|   |--3--|  |--3--|  |---3--|     |--3--|         |--3--|  |--3--|   
  E  E  E   E  E  E  E  E  E  E  E   E     E  E  E   E.  S E  E  E  E  E  E   
----------------------------------------|------------------------------------|
----------------------------------------|------------------------------------|
----------------------------------------|---------------------7--6-----------|
-----7--9--10-----6--7--9---------------|------------5---8-5--------8--8--L--|
--7------------7--------------7--9--10--|--9--7--9\--------------------9--L--|
---------------------------9------------|------------------------------------|


                                                       PM  
  |---3--|                                                 
  E  E   E   Q       T T S T T S T T S T T S S S S E.  E   
------------------|---------------------------------------|
------------------|---------------------------------------|
------------------|---------------------------------------|
--8---------------|----------------------------1----------|
-----9------------|--3-3-3-3-3-3-3-3-3-3-3-3-2---2--------|
--------10\--L----|--------------------------------4---3--|


                             PM    PM     
  T T S T T S T T S T T S E  S  E  S  E   
-----------------------------------------|
-----------------------------------------|
-----------------------------------------|
-----------------------------------------|
--3-3-3-3-3-3-3-3-3-3-3-3-6-----9-----9--|
--------------------------4--0--7--0--7--|


                                    PM  
  T T S T T S T T S T T S S S S E.  E   
---------------------------------------|
---------------------------------------|
---------------------------------------|
----------------------------1----------|
--3-3-3-3-3-3-3-3-3-3-3-3-2---2--------|
--------------------------------4---3--|


     PM PM PM PM PM PM PM   PM PM   PM PM    
  E  S  S  S  S  S  S  S  S S  S  S S  S  S  
--------------------------------------------|
--------------------------------------------|
--------------------------------------------|
--------------------------------------------|
--6-----------------------------------------|
--4--4--4--4--4--4--4--4S-7-7--7--7-7--7--7-|


  E  S S S S S S  E   S  S  E  S S    E  S S S S S S E  S S Q     
-----------------------------------|-----------------------------|
-----------------------------------|-----------------------------|
-----------------------------------|-----------------------------|
-----------5-4---------------------|-----------5-4---5--5-5-4----|
--3--6-3-6-----6-(6)--6-(6)--------|--3--6-3-6-----6-------------|
------------------7------7--3--2-0-|-----------------------------|


                                 PM  
  E  S S S S S S  E   S  S  E  S S   
------------------------------------|
------------------------------------|
------------------------------------|
-----------5-4----------------------|
--3--6-3-6-----6-(6)--6-(6)------4--|
------------------7------7--3--2-2--|


     PM PM PM PM PM PM PM   PM PM   PM PM      
  E  S  S  S  S  S  S  S  S S  S  S S  S   S   
---------------------------------------------||
---------------------------------------------||
---------------------------------------------||
---------------------------------------------||
--6--6--6--6--6--6--6--6S-9-9--9--9-9--9--10-||
--4--4--4--4--4--4--4--4S-7-7--7--7-7--7---8-||




Duration Legend
---------------
W - whole
H - half
Q - quarter
E - 8th
S - 16th
T - 32nd
X - 64th
. - note dotted
|-n-|  - n-tuplets


Tablature Legend
----------------
L - tied note
x - dead note
g - grace note
(n) - ghost note
> - accentuded note
NH - natural harmonic
AH - artificial harmonic
TH - tapped harmonic
SH - semi harmonic
PH - pitch harmonic
h - hammer on
p - pull off
b - bend
br - bendRelease
pb - preBend
pbr - preBendRelease
brb - bendReleaseBend
\n/ - tremolo bar dip
\n - tremolo bar dive
-/n - tremolo bar Release up
/n\ - tremolo bar inverted dip
/n - tremolo bar return
-\n - tremolo bar Release down
S - shift slide
s - legato slide
/ -  slide into from below or out of upwards
\ -  slide into from above or out of downwards
~ - vibrato
W - wide vibrato
tr - trill
TP - tremolo picking
T - tapping
S - slap
P - pop
< - fade in
^ - brush up
v - brush down
comments
We did not receive enough feedback on this tab! Please rate:
1 2 3 4 5
I want to post or [tab]
guest
You may want to rate the tab now too:
select rating
Please do not post tabs as comments. Select "correction" instead!