Oops, an error
Loading. Please wait.

Meticulous Invagination Tab

ver1
ver1

Whole song

Interactive

More versions @911Tabs.com
3,208 views 3 this week
no commentswrite comment
1 2 3 4 5
excellent!
x 2
add to favorites launch autoscroll
font size
0
reset
Autoscroll
+/-
esc
set tempo
stop
Contributor
WARNING: You are trying to view
                                    content from Ultimate-Guitar.com
                                    in an unauthorized application,
                                    which is prohibited.

                                    Please use an official Ultimate
                                    Guitar Tabs application for iPhone,
                                    iPad or Android to access legitimate
                                    chords, guitar, bass, and drum tabs
                                    from Ultimate-Guitar.com database.

                                    Type "ultimate guitar tabs" in Apple
                                    App Store's or Android Market's
                                    search to find the application.
                           Methiculous Invagination                             


                                                                         Aborted
Spår 1



          |-3-|    |-3-|                   |-3-|    |-3-|                
       E  S S S E  S S S E  E  E  E     E  S S S E  S S S E  E  E  E     
B ||---------------------------------|---------------------------------||
F#||---------------------------------|---------------------------------||
D ||*--------------------------------|--------------------------------*||
A ||*--3-----------------------------|--3-----------------4--5--8--5--*||
E ||---1--------2--------2--3--6--3--|--1--------2--------2--3--6--3---||
B ||------0-0-0-0--0-0-0-0--1--4--1--|-----0-0-0-0--0-0-0--------------||


  |-3-|        |-3-|    |-3-|       |-3-|        |-3-|    |-3-|     
  S S S Q.     S S S E  S S S E     S S S Q.     S S S E  S S S E   
---------------------------------|---------------------------------|
---------------------------------|---------------------------------|
---------------------------------|---------------------------------|
---------------------------------|---------------------------------|
--2-2-2--------2-2-2----2-2-2----|--2-2-2--------2-2-2----2-2-2----|
--0-0-0--------0-0-0----0-0-0----|--0-0-0--------0-0-0----0-0-0----|


  |-3-|        |-3-|    |-3-|       |-3-|        |-3-|    |-3-|     
  S S S Q.     S S S E  S S S E     S S S Q.     S S S E  S S S E   
---------------------------------|---------------------------------|
---------------------------------|---------------------------------|
---------------------------------|---------------------------------|
--7-7-7--------7-7-7----7-7-7----|--5-5-5--------5-5-5----5-5-5----|
--5-5-5--------5-5-5----5-5-5----|--3-3-3--------3-3-3----3-3-3----|
--5-5-5--------5-5-5----5-5-5----|--3-3-3--------3-3-3----3-3-3----|


    PM PM PM PM PM PM PM PM PM PM PM PM PM PM PM PM  
    S  S  S  S  S  S  S  S  S  S  S  S  S  S  S  S   
|---------------------------------------------------|
|---------------------------------------------------|
|*--------------------------------------------------|
|*--------------------------------------------------|
|---------------------------------------3--0--5--0--|
|---1--0--2--0--5--0--3--0--2--0--3--0--------------|


  PM PM PM PM PM PM PM PM PM PM PM PM PM PM PM PM  
  S  S  S  S  S  S  S  S  S  S  S  S  S  S  S  S   
--------------------------------------------------|
--------------------------------------------------|
--------------------------------------------------|
--------------------------------------------------|
--------------------------------------3--0--5--0--|
--1--0--2--0--5--0--3--0--2--0--3--0--------------|


  PM PM PM PM PM PM PM PM PM PM PM PM PM PM PM PM  
  S  S  S  S  S  S  S  S  S  S  S  S  S  S  S  S   
--------------------------------------------------|
--------------------------------------------------|
--------------------------------------------------|
--------------------------------------------------|
--------------------------------------3--0--5--0--|
--1--0--2--0--5--0--3--0--2--0--3--0--------------|


  PM PM PM PM PM PM PM PM PM PM PM PM PM PM PM PM  
  S  S  S  S  S  S  S  S  S  S  S  S  S  S  S  S   
--------------------------------------------------|
--------------------------------------------------|
--------------------------------------------------|
--------------------------------------------------|
--------------------------------------3--0--5--0--|
--1--0--2--0--5--0--3--0--2--0--3--0--------------|


     PM PM PM    PM PM PM    PM PM PM    PM PM PM    
     |--3--|     |--3--|     |--3--|     |--3--|     
  E  S  S  S  E  S  S  S  E  S  S  S  E  S  S  S   3x
---------------------------------------------------||
---------------------------------------------------||
--------------------------------------------------*||
--------------------------------------------------*||
--6-----------6-----------5-----------3------------||
-----4--4--4-----4--4--4-----3--3--3-----1--1--1---||


        |-3-|      |-3-|      |-3-|      |-3-|  
   S  S S S S S  S S S S S  S S S S S  S S S S  
-----------------------------------------------|
-----------------------------------------------|
*----------------------------------------------|
*-------------4S-3------------------6S-5-------|
---3S-2-------2S-1-------3S-2-------4S-3-------|
---1S-0-0-0-0------0-0-0-1S-0-0-0-0------0-0-0-|


                             PM PM PM PM     
       |-3-|      |-3-|                      
  S  S S S S S  S S S S S  S S  S  S  S  E   
--------------------------------------------|
--------------------------------------------|
--------------------------------------------|
-------------4S-3---------------------------|
--3S-2-------2S-1-------3S-2-2--2--2--2--6--|
--1S-0-0-0-0------0-0-0-1S-0-0--0--0--0--4--|


       |-3-|      |-3-|      |-3-|      |-3-|  
  S  S S S S S  S S S S S  S S S S S  S S S S  
----------------------------------------------|
----------------------------------------------|
----------------------------------------------|
-------------4S-3------------------6S-5-------|
--3S-2-------2S-1-------3S-2-------4S-3-------|
--1S-0-0-0-0------0-0-0-1S-0-0-0-0------0-0-0-|


                             PM PM PM PM PM PM    
       |-3-|      |-3-|                           
  S  S S S S S  S S S S S  S S  S  S  S  S  S     
------------------------------------------------||
------------------------------------------------||
-----------------------------------------------*||
-------------4S-3------------------------------*||
--3S-2-------2S-1-------3S-2-2--2--2--2--2--2---||
--1S-0-0-0-0------0-0-0-1S-0-0--0--0--0--0--0---||


  PM PM PM PM PM PM PM PM PM PM PM PM PM PM PM PM  
  S  S  S  S  S  S  S  S  S  S  S  S  S  S  S  S   
--------------------------------------------------|
--------------------------------------------------|
--------------------------------------------------|
--------------------------------------------------|
--------------------------------------3--0--5--0--|
--1--0--2--0--5--0--3--0--2--0--3--0--------------|


  PM PM PM PM PM PM PM PM PM PM PM PM PM PM PM PM  
  S  S  S  S  S  S  S  S  S  S  S  S  S  S  S  S   
--------------------------------------------------|
--------------------------------------------------|
--------------------------------------------------|
--------------------------------------------------|
--------------------------------------3--0--5--0--|
--1--0--2--0--5--0--3--0--2--0--3--0--------------|


  PM PM PM PM PM PM PM PM PM PM PM PM PM PM PM PM  
  S  S  S  S  S  S  S  S  S  S  S  S  S  S  S  S   
--------------------------------------------------|
--------------------------------------------------|
--------------------------------------------------|
--------------------------------------------------|
--------------------------------------3--0--5--0--|
--1--0--2--0--5--0--3--0--2--0--3--0--------------|


  PM PM PM PM PM PM PM PM PM PM PM PM PM PM PM PM  
  S  S  S  S  S  S  S  S  S  S  S  S  S  S  S  S   
--------------------------------------------------|
--------------------------------------------------|
--------------------------------------------------|
--------------------------------------------------|
--------------------------------------3--0--5--0--|
--1--0--2--0--5--0--3--0--2--0--3--0--------------|


     PM PM PM    PM PM PM    PM PM PM    PM PM PM  
     |--3--|     |--3--|     |--3--|     |--3--|   
  E  S  S  S  E  S  S  S  E  S  S  S  E  S  S  S   
--------------------------------------------------|
--------------------------------------------------|
--------------------------------------------------|
--------------------------------------------------|
--6-----------6-----------5-----------3-----------|
-----4--4--4-----4--4--4-----3--3--3-----1--1--1--|


       |-3-| |-3-| |-3-| |-3-| |-3-| |-3-| |-3-|  
    E  S S S S S S S S S S S S S S S S S S S S S  
|------------------------------------------------|
|------------------------------------------------|
|*--3--------------------------------------------|
|*--1--------------------------------------------|
|------0-0-0-0-0-0-0-0-0-0-0-0-1-1-1-4-4-4-1-1-1-|
|------------------------------------------------|


     |-3-| |-3-| |-3-| |-3-| |-3-| |-3-| |-3-|    
  E  S S S S S S S S S S S S S S S S S S S S S    
------------------------------------------------||
------------------------------------------------||
--3--------------------------------------------*||
--1--------------------2-2-2-3-3-3-6-6-6-3-3-3-*||
-----0-0-0-0-0-0-0-0-0--------------------------||
------------------------------------------------||


      |-3-|    |-3-| |-3-| |-3-| |-3-| |-3-|  
   E  S S S E  S S S S S S S S S S S S S S S  
---------------------------------------------|
---------------------------------------------|
*--------------------------------------------|
*--3-----------------------------------------|
---1--------2--------------------------------|
------0-0-0-0--0-0-0-0-0-0-1-1-1-4-4-4-1-1-1-|


     |-3-|    |-3-| |-3-| |-3-| |-3-| |-3-|                            
  E  S S S E  S S S S S S S S S S S S S S S      H        E  E  E  E   
---------------------------------------------||-----------------------|
---------------------------------------------||-----------------------|
--------------------------------------------*||-----------------------|
--3-----------------------------------------*||--------------3--------|
--1--------2--------2-2-2-3-3-3-6-6-6-2-2-2--||--------------1-----5--|
-----0-0-0-0--0-0-0--------------------------||--------------------3--|


            PM PM PM PM      PM PM       PM PM       PM PM  
  E  Q.     E  E  E  E       E  E    E   E  E    E   E  E   
------------------------||---------------------------------|
------------------------||---------------------------------|
------------------------||*--------------------------------|
------------------------||*--------------------------------|
--6---------6--5--3--5--||---2--3--<>1b--2--3--------2--3--|
--4---------4--3--1--3--||---0--1--------0--1--<>3b--0--1--|


  PM PM       PM PM                                     
  E  E    E   E  E  E  E  E       H        E  E  E  E   
------------------------------||-----------------------|
------------------------------||-----------------------|
-----------------------------*||-----------------------|
-----------------------------*||--------------3--------|
--2--3--<>1b--2--6--5--3--5---||--------------1-----5--|
--0--1--------0--4--3--1--3---||--------------------3--|


            PM PM PM PM      PM PM    PM PM    PM     
  E  Q.     E  E  E  E       E  E  E  E  E  E  E  E   
------------------------||---------------------------|
------------------------||---------------------------|
------------------------||*--------------------------|
------------------------||*--------5--------6--------|
--6---------6--5--3--5--||---4--5--3--4--5--4--4--7--|
--4---------4--3--1--3--||---2--3-----2--3-----2--5--|


  PM PM    PM                   PM PM       PM PM       PM PM  
  E  E  E  E  E  E  E  E        E  E    E   E  E    E   E  E   
---------------------------||---------------------------------|
---------------------------||---------------------------------|
--------------------------*||*--------------------------------|
--------5-----------------*||*--------------------------------|
--4--5--3--4--8--7--5--7---||---2--3--<>1b--2--3--------2--3--|
--2--3-----2--6--5--3--5---||---0--1--------0--1--<>3b--0--1--|


  PM PM       PM PM             
  E  E    E   E  E  E  E  E     
------------------------------||
------------------------------||
-----------------------------*||
-----------------------------*||
--2--3--<>1b--2--6--5--3--5---||
--0--1--------0--4--3--1--3---||


   |-3-| |-3-| |-3-| |-3-| |-3-| |-3-| |-3-| |-3-|  
   S S S S S S S S S S S S S S S S S S S S S S S S  
---------------------------------------------------|
---------------------------------------------------|
*--------------------------------------------------|
*--------------------------------------------------|
---------------------------------------------------|
---0-0-0-0-0-0-0-0-0-0-0-0-0-0-0-0-0-0-0-0-0-0-0-0-|


  |-3-| |-3-| |-3-| |-3-| |-3-| |-3-| |-3-| |-3-|  
  S S S S S S S S S S S S S S S S S S S S S S S S  
--------------------------------------------------|
--------------------------------------------------|
--------------------------------------------------|
--------------------------------------------------|
--7-7-7-7-7-7-7-7-7-7-7-7-7-7-7-7-7-7-7-7-7-7-7-7-|
--------------------------------------------------|


  |-3-| |-3-| |-3-| |-3-| |-3-| |-3-| |-3-| |-3-|  
  S S S S S S S S S S S S S S S S S S S S S S S S  
--------------------------------------------------|
--------------------------------------------------|
--------------------------------------------------|
--------------------------------------------------|
--5-5-5-5-5-5-5-5-5-5-5-5-5-5-5-5-5-5-5-5-5-5-5-5-|
--------------------------------------------------|


                                                 PM    PM    PM     
  |-3-| |-3-| |-3-| |-3-|                                           
  S S S S S S S S S S S S E  E  E   E       Q    E  E  E  E  E  E   
----------------------------------------||-------------------------|
----------------------------------------||-------------------------|
---------------------------------------*||-------------------------|
---------------------------------------*||----------9-----7-----5--|
--3-3-3-3-3-3-3-3-3-3-3-3---------------||--2-------7-----5-----3--|
--------------------------1--4--3~--1---||--0----0-----0-----0-----|


  W                   W                   H        E  E  E   E   
-------------------|-------------------|------------------------|
-------------------|-------------------|------------------------|
-------------------|-------------------|------------------------|
-------------------|--7----------------|--5---------------------|
--2----------------|--5----------------|--3---------------------|
--0----------------|--5----------------|--3--------1--4--3~--1--|


       PM    PM    PM                                             
  Q    E  E  E  E  E  E     W                   W                 
-------------------------|-------------------|-------------------|
-------------------------|-------------------|-------------------|
-------------------------|-------------------|-------------------|
----------9-----7-----5--|-------------------|--7----------------|
--2-------7-----5-----3--|--2----------------|--5----------------|
--0----0-----0-----0-----|--0----------------|--5----------------|


                           |-3-|        |-3-|    |-3-|     
  H        E  E  E   E     S S S Q.     S S S E  S S S E   
------------------------|---------------------------------|
------------------------|---------------------------------|
------------------------|---------------------------------|
--5---------------------|---------------------------------|
--3---------------------|--2-2-2--------2-2-2----2-2-2----|
--3--------1--4--3~--1--|--0-0-0--------0-0-0----0-0-0----|


  |-3-|        |-3-|    |-3-|       |-3-|        |-3-|    |-3-|     
  S S S Q.     S S S E  S S S E     S S S Q.     S S S E  S S S E   
---------------------------------|---------------------------------|
---------------------------------|---------------------------------|
---------------------------------|---------------------------------|
---------------------------------|--7-7-7--------7-7-7----7-7-7----|
--2-2-2--------2-2-2----2-2-2----|--5-5-5--------5-5-5----5-5-5----|
--0-0-0--------0-0-0----0-0-0----|--5-5-5--------5-5-5----5-5-5----|


  |-3-|        |-3-|    |-3-|         |-3-|        |-3-|    |-3-|     
  S S S Q.     S S S E  S S S E       S S S Q.     S S S E  S S S E   
---------------------------------||----------------------------------|
---------------------------------||----------------------------------|
---------------------------------||*---------------------------------|
--5-5-5--------5-5-5----5-5-5----||*---------------------------------|
--3-3-3--------3-3-3----3-3-3----||---2-2-2--------2-2-2----2-2-2----|
--3-3-3--------3-3-3----3-3-3----||---0-0-0--------0-0-0----0-0-0----|


  |-3-|        |-3-|    |-3-|       |-3-|        |-3-|    |-3-|     
  S S S Q.     S S S E  S S S E     S S S Q.     S S S E  S S S E   
---------------------------------|---------------------------------|
---------------------------------|---------------------------------|
---------------------------------|---------------------------------|
---------------------------------|--7-7-7--------7-7-7----7-7-7----|
--2-2-2--------2-2-2----2-2-2----|--5-5-5--------5-5-5----5-5-5----|
--0-0-0--------0-0-0----0-0-0----|--5-5-5--------5-5-5----5-5-5----|


  |-3-|        |-3-|    |-3-|       
  S S S Q.     S S S E  S S S E   3x
----------------------------------||
----------------------------------||
---------------------------------*||
--5-5-5--------5-5-5----5-5-5----*||
--3-3-3--------3-3-3----3-3-3-----||
--3-3-3--------3-3-3----3-3-3-----||


   PM PM PM PM PM PM PM PM PM PM PM PM PM PM PM PM    
   S  S  S  S  S  S  S  S  S  S  S  S  S  S  S  S   4x
----------------------------------------------------||
----------------------------------------------------||
*--------------------------------------------------*||
*--------------------------------------------------*||
---------------------------------------3--0--5--0---||
---1--0--2--0--5--0--3--0--2--0--3--0---------------||


       |-3-|      |-3-|      |-3-|      |-3-|  
  S  S S S S S  S S S S S  S S S S S  S S S S  
----------------------------------------------|
----------------------------------------------|
----------------------------------------------|
-------------4S-3------------------6S-5-------|
--3S-2-------2S-1-------3S-2-------4S-3-------|
--1S-0-0-0-0------0-0-0-1S-0-0-0-0------0-0-0-|


                             PM PM PM PM     
       |-3-|      |-3-|                      
  S  S S S S S  S S S S S  S S  S  S  S  E   
--------------------------------------------|
--------------------------------------------|
--------------------------------------------|
-------------4S-3---------------------------|
--3S-2-------2S-1-------3S-2-2--2--2--2--6--|
--1S-0-0-0-0------0-0-0-1S-0-0--0--0--0--4--|


       |-3-|      |-3-|      |-3-|      |-3-|  
  S  S S S S S  S S S S S  S S S S S  S S S S  
----------------------------------------------|
----------------------------------------------|
----------------------------------------------|
-------------4S-3------------------6S-5-------|
--3S-2-------2S-1-------3S-2-------4S-3-------|
--1S-0-0-0-0------0-0-0-1S-0-0-0-0------0-0-0-|


                             PM PM PM PM PM PM  
       |-3-|      |-3-|                         
  S  S S S S S  S S S S S  S S  S  S  S  S  S   
-----------------------------------------------|
-----------------------------------------------|
-----------------------------------------------|
-------------4S-3------------------------------|
--3S-2-------2S-1-------3S-2-2--2--2--2--2--2--|
--1S-0-0-0-0------0-0-0-1S-0-0--0--0--0--0--0--|


    PM PM PM PM PM PM PM PM PM PM PM PM PM PM PM PM                          
    S  S  S  S  S  S  S  S  S  S  S  S  S  S  S  S       E  H        Q.      
|----------------------------------------------------||---------------------|
|----------------------------------------------------||---------------------|
|*--------------------------------------------------*||---------------------|
|*--------------------------------------------------*||---------------------|
|---------------------------------------3--0--5--0---||--2------------------|
|---1--0--2--0--5--0--3--0--2--0--3--0---------------||--0------------------|


---------||
---------||
---------||
---------||
---------||
---------||




Duration Legend
---------------
W - whole
H - half
Q - quarter
E - 8th
S - 16th
T - 32nd
X - 64th
. - note dotted
|-n-|  - n-tuplets


Tablature Legend
----------------
L - tied note
x - dead note
g - grace note
(n) - ghost note
> - accentuded note
NH - natural harmonic
AH - artificial harmonic
TH - tapped harmonic
SH - semi harmonic
PH - pitch harmonic
h - hammer on
p - pull off
b - bend
br - bendRelease
pb - preBend
pbr - preBendRelease
brb - bendReleaseBend
\n/ - tremolo bar dip
\n - tremolo bar dive
-/n - tremolo bar Release up
/n\ - tremolo bar inverted dip
/n - tremolo bar return
-\n - tremolo bar Release down
S - shift slide
s - legato slide
/ -  slide into from below or out of upwards
\ -  slide into from above or out of downwards
~ - vibrato
W - wide vibrato
tr - trill
TP - tremolo picking
T - tapping
S - slap
P - pop
< - fade in
^ - brush up
v - brush down
comments
We did not receive enough feedback on this tab! Please rate:
print report bad tab
1 2 3 4 5
I want to post or [tab]
guest
You may want to rate the tab now too:
select rating
Please do not post tabs as comments. Select "correction" instead!