Oops, an error
Loading. Please wait.

74 Jailbreak Tab

63,652 views 87 this week
17 commentsread comments
1 2 3 4 5
accurate
x 15
add to favorites launch autoscroll
font size
0
reset
Autoscroll
+/-
esc
set tempo
stop
Contributor
WARNING: You are trying to view
                                    content from Ultimate-Guitar.com
                                    in an unauthorized application,
                                    which is prohibited.

                                    Please use an official Ultimate
                                    Guitar Tabs application for iPhone,
                                    iPad or Android to access legitimate
                                    chords, guitar, bass, and drum tabs
                                    from Ultimate-Guitar.com database.

                                    Type "ultimate guitar tabs" in Apple
                                    App Store's or Android Market's
                                    search to find the application.
'74 Jailbreak Album
 1.Jailbreak
 2.You ain't got a hold on me
 3.Show Business
 4.Soul tripper
 5.Baby, please don't go


                                                       Jailbreak

 Main Riff(Malcolm, then Angus)
 ----------2-----|
 ----------3-----|
 ----------2-2---|
 --0-2-x-x-0-2---|
 --0-2-x-x---0---|
 --0-0-x-x-------|

 Angus
 -------|
 -------|
 -------|
 -------|
 -------|
 --0----|

 Play main Riff through verse

 Pre-chorus
 -----2-2-2--------------------2-2-2---|
 -----3-3-3--------------------3-3-3---|
 --2--2-2-2-2--2-2-2-4--4-4-4--2-2-2---|
 --2--0-0-0-2--2-2-2-4--4-4-4--0-0-0---|
 --0--------0--0-0-0-2--2-2-2----------|
 --------------------------------------|

 Chorus
 -----------------|
 -----------------|
 -----------------|
 -----------------|
 ---------2-5-4---|
 --0-0-/4---------|

 Solo
 --17-17~~~-17-15------------15-15------------------|
 -----------------17-15b(17)-17-17------------------|
 -----------------------------------17~~~~~~~-14/---|
 ---------------------------------------------------|
 ---------------------------------------------------|
 ---------------------------------------------------|

 --------------------------|
 --------------------------|
 --------------------------|
 --------------------------|
 --------------------------|
 --5-5-5b7~~~~~~~~~~~~~~~--|

 --19-17-19-19~~~-19-17----------17-17-------------|
 -----------------------19-17b19----19-------------|
 --------------------------------------------------|
 --------------------------------------------------|
 --------------------------------------------------|
 ---------------------------------------0----------|

 Bridge
 -------------|
 -------------|
 -------------|
 --5~~~~------|
 -------------|
 --5~~~~------|

 --17---------|
 --17---------|
 --17---------|
 --//---------|
 --//---------|
 --//---------|

 ----------|
 ----------|
 --x-x-x---|
 --x-x-x---|x2
 --x-x-x---|
 ----------|

                                        You ain't got a hold on me


 E|-10========10-8------------------8-10========10-8---------------|
B|----------------10-8========8-10------------------10-8=======----|
G|-----------------------------------------------------------------|
D|-----------------------------------------------------------------|
A|-----------------------------------------------------------------|
E|-----------------------------------------------------------------|

main riff(verse)
E|---------------------------------------------------|
B|---------------------------------------------------|
G|-5/7-7-5/7-5/7-7-5/7-------------------------------|
D|-5/7-7-5/7-5/7-7-5/7-5/7-7-5/7-5/7-7-5/7-5/7-7-5/7-|
A|-3/5-5-3/5-3/5-5-3/5-5/7-7-5/7-5/7-7-5/7-5/7-7-5/7-|
E|---------------------3/5-5-3/5-3/5-5-3/5-3/5-5-3/5-|

E|-------------------------------------------------------------|
B|-------------------------------------------------------------|
G|-5/7-7-5/7-5/7-7-5/5---------------------5/7-7-5/7-5/7-7-5/7-|
D|-5/7-7-5/7-5/7-7-5/5-3/5-5-3/5-3/5-5-3/5-5/7-7-5/7-5/7-7-5/7-|
A|-3/5-5-3/5-3/5-5-3/7-3/5-5-3/5-3/5-5-3/5-3/5-5-3/5-3/5-5-3/5-|
E|---------------------1/3-3-1/3-1/3-3-1/3---------------------|

E|---------------------------------------------------|
B|---------------------------------------------------|
G|-----------------------------------------2---5---7-|
D|-5/7-7-5/7-5/7-7-5/7-5/7-7-5/7-5/7-7-5/7-2---5---7-|
A|-5/7-7-5/7-5/7-7-5/7-5/7-7-5/7-5/7-7-5/7-0---3---5-|
E|-3/5-5-3/5-3/5-5-3-5-3/5-5-3/5-3/5-5-3/5-----------|

chorus.
E|-----------------------------------|
B|-----------------------------------|
G|-7---2-------------------2---5---7-|
D|-7---2---2---4---5---7---2---5---7-|
A|-5---0---2---4---5---7---0---3---5-|
E|---------0---2---3---5-------------|

                                        Show business

 E|---------------------------------------------------------------|
B|----------------------------------------------------------------|
G|----------------------------------------------------------------|
D|-----------------------2-2-4-----2-2-4--------------------------|
A|---2-2-4-----2-2-4---0-0-0-0---0-0-0-0-----2-2-4-----2-2-4------|
E|-0-0-0-0---0-0-0-0-----------------------0-0-0-0---0-0-0-0------|

E|-------------------------------------------------------------|
B|-------------------------------------------------------------|
G|-------------------------------------------------------------|
D|-----------------------2-2-4-----2-2-4-----2-2-4-----2-2-4---|
A|---2-2-4-----2-2-4---0-0-0-0---0-0-0-0---0-0-0-0---0-0-0-0---|
E|-0-0-0-0---0-0-0-0-------------------------------------------|

E|---------------------------------------------------------------|
B|---------------------------------------------------------------|
G|---------------------------------------------------------------|
D|---------------------------------------------------2-2-2-2-2---|
A|---2-2-4-----2-2-4------2-2-4----2-2-4---4-4-4-4-4-0-0-0-0-0-2-|
E|-0-0-0-0---0-0-0-0---0-0-0-0---0-0-0-0---2-2-2-2-2-----------0-|

E|-12-12-12-10-10-10-8-8-8-7-7-7-7-7-|
B|-12-12-12-10-10-10-8-8-8-7-7-7-7-7-|
G|-----------------------------------|
D|-----------------------------------|
A|-----------------------------------|
E|-----------------------------------|

intro solo (played by guitar one while guitar two plays the intro)
E|-12-10-12===12-10-7-7===---7-7-10-7-5------------------|
B|------------------------10------------9b11r9-7p6p5-5-5-|
G|-------------------------------------------------------|
D|-------------------------------------------------------|
A|-------------------------------------------------------|
E|-------------------------------------------------------|

E|-9h10h12----12-------17-17p15p12-15p12----12-------17-15-12-17-|
B|---------12----14-12-------------------15----------------------|
G|---------------------------------------------11-12-------------|
D|---------------------------------------------------------------|
A|---------------------------------------------------------------|
E|---------------------------------------------------------------|

E|-1514p10----------12---------------------------------------------|
B|---------15p14p10----12-12-12-15-12-12-10-8--------11b12-10-8-12-|
G|--------------------------------------------10-8-9---------------|
D|-----------------------------------------------------------------|
A|-----------------------------------------------------------------|
E|-----------------------------------------------------------------|

E|------------------------------------------------|
B|-------15p12----12----17p15p12------------------|
G|-9-9-9-------12----12----------15p14p12---------|
D|----------------------------------------12-14-9-|
A|------------------------------------------------|
E|------------------------------------------------|
end solo

verse
E|---------------------------------------------|
B|---------------------------------------------|
G|---------------------------------------------|
D|---------------------5-5-5-5-5-5-5-5-5-5-5-5-|
A|---------------------5-5-5-5-5-5-5-5-5-5-5-5-|
E|-0-5-3-0---0-5-3-0---3-3-3-3-3-3-3-3-3-3-3-3-|

chorus
E|-------------------------------------------------------------|
B|-------------------------------------------------------------|
G|-------------------------------------------------------------|
D|---2-2-4-----2-2-4-----2-2-4-----2-2-4-----------------------|
A|-0-0-0-0---0-0-0-0---0-0-0-0---0-0-0-0-----2-2-4-----2-2-4---|
E|-----------------------------------------0-0-0-0---0-0-0-0---|

E|-------------------------------------12-12-12-10-10-10-8-8-8-7-7-7-|
B|-------------------------------------12-12-12-10-10-10-8-8-8-7-7-7-|
G|-------------------------------------------------------------------|
D|-------------------------------------------------------------------|
A|---2-2-4-----2-2-4-----------0-2-3-0-------------------------------|
E|-0-0-0-0---0-0-0-0---2-0-2-3---------------------------------------|

play the verse and chorus again.

guitar solo two (guitar one plays the chorus riff over this solo)
E|-----------------------------------------------------------|
B|-------------------------------------------14-14-7-7-12-12-|
G|----------------------------10-12p10p9-9-9-----------------|
D|-------12-14-14-14b15r14-12--------------------------------|
A|-12h14-----------------------------------------------------|
E|-----------------------------------------------------------|

E|-----------------------------12-12h15p14p12---------------------|
B|-8-5---5-5-5-5-3h5-5h8/10h12----------------12-12-10p8h10p8-8===|
G|-----7----------------------------------------------------------|
D|----------------------------------------------------------------|
A|----------------------------------------------------------------|
E|----------------------------------------------------------------|

E|----------------------------------|
B|-------------------12-12----------|
G|-------------------------12-15----|
D|-------------------------------14-|
A|-7-6-5-3-3-2-0--------------------|
E|---------------3~~~---------------|

E|-------------------------------------------------------|
B|-------------------------------------------------------|
G|-12-12-12-12-12-12-12-12-12-12-12-12-14-14-14-14-14-14-|
D|-------------------------------------------------------|
A|-------------------------------------------------------|
E|-------------------------------------------------------|

E|-------------------------------------------------------|
B|-------------------------------------------------------|
G|-14-14-14-14-14-14-16-16-16-16-16-16-16-16-16-16-16-16-|
D|-------------------------------------------------------|
A|-------------------------------------------------------|
E|-------------------------------------------------------|

E|-------17-17-17-17-15-15b16r15-11-12-15-15-14-15-15-19p15-15-|
B|-------------------------------------------------------------|
G|-16-16-------------------------------------------------------|
D|-------------------------------------------------------------|
A|-------------------------------------------------------------|
E|-------------------------------------------------------------|

E|-15-19-15-12-7-12-12-10-9-----------------12-9-7-10-12-|
B|--------------------------12-10-9-------8--------------|
G|----------------------------------9-7-9----------------|
D|-------------------------------------------------------|
A|-------------------------------------------------------|
E|-------------------------------------------------------|

E|----12-12-12--15p14p12h14p12-16-19-16-16----------------|
B|-15--------------------------------------12-------------|
G|--------------------------------------------14-12-14-12-|
D|--------------------------------------------------------|
A|--------------------------------------------------------|
E|--------------------------------------------------------|

E|-------------------------------------------------------------|
B|-------------------------------------------------------------|
G|-12-9-12-12--9h12-12-9h12-12-9h12-12-9h12-12-9h12-12-9h12-12-|
D|-------------------------------------------------------------|
A|-------------------------------------------------------------|
E|-------------------------------------------------------------|

E|---------------------------------------------------------|
B|---------------------------------------------------------|
G|-9h12-12-9h12-12-9h12-12-9h12-12-9h12-12-9h12-12-9p7h9-9/|
D|---------------------------------------------------------|
A|---------------------------------------------------------|
E|---------------------------------------------------------|

E|-12~~~~~~~~10-12-12p10p9------------------19===17===19===|
B|-------------------------12p10-12-10-9\------------------|
G|---------------------------------------------------------|
D|---------------------------------------------------------|
A|---------------------------------------------------------|
E|---------------------------------------------------------|

E|-17-19-19-19-17-16-17-16-17-16\-15-17-15h17p15----------|
B|-----------------------------------------------15-15b17-|
G|--------------------------------------------------------|
D|--------------------------------------------------------|
A|--------------------------------------------------------|
E|--------------------------------------------------------|

E|-------------------|
B|-15h17p15----------|
G|----------16-------|
D|-------------------|
A|-------------15-14-|
E|-------------------|
end solo

play the verse and chorus twice

guitar solo three (guitar two will play the chorus riff over this)
E|---------------------------12-10-12-7h9h10/12----------|
B|-11b12-12-12~~~-------------------------------10-12-10-|
G|---------------12-11-9-9-9-----------------------------|
D|-------------------------------------------------------|
A|-------------------------------------------------------|
E|-------------------------------------------------------|

E|--------------------------------------------------------|
B|--------------------------------------------------------|
G|-12-9-9/----------15-17-19-19-18-19-19---------18-19-19-|
D|---------12-15-17----------------------18-19-9----------|
A|--------------------------------------------------------|
E|--------------------------------------------------------|

E|------------------------------------17-15-17p15\12-12-12-12-10-12-|
B|----------------17-17----17===------------------------------------|
G|----------16-18-------18------17-17-------------------------------|
D|-18-19-19---------------------------------------------------------|
A|------------------------------------------------------------------|
E|------------------------------------------------------------------|

E|-----------------7h9h10/12-------------------------------|
B|-12h15---------------------------------------------12-12-|
G|-------12------------------14-12-14-12-12h15p12h15-------|
D|----------17-14\-----------------------------------------|
A|---------------------------------------------------------|
E|---------------------------------------------------------|

E|----------------------------------------------------------------|
B|----------------------------------------------------------------|
G|-12-15----12-12-12-12-12-12-12-12-12-12-12-12-14-14-14-14-14-14-|
D|-------14-------------------------------------------------------|
A|----------------------------------------------------------------|
E|----------------------------------------------------------------|

E|----------------------------------------------------------------|
B|----------------------------------------------------------------|
G|-14-14-14-14-14-14-16-16-16-16-16-16-16-16-16-16-16-16-16-16-16-|
D|----------------------------------------------------------------|
A|----------------------------------------------------------------|
E|----------------------------------------------------------------|

E|-------17-17-17-17--15-15b16r15-------12-12---------------|
B|--------------------------------15-15-------15-12---------|
G|-16-16--------------------------------------------14-12-9-|
D|----------------------------------------------------------|
A|----------------------------------------------------------|
E|----------------------------------------------------------|

E|-------------------12~~~~~~~~---------------------------|
B|----15----12-12-12-----------12-12-15-12----12-------12-|
G|-14----14--------------------------------12----14-12----|
D|--------------------------------------------------------|
A|--------------------------------------------------------|
E|--------------------------------------------------------|

E|-------------10-9-7-7-7~~~~~~~~|
B|-------------------------------|
G|-14p12-12-12-------------------|
D|-------------------------------|
A|-------------------------------|
E|-------------------------------|
end solo

play the verse and chorus twice

guitar solo four (same old same old)
E|-10-12-12-15b16r15-11-12-15-15-14-15-15-19p15-15-15-19-15-12-7-|
B|---------------------------------------------------------------|
G|---------------------------------------------------------------|
D|---------------------------------------------------------------|
A|---------------------------------------------------------------|
E|---------------------------------------------------------------|

E|-12-12-10-9-----------------12-9-7-10-12----12-12-12-|
B|------------12-10-9-------8--------------15----------|
G|--------------------9-7-9----------------------------|
D|-----------------------------------------------------|
A|-----------------------------------------------------|
E|-----------------------------------------------------|

E|-15p14p12h14p12-16-19-16-16----------------|
B|----------------------------12-------------|
G|-------------------------------14-12-14-12-|
D|-------------------------------------------|
A|-------------------------------------------|
E|-------------------------------------------|
end solo

then just play the chorus many times

outro solo (solo five)
E|-12-10-12---12-10--19-12--7-7h9h10-12-12---------|
B|-----------------------------------------12-10---|
G|-----------------------------------------------9-|
D|-------------------------------------------------|
A|-------------------------------------------------|
E|-------------------------------------------------|

E|-12-12p10p9--10p7-12-7-------------------------------------|
B|-----------------------5-----------------------------------|
G|-------------------------12h14p12--------------------------|
D|----------------------------------12h14p12-----------------|
A|-------------------------------------------12h14p12========|
E|-----------------------------------------------------------|

guitar two ending
E|-----------------------|
B|-----------------------|
G|-----------------------|
D|-----------------------|
A|-------------0-0-2---2-|
E|-0-0-2-2-3-3-------3-0-|

                                        Soul Stripper


 E|-------------------------------------------------------------------|
B|--------------------------------------------------------------------|
G|-4---2--------------------2---4---4---2--------------------2---4----|
D|-4---2---2---5-5-5-5-5-5--2---4---4---2---2---5-5-5-5-5-5--2---4----|
A|-2---0---2---5-5-5-5-5-5--0---2---2---0---2---5-5-5-5-5-5--0---2----|
E|---------0---3-3-3-3-3-3------------------0---3-3-3-3-3-3-----------|

E|-------------------------------------------------|
B|-------------------------------------------------|
G|-4--7========4--7========4--7========4--7========|
D|-------------------------------------------------|
A|-------------------------------------------------|
E|-------------------------------------------------|

intro solo (played by guitar one)
guitar two will play the following while guitar one playes the solo
E|----------------|
B|----------------|
G|----------------|
D|----------------|
A|-0---2-2========|
E|----------------|repeat this throughout the solo

guitar solo one
E|--------------------------------------------------------------|
B|------------------10------------------------------------------|
G|-7-7-4========7b9----10p9-7--------------9b10-11p9p7---7------|
D|----------------------------7h9p7========------------9---9====|
A|--------------------------------------------------------------|
E|--------------------------------------------------------------|

E|------------------------------------------------------------|
B|------------------------------------12h14p12----12-12h15p12-|
G|-7h9p7====9h10p9-9h11p9-7h9p7----------------12-------------|
D|------------------------------7h9p7-------------------------|
A|------------------------------------------------------------|
E|------------------------------------------------------------|

E|-----------------------------------------------------------------------|
B|----------12====12h17p15p14\12----------------12h13/17-12-14-15-15-15==|
G|-14p13p11----------------------15p13p11-11h15--------------------------|
D|-----------------------------------------------------------------------|
A|-----------------------------------------------------------------------|
E|-----------------------------------------------------------------------|

E|-------------------------------------------------13b14-14====|
B|-12h15p12h15p12h15p12h15p12-------11b12-12-12-12-------------|
G|----------------------------15-12----------------------------|
D|-------------------------------------------------------------|
A|-------------------------------------------------------------|
E|-------------------------------------------------------------|

E|-13b14-14-12-14-12-14-12h14====17-14-19-19====|
B|----------------------------------------------|
G|----------------------------------------------|
D|----------------------------------------------|
A|----------------------------------------------|
E|----------------------------------------------|

E|-19-18-19-18-19-18-19-19h13====19p17h19p17----------------|
B|-------------------------------------------17p15-17b19r17-|
G|----------------------------------------------------------|
D|----------------------------------------------------------|
A|----------------------------------------------------------|
E|----------------------------------------------------------|

E|----------------19-17-19-17-19-17-19-19p15p14-23-23-23====|
B|-15-17/19\17-15-------------------------------------------|
G|----------------------------------------------------------|
D|----------------------------------------------------------|
A|----------------------------------------------------------|
E|----------------------------------------------------------|

E|-19p17----17-19------------------------------------------------|
B|-------19-------------------------------9p8p7====--------------|
G|----------------7========2-2-4-4========---------9====7====----|
D|---------------------------------------------------------------|
A|-----------------------------------------------------------2/7-|
E|---------------------------------------------------------------|
end solo

verse (played by both guitars)
E|--------------------------------------------------------|
B|--------------------------------------------------------|
G|-12b13r12--------12b13r12--------14----16====12==14==16-|
D|--------------------------------------------------------|
A|--------------------------------------------------------|
E|--------------------------------------------------------|

pre-chorus (played by both guitars)
E|------------------------------------------|
B|------------------------------------------|
G|--------------------2---4---2---4---2---4-|
D|-5-5-5-5-5-5-5-5----2---4---2---4---2---4-|
A|-5-5-5-5-5-5-5-5----0---2---0---2---0---2-|
E|-3-3-3-3-3-3-3-3--------------------------|

E|------------------------------------------|
B|------------------------------------------|
G|--------------------2---4---2---4---2---4-|
D|-5-5-5-5-5-5-5-5----2---4---2---4---2---4-|
A|-5-5-5-5-5-5-5-5----0---2---0---2---0---2-|
E|-3-3-3-3-3-3-3-3--------------------------|

chorus (played by both guitars)
E|---------------------------------------|
B|---------------------------------------|
G|-4--------2-------4---4----------------|
D|-4--------2---2---4---4----------------|
A|-2--------0---2---2---2----0-4-5-6-7-0-|
E|--------------0------------------------|

E|---------------------------------------|
B|---------------------------------------|
G|-4--------2-------4---4----------------|
D|-4--------2---2---4---4----------------|
A|-2--------0---2---2---2----0-4-5-6-7-0-|
E|--------------0------------------------|

then repeat the verse, prechorus and chorus again

main solo (played by guitar one)
guitar two will play the chorus riff over the solo

guitar solo two
E|------------------------------------------|
B|-------------------------12-10-8----------|
G|---7-9--9b10r9-7-7h9p7\4---------10-8-6---|
D|-9----------------------------------------|
A|------------------------------------------|
E|------------------------------------------|

E|-------------------------------------------------------------------|
B|-10-9-7-10---------------------------------------------------------|
G|-----------10-9-7-10-----------------------15-14-12-14b15r14-15====|
D|---------------------10-9-7-10-------------------------------------|
A|-------------------------------10-9-7-10---------------------------|
E|-------------------------------------------------------------------|

E|-------------20====---------------------------------------------|
B|-18b19-19====------12-10--------10h12p10------12-10----12-10----|
G|-------------------------11--11----------11p9-------11-------11-|
D|----------------------------------------------------------------|
A|----------------------------------------------------------------|
E|----------------------------------------------------------------|

E|-----------------------------------------------------------------|
B|-12/17-15-12--15-12====14h15p14----------------------------------|
G|--------------------------------16p14h16-------------------------|
D|-----------------------------------------16-16p14h16-------------|
A|-----------------------------------------------------16-16p14h16-|
E|-----------------------------------------------------------------|

E|-------------------------------------------|
B|-------------------------15p14p12-17-17====|
G|----14-16====12b15-12b15-------------------|
D|-16----------------------------------------|
A|-------------------------------------------|
E|-------------------------------------------|

E|-------------------------------------------------------------------|
B|------------------------15/17-15p14p12-17====----------------------|
G|-----11--16-14p12----16----------------------14-16-16--14----16====|
D|-9-9--------------14--------------------------------------16-------|
A|-------------------------------------------------------------------|
E|-------------------------------------------------------------------|

E|-------------------------------------------------------------19====|
B|-------------------------------------------------------------------|
G|-15b16====16p15p14-------------------------------------------------|
D|-------------------16p15p14----------------14====14-14-14====------|
A|----------------------------16p15p14-17-14-------------------------|
E|-------------------------------------------------------------------|

E|---------------------------------------------------------------|
B|-19p17h19p17h19p17h19p17h19p17h19p17h19p17h19p17h19---12-12====|
G|---------------------------------------------------------------|
D|---------------------------------------------------------------|
A|---------------------------------------------------------------|
E|---------------------------------------------------------------|

E|-------------------------19====19-21-19----------24====24====\|
B|-12-17-12-17-12-12====\-----------------21-20-19--------------|
G|--------------------------------------------------------------|
D|--------------------------------------------------------------|
A|--------------------------------------------------------------|
E|--------------------------------------------------------------|
end solo

then guitar two will continue to play the chorus riff and the lyrics
will kick in and guitar one will play the outro solo.

guitar solo three
E|-19====17===19===19===17===19===17===16===19===17===16===19===|
B|--------------------------------------------------------------|
G|--------------------------------------------------------------|
D|--------------------------------------------------------------|
A|--------------------------------------------------------------|
E|--------------------------------------------------------------|

E|-17===16===19===17===16===19===17===16===19===17===16===19===|
B|-------------------------------------------------------------|
G|-------------------------------------------------------------|
D|-------------------------------------------------------------|
A|-------------------------------------------------------------|
E|-------------------------------------------------------------|

E|-17h19p17h19-19--------------------------------------------------|
B|----------------17h19p17h19-19-----------------------------------|
G|-------------------------------15h17p15-14-12--18b19-19p18p16p14-|
D|-----------------------------------------------------------------|
A|-----------------------------------------------------------------|
E|-----------------------------------------------------------------|

E|------------------------------------------------14-------14-------|
B|-15h17p15----15----15-12-12-12-15-15-12-12---12----12-12----12-12-|
G|----------16----16------------------------------------------------|
D|------------------------------------------------------------------|
A|------------------------------------------------------------------|
E|------------------------------------------------------------------|

E|-14h15p14----------------19-17-19--12-17h19p17h19-13-12-|
B|----------12-12-12-14b15--------------------------------|
G|--------------------------------------------------------|
D|--------------------------------------------------------|
A|--------------------------------------------------------|
E|--------------------------------------------------------|

E|-21p20h21p20h21p20h21---24---23---21---24--23-21-|
B|-------------------------------------------------|
G|-------------------------------------------------|
D|-------------------------------------------------|
A|-------------------------------------------------|
E|-------------------------------------------------|

E|-17h19h21--------------19p18-------19p18-------12-14-12-14-|
B|----------12p10----10--------19p17-------19p17-------------|
G|----------------11-----------------------------------------|
D|-----------------------------------------------------------|
A|-----------------------------------------------------------|
E|-----------------------------------------------------------|

E|-14-16p14p12--------------------------|
B|-------------15p14p12-10--12b-12b-12b-|
G|--------------------------------------|
D|--------------------------------------|
A|--------------------------------------|
E|--------------------------------------|
end solo

small ending (played by guitar one(guitar two fads out))
E|---------15\|
B|------------|
G|------------|
D|------------|
A|-0-1-2-3----|
E|------------|

                                        Baby, please don't go

 Intro
 -------------------|
 -------------------|
 -------------------|
 -------------------|
 -------------------|
 --0-0-0-0-0-0-0-0--|

 Angus
 ---------------------|
 --10/12--15----------|
 ------------15-12-9--|
 ---------------------|x4
 ---------------------|
 ---------------------|

 Malcolm
 ---------------------|
 ---------------------|
 ---------------------|
 ---------------------|x4
 -----5-2-------------|
 --/7-----3-0---------|

 Angus
 Riff A1
 -------------15------------------15---------------|
 --17b--12-15----15-12------12-15----15-12-17b-12--|
 ----------------------15b-------------------------|
 --------------------------------------------------|
 --------------------------------------------------|
 --------------------------------------------------|

 --------------------------------------------------|
 ------15--------------15--------------------------|
 --/14----14-12----/14----14-12--------------------|
 ---------------14--------------14-----------------|
 ----------------------------------14-12-----------|
 ----------------------------------------14-12-----|

 Malcolm
 Riff A2
 ----------3------------3--------------------------|
 --5b--0-3---3-0----0-3---3-0-3b-0---3----------3--|
 ----------------3b----------------/2--3-1---/2----|
 ------------------------------------------3-------|
 --------------------------------------------------|
 --------------------------------------------------|

 -----------------|
 -----------------|
 --3-1------------|
 ------3----------|
 --------2-0------|
 ------------3-0--|

 Verse

 Angus
 -----------------------|
 -----------------------|
 -----------------------|
 -----------------------|
 -----------------------|
 --14\-0-14\-0-0-14\-0--|

 Malcolm
 --------------------|
 --------------------|
 --------------------|
 --------------------|
 --------------------|
 --3/-0-3/-0-0-3/-0--|

 Both      Let Ring
 ---------------5--|
 ---------------3--|
 --2------------0--|
 --2---------------|
 --0---2-0---------|
 ----------3-0-----|

 ----------------------------------------|
 ----------------------------------------|
 ----------------------------------------|
 --2--2-3--3-4--4-5--5-6--6-7--7-8--8-9--|
 --2--2-3--3-4--4-5--5-6--6-7--7-8--8-9--|
 --0--0-1--1-2--2-3--3-4--4-5--5-6--6-7--|

 -----------------------|
 -----------------------|
 -----------------------|
 --6-7-8-9-10-11-12-13--|
 --6-7-8-9-10-11-12-13--|
 --4-5-6-7-8--9--10-11--|

 Riff A1 and A2

 Drums and bass for a couple of seconds

 Malcolm
 Play Through Solo
 ---------------|
 ---------------|
 --7-7-7-7-7h9--|
 ---------------|
 --8-8-8-8-8----|
 ---------------|

 Angus Solo
(Don't Use Picking Hand)
 Pull-Off
 --7-4-0-7-4-0-7-4-0-7-4-0-7-4-0-7-4-0-7-4-0-7-4-0--|
 ---------------------------------------------------|
 ---------------------------------------------------|
 ---------------------------------------------------|
 ---------------------------------------------------|
 ---------------------------------------------------|

 ---------------------------------------------------|
 --8-4-0-8-4-0-8-4-0-8-4-0-8-4-0-8-4-0-8-4-0-8-4-0--|
 ---------------------------------------------------|
 ---------------------------------------------------|
 ---------------------------------------------------|
 ---------------------------------------------------|

 ---------------------------------------------------|
 ---------------------------------------------------|
 --8-4-0-8-4-0-8-4-0-8-4-0--------------------------|
 --------------------------8-4-0-8-4-0-8-4-0-8-4-0--|
 ---------------------------------------------------|
 ---------------------------------------------------|

 -----------------------------------------------------|
 -----------------------------------------------------|
 -----------------------------------------------------|
 -----------------------------------------------------|
 --8-4-0-8-4-0-8-4-0-8-4-0----------------------------|
 --------------------------8-4-0-8-4-0-8-4-0-8-4-0-0--|

 ------------------------------------------------------|
 --12b-12b-12b\-----------10b-10-8p5-------------------|
 ---------------9-9-12-9\---------------------12-14-14-|
 -----------------------------------12b-17p14----------|
 ------------------------------------------------------|
 ------------------------------------------------------|

 -----------------------------------------------------|
 --12-10-12-12\-5-5-5-12-12-12-5\-5-------------------|
 -----------------------------------------------------|
 -----------------------------------------------------|
 -----------------------------------------------------|
 -----------------------------------------------------|

 Play The Pull-Off Part Of The Solo Again
17 comments total. Showing first comments.
+1 reply
ibanez87 wrote on August 4 2005, 12:00 am

dude jailbreak is sooo wrong.

0 reply
bonny500 wrote on August 11 2005, 12:00 am

yah it is wrong

0 reply
mezmerize wrote on August 20 2005, 12:00 am

yea

I want to post or [tab]
guest
You may want to rate the tab now too:
select rating
Please do not post tabs as comments. Select "correction" instead!