Oops, an error
Loading. Please wait.

Back In Black Tab

ver2
154,660 views 162 this week
22 commentsread comments
1 2 3 4 5
accurate
x 27
Autoscroll
+/-
esc
set tempo
stop
Contributor
Hey! There's an official Ultimate Guitar app which is ideal
for learning songs when you're away from computer. Get the app
WARNING: You are trying to view
                                    content from Ultimate-Guitar.com
                                    in an unauthorized application,
                                    which is prohibited.

                                    Please use an official Ultimate
                                    Guitar Tabs application for iPhone,
                                    iPad or Android to access legitimate
                                    chords, guitar, bass, and drum tabs
                                    from Ultimate-Guitar.com database.

                                    Type "ultimate guitar tabs" in Apple
                                    App Store's or Android Market's
                                    search to find the application.
I Tabbed This Out Because The First One Just Tabbed The Basic Stuff

           Back In Black Album

                                            Hells Bells

 Intro/Chorus Riff
 ---------------------|-----------------------|
 ---------------------|-----------------------|
 ---9--7---5----7-----|-9--7---5----7---------|
 --------7---5----7---|------7---5-----5-5----|
 --0-0----0---0----0-0|--0----0---0----3-2-0--|
 ---------------------|-----------------------|

 Malcolm
 ----------------|
 ----------------|
 ----------------|
 ---------5-5----|
 --0------3-2-0--|
 ----------------|

 Malcolm Doubles The Intro/ Chorus Riff

 --3-3-3-2-----------|
 --3-3-3-3-----------|
 --0-0-0-2-----------|
 --0-0-0-0--5-5------|
 -----------3-2-0----|
 --3-3-3-------------|

 Verse

 ----------------------------|
 ----------------------3-3---|
 --9-7-9--7-5-7~~~~----0-0---|
 --7-7-7--5-5-7~~~~----------|
 --------------------0-3-2---|
 ----------------------------|

 -------------------------------3--|
 ----3-3-3-3-3-3-3-3-3-3-3------3--|
 ----2-0-2-2-2-2-0-2-2-2-2----5-0--|
 --0--------------------------5-0--|
 --------------------------0--3----|
 -------------------------------3--|

 -----------------------------------------------------3--|
 -------------------------3---------------------------3--|
 --9-9-9-9-9-9-9-9-9-9----2-2--9-9-9-9-9-9-9-9-9-9----0--|
 --9-9-9-9-9-9-9-9-9-9----0-2--9-9-9-9-9-9-9-9-9-9----0--|
 --7-7-7-7-7-7-7-7-7-7--0---0--7-7-7-7-7-7-7-7-7-7--0----|
 --0-0-0-0-0-0-0-0-0-0---------0-0-0-0-0-0-0-0-0-0----3--|

 Chorus
 Play Intro/Chorus Riff X2 1/2

 ---------3-3-3-2-------------------|
 ---------3-3-3-3-------------------|
 --9-7----0-0-0-2-------------------|
 -----7---0-0-0-0--5-5--------------|
 ---0--0-----------3-2-0------------|
 ---------3-3-3---------------------|

 Solo
 e|-------------------------5---------|
B|-8-7hb-5^----------------5-7hb-7----|
G|-7-7------7-5hb------------7---7----|
D|----------------(5)h7~~~------------|
A|------------------------------------|
E|------------------------------------|

Rhy. Fig. 6         End Rhy. Fig. 6
e|---------------------------------|
B|--------------------2----[2]-----|
G|--------------------2----[2]-----|
D|--------------------2----[2]-----|
A|--------------------0----[0]-----|
E|-0----[0]------------------------|

Guitar Solo
e|--------------------------------------------------|
B|--------------------------------------------------|
G|------------------------------2---------------7fb-|
D|-5h7~~~~--4h5-5~~~~---2h4--------(4)h7--[7]-------|
A|---------------------------0----------------------|
E|--------------------------------------------------|

e|------::::::::::::::::::::::::::---------------|
B|-8----:-8-8---8-8---8-8--8-8---:---------7---5-|
G|---7fb:-7-7---7-7---7-7--7-7---:7-5p0----7---5-|
D|--------------------------------------7----7---|
A|-----------------------------------------------|
E|-----------------------------------------------|

e|------------------------------------------------------------|
B|-------8~~~~~------7-7~~~~-----------8~~~~--------10--------|
G|-(7)/9-9~~~~~---0--7-7~~~~--5--(7)/9-9~~~~-(9)/11-11-11~~-9-|
D|------------------------------------------------------------|
A|------------------------------------------------------------|
E|------------------------------------------------------------|

e|--------------------------------------------------------------|
B|----13---------13-13---------13-13----------13----13----13----|
G|-14-14-(12)/14-14-14-(13)/14-14-14-13-13-14-14-14-14-14-14-14-|
D|--------------------------------------------------------------|
A|--------------------------------------------------------------|
E|--------------------------------------------------------------|

e|-10fb~~~-----:::::::---------------------------------------|
B|-13------12fb:-[12]:--10\15--15--13----15----15~~~~-15\----|
G|-------------------------14--14-----14----14--------14\----|
D|--------------------------------------------------------16-|
A|-----------------------------------------------------------|
E|-----------------------------------------------------------|

e|---------17-------17------17fb-17fb::::-------------------------|
B|-15-17fb----17fb-----17fb-17---17--17-:17--15h18p15----15/12/15-|
G|----------------------------------------------------16----------|
D|----------------------------------------------------------------|
A|----------------------------------------------------------------|
E|----------------------------------------------------------------|

e|------------------------17------------------------------------------------17-|
B|------20fb------20---------20--17----------------------------20fb-20fb~~-----|
G|-19fb-19---19fb----19fb-----------19fbr19p17----19-19hb----------------------|
D|---------------------------------------------19---------19p17----------------|
A|-----------------------------------------------------------------------------|
E|-----------------------------------------------------------------------------|
                                                                  End Guitar Solo
e|-17-20p17------17------------20fb--20hb--17------------------------------------|
B|----------20fb----20fb-20p17----------------20p17-19fb-19----------17~~--------|
G|----------------------------------------------------------19-16-19------19-19\-|
D|-------------------------------------------------------------------------------|
A|-------------------------------------------------------------------------------|
E|-------------------------------------------------------------------------------|

Rhy. Fig 7         End Rhy. Fig. 7
e|------------------------------2-|
B|---------------------5--------3-|
G|-2------2------------5--------2-|
D|-2------2------------5--------0-|
A|-0------0------------3-----0----|
E|---3hb-------------3------------|

Outro Guitar Solo
e|------::::::17::::::---------------------------:::17::::------------------------|
B|------:--------19--:---------------------------:-----19:------------------------|
G|-19fb:-------------:19~~~~~-17~~~-19~~~-19-19fb:-------:19~~~~-17~~~-19~~~-19fb-|
D|--------------------------------------------------------------------------------|
A|--------------------------------------------------------------------------------|
E|--------------------------------------------------------------------------------|

e|------------------------------------------------------|
B|-20\--------------------------------------------------|
G|------------------------------------------------------|
D|----------------------------------------(10)h12~~~-10-|
A|----------------12-10-12~~~~---12~~-12\---------------|
E|------17-17\15\---------------------------------------|

e|---------------------------------------------------------------------|
B|-10fbr---10fb-10\-----------------------------10fbr---10fb-10\--20fb-|
G|-12---12-12---12\-17hb-----------17-----------12---12-12---12\-------|
D|-----------------------19-17h19-----19-19-19\------------------------|
A|---------------------------------------------------------------------|
E|---------------------------------------------------------------------|

e|----17---------17------::::::::-------------------------17---------------------------|
B|-20----17-20fb----17-20:--20--:20\--20fb-20fb-20fb-20fb----20-17------------------20-|
G|-----------------------------------------------------------------19fbr19p17-19fb-----|
D|-------------------------------------------------------------------------------------|
A|-------------------------------------------------------------------------------------|
E|-------------------------------------------------------------------------------------|

e|-------::::------------------------------------------------------------|
B|-------:--:20-20fb-20fb-20------------------19-17--XXXXXXXXX----2----2-|
G|-19fb~~:19:---19---19---19fbr19-19~~~-17----19-17--XXXXXXXXX7p5-2----2-|
D|-----------------------------------------19---------------------2----2-|
A|----------------------------------------------------------------0----0-|
E|------------------------------------------------------------------3hb--|


                                 Shoot To Thrill


 Intro:							Pre Chorus:
-|---------|-3-------2-------3----|----2-----------------|------------|------|
-|---------|-3-------3-------3----|----3-----------------|------------|------|
-|-------2-|-0-------2-------0----|----2-------2---------|--5-----5-5-|-5-5--|
-|-2-2---2-|-0-------0-------0----|----0-------0-----2-2-|--5-----5-5-|-5-5--|
-|-0-3-4-0-|-x--0-0--0--0-0--x--0-|-0--0--0-0-----4--0-0-|--3-5-5-3-3-|-3-3--|
-|---------|-3---------------3----|----------------------|----3-3-----|------|


--------------------|-----------|-----------------------|-------------------|
--------------------|-----------|----8--8-----8-8-----8-|-8-----8-8-----8-8-|
-5------------------|-7-------7-|----7--7-----7-7-----7-|-7-----7-7-----7-7-|
-5-------5-5--5-5-5-|-7-------7-|----6--6-----6-6-----6-|-6-----6-6-----6-6-|
-3--5-5--3-3--3-3-3-|-5--7-7--5-|----7--7-----7-7-----7-|-7-----7-7-----7-7-|
----3-3-------------|----5-5----|-0--------0-------0----|----0-------0------|

Chorus:							4x
--------------3--3---33--3-|-22--2--2222--2-2--2222-|--3--2--3--2-----------|
--------------3--3---33--3-|-33--3--3333--3-3--3333-|--3--3--3--3-----------|
-2-2-2-2------0--0---00--0-|-22--2--2222--2-2--2222-|--0--2--0--2--2--------|
-2-2-2-2------0--0---00--0-|-00--0--0000--0-0--0000-|--0--0--0--0--0---2-2--|
-0-0-0-0------x--x---xx--x-|------------------------|--x--0--x--0----3-0-0--|
-----------0--3--3---33--3-|------------------------|--3-----3--------------|

Vibrato....        Solo:
------------------|-----15-----15---------------------------15-----15-----15-|
-8-7-8-7-7--------|-15b----15b----15b----15b15-13----13-15b----15b----15b----|
-7-7-7-7-7-5------|-------------------------------14-------------------------|
-------------7-7v-|----------------------------------------------------------|
------------------|----------------------------------------------------------|
------------------|----------------------------------------------------------|


------15-15b\------17-----17-----17--17--17--17--|------------------|--------|
-15b--15-15b\--17b----17b----17b-----17b-17b-17b-|-12-12----12---12-|--------|
-------------------------------------------------|-12-12----12---12-|--------|
-------------------------------------------------|------------------|--------|
-------------------------------------------------|------------------|--------|
-------------------------------------------------|-------0-----0----|--------|

End: 2x	   1x     4x
--9-9-9-9-|-7777-|-10101010-|
-10101010-|-8888-|-10101010-|
--9-9-9-0-|-7777-|--7-7-7-7-|
----------|------|----------|
----------|------|----------|


                                          What Do You Do For Money Honey


 |------3-(3)----|-(3)--2-2--------|------3-(3)----|-(3)--2-2----------|
|------3-(3)----|-(3)--3-3-2-2----|------3-(3)----|-(3)--3-3-2-2-------|
|------0-(0)----|-(0)--2-2-2-2----|------0-(0)----|-(0)--2-2-2-2-------|
|-2----0-(0)----|-(0)--0-0-2-2----|-2----0-(0)----|-(0)--0-0-2-2-------|
|-2-------------|----------0-0----|-2-------------|----------0-0-------|
|-0----3-(3)----|-(3)-------------|-0----3-(3)----|-(3)----------------|
|-Rhy Fig 1                                           end Rhy Fig 1-|

  Gtrs I, II          Gtr I       Gtrs I, II
  Q.   E +H       +E   E E E H      Q.   E +H       +W
|------3-(3)----|-(3)--2-2--------|------3-(3)----|-(3)----|
|------3-(3)----|-(3)--3-3-2-2----|------3-(3)----|-(3)----|
|------0-(0)----|-(0)--2-2-2-2----|------0-(0)----|-(0)----|
|-2----0-(0)----|-(0)--0-0-2-2----|-2----0-(0)----|-(0)----|
|-2-------------|----------0-0----|-2-------------|--------|
|-0----3-(3)----|-(3)-------------|-0----3-(3)----|-(3)----|


  E Q  E Q  E E   Q  E E E E E E   E Q  E Q  E E   Q  E E +E  Q  E
|---------------|----------------|---------------|------3-(3)-2------||
|---------------|------3---3-----|---------------|------3-(3)-3------||
|-9----7------7-|------0---2---7s|=9----7------7-|------0-(0)-2--7s==||
|-9----7------7-|------0---0---7s|=9----7------7-|------0-(0)-0--7s==||
|-7----5------4-|--------------5s|=7----5------4-|---------------5s==||
|-0-------------|------3---2-----|---------------|------3-(3)-2--0---||
|-Rhy Fig 2                                            end Rhy Fig 2-|

   Verses
||--
||o-
||-- Rhy Fig 2
||--
||o-
||--


  E Q  E Q  E E   Q  E E E E E E   E Q  E Q  E E   E Q.   Q  Q
|---------------|----------------|---------------|---------------|
|---------------|------3---3-----|---------------|---------------|
|-9----7------6-|------0---2---7s|=9----7------6-|---------------|
|-9----7------7-|------0---0---7s|=9----7------7-|---------------|
|-7----5------4-|--------------5s|=7----5------4-|---------------|
|-0-------------|------3---2---0-|-0-------------|---0----0--0---|
|-Rhy Fig 3                                        end Rhy Fig 3-|

Rhy Fig 3


  Q.   E +Q.   E   +Q   E E +E  Q  E   Q.   E +Q.   E
|----------------|--------3-(3)-2----|------------------|
|----------------|--------3-(3)-3----|------------------|
|-9----7-(7)---7-|-(7)----0-(0)-2----|-9----7-(7)---2---|
|-9----7-(7)---7-|-(7)----0-(0)-0----|-9----7-(7)---2---|
|-7----5-(5)---4-|-(4)---------------|-7----5-(5)---0---|
|-0--------------|------3-3-(3)-2--0-|-0----------------|
|-Rhy Fig 4            end Rhy Fig 4-|-Rhy Fig 5--------|

  +E  E E E E E E E   E E E E E E E E
|-------------------|------------------||
|-------------------|------------------||
|-(2)-2-2-2-2-2-2-2-|-2-2-2-2-2-2-2-2--||
|-(2)-2-2-2-2-2-2-2-|-2-2-2-2-2-2-2-2--||
|-(0)-0-0-0-0-0-0-0-|-0-0-0-0-0-0-0-0--||
|-------------------|------------------||
                         end Rhy Fig 5-|

 Chorus
  Rhy Fig 1


  Q.   E +H       +E  E E E H      Q.   E +Q   Q    E E E E H
|------3-(3)----|-(3)-2-2--------|------3-(3)-----|---2-2--------|
|------3-(3)----|-(3)-3-3-2-2----|------3-(3)-----|---3-3-2-2----|
|------0-(0)----|-(0)-2-2-2-2----|------0-(0)-----|---2-2-2-2----|
|-2----0-(0)----|-(0)-0-0-2-2----|-2----0-(0)-----|---0-0-2-2----|
|-2-------------|---------0-0----|-2--------------|-------0-0----|
|-0----3-(3)----|-(3)------------|-0----3-(3)-----|--------------|


  1.
w/Rhy Fig 4 x2
  Gtr II
    ~~~~~~~      ~
  a Q.   E +Q.   E   +Q.    E +E  Q  E
|------------------|-------------------|
|------------------|-------------------|
|-7h9----7-(7)---6-|-(6)---------------|
|------------------|--------5-(5)-4----|
|------------------|-----------------7-|
|------------------|-------------------|

    ~~~~~~~      ~
  a Q.   E +Q.   E   +Q.    E +E  Q  E
|------------------|---------------------||
|------------------|--------------------o||
|-7h9----7-(7)---6-|-(6)-----------------||
|------------------|--------5-(5)-4------||
|------------------|-----------------7--o||
|------------------|---------------------||


  2.
  Gtr I                                           Gtr II
  E E Q  H      E E Q  H      W          Q   Q  Q  E E
|-------------|-------------|----------|--------------------||
|-------------|-------------|----------|-------------8b10===||
|-9-----------|-9-----------|-9--------|-9/-----------------||
|-9-----------|-9-----------|-9--------|-9/-----------------||
|-7-----------|-7-----------|-7--------|-7/-----------------||
|-0-----------|-0-----------|-0--------|-0/-----------------||


 Guitar Solo
  Gtr II
   ~~~~                                ~~~                  ~
                         |-3-|
  +Q      S  S S S  S  S S S S S E.   +Q    +E.   S  S  S E Q
|---------5-------------------------|--------------------------|
|-(8)r-------5-8-7--5---------------|--------------------------|
|----------------------8-7p5---7----|---------------------5----|
|----------------------------7---7--|-(7)---(7)---0h=7p=0---7--|
|-----------------------------------|--------------------------|
|-----------------------------------|--------------------------|
|
| Gtr I
|  E.  S +E    E   +E    E     Q       E. S +E  E   +E    E Q
|-----------------------------------|--------------------------|
|-----------------------------------|--------------------------|
|--------------2---(2)--------------|-----------2---(2)--------|
|--2-----------0---(0)---------2----|--2--------0---(0)-----2--|
|--0---3-(3)-------------3-----0----|--0--3-(3)-----------3-0--|
|-----------------------------------|--------------------------|
|-Rhy Fig 6                                      end Rhy Fig 6-|

w/Rhy Fig 6 x3
                                                                     ~~~~
                                                      |-3-|
  S  S S S +E  S S  S  E.   +S  S S S   S S S S  S  S S S S  Q      +Q
|-------------------------------------|-----------------------------------|
|-5------------5----------------------|-----------------------------------|
|-5------------5----------------------|-----------------------------------|
|----7-7-7-(7)---7--7--7----(7)-5h7p5-|-4h5p4-2h=4--2-0h2p0---------------|
|-------------------------------------|----------------------3b4====(3)r--|
|-------------------------------------|-----------------------------------|


       ~                           ~~~~
  E  S S +E.   S  S  S    +S  +S  +Q      S  S S S  S  S S S  S  S S S S S S S
|---------------------------------------|--------------------------------------|
|--------------5--7--7b8==(7)-(7)-(7)r--|-8--8-8-7--7--7-8-8--8--7-7-5-5-5-5-5-|
|--------------5--7--7b9==(7)-(7)-(7)r--|-9--9-9-7--7--7-9-9--9--7-7-6-6-6-6-6-|
|-5--7-7-(7)----------------------------|--------------------------------------|
|---------------------------------------|--------------------------------------|
|---------------------------------------|--------------------------------------|


  S  S S S  S  S S S  S  S S S S S S S   S  S S S  S  S S S  S  S S S S S S S
|--------------------------------------|---------------------------------------|
|-5--5-5-7--7--7-8-8--8--7-7-7-5-5-5-5-|-5--5-5-7--7--7-8-8--8--7-7-7-5-5-5-5--|
|-6--6-6-7--7--7-9-9--9--7-7-7-6-6-6-6-|-6--6-6-7--7--7-9-9--9--7-7-7-6-6-6-6--|
|--------------------------------------|---------------------------------------|
|--------------------------------------|---------------------------------------|
|--------------------------------------|---------------------------------------|


   TP    TP      TP                    TP   TP      TP
   H     H       Q    E  E +E  Q  E    H    H       Q.   E +E  Q  E
|-------------|----------3-(3)-2--0-|--0----0----|--0----3-(3)-2--0--||
|-15----14----|-12---12\-3-(3)-3--0-|-/5----3----|--2----3-(3)-3--0--||
|-16----14----|-13---13\-0-(0)-2--1-|------------|-------0-(0)-2--1--||
|-------------|----------0-(0)-0--2-|------------|-------0-(0)-0--2--||
|-------------|-------------------2-|------------|----------------2--||
|-------------|----------3-(3)-2--0-|------------|-------3-(3)-2--0--||
|
|  W            +Q.      E +E  Q  E    W           +Q.   E +E  Q  E
|--0----------|-(0)------3-(3)-2--0-|--0---------|-(0)---3-(3)-2--0--||
|--0----------|-(0)------3-(3)-3--0-|--0---------|-(0)---3-(3)-3--0--||
|--1----------|-(1)------0-(0)-2--1-|--1---------|-(1)---0-(0)-2--1--||
|--2----------|-(2)------0-(0)-0--2-|--2---------|-(2)---0-(0)-0--2--||
|--2----------|-(2)---------------2-|--2---------|-(2)------------2--||
|--0----------|-(0)------3-(3)-2--0-|--0---------|-(0)---3-(3)-2--0--||


w/Rhy Fig 4 x3
           ~~~~
   a      +H       +S    S  S  S  S  S  S  S
|-----------------------12-15-12----12-------|
|-15b17==(15)-----(15)r----------15----12-15-|
|--------------------------------------------|
|--------------------------------------------|
|--------------------------------------------|
|--------------------------------------------|


             ~~~~~~~
   S   S  S  S  +E.    +S    E   a      +E   +S    S  a       E
|-----------------------------------------------------------------|
|-----12------------------------------------------15---------15---|
|-14-----12---------------------14b16==(14)-(14)r----14b16==(14)r-|
|-----------14-(14)---(14)\---------------------------------------|
|-----------------------------------------------------------------|
|-----------------------------------------------------------------|


                                       ~~~~~~~
   S   a       E    S  a       E    S  S  +Q    S  S  S  a      +S
|----------------------------------------------12--------------------|
|-15----------15---15---------15---15-------------12-15--------------|
|-----14b16==(14)r----14b16==(14)r----14-(14)-----------14b16==(14)r-|
|--------------------------------------------------------------------|
|--------------------------------------------------------------------|
|--------------------------------------------------------------------|


          |--3--|        |--3--|
   S   S  S  S  S  S  S  S  S  S  +Q     E  a      +E
|------------------------------------------15b17==(15)--|
|-12----------------------------------------------------|
|-----15-14p12----14----12h14p12-(12)\------------------|
|--------------14----14---------------------------------|
|-------------------------------------------------------|
|-------------------------------------------------------|


   +E   +E   Q    E      +E   +S    S      +E
|-(15)r(15)-15---12b14==(12)-(12)r-14b16==(14)r-|
|-----------------------------------------------|
|-----------------------------------------------|
|-----------------------------------------------|
|-----------------------------------------------|
|-----------------------------------------------|


   S      +E    S      +E    S      +S   +Q      E  a      +E
|-14b16==(14)r-14b16==(14)r-14b16==(14)-(14)r\-----15b16==(15)-|
|--------------------------------------------------------------|
|--------------------------------------------------------------|
|--------------------------------------------------------------|
|--------------------------------------------------------------|
|--------------------------------------------------------------|

w/Rhy Fig 5
                    ~~~~~
   +E    E  a      +Q      E   a      +Q    S  S
|-(15)r-12-10b12==(10)r-------22b24==(22)--22-22-|
|------------------------------------------------|
|------------------------------------------------|
|------------------------------------------------|
|------------------------------------------------|
|------------------------------------------------|


                                                  TP    TP   TP  TP
   |---3----|  |---3---|  |---3---|  |---3---|
   E   E    E  E  E    E  E  E    E  E  E    E    Q     Q    Q   E E
|-22--22---22-22-22---22-22-22---22-22-22---22-|-22r---22S==12S==0-0--|
|----------------------------------------------|----------------------|
|----------------------------------------------|----------------------|
|----------------------------------------------|----------------------|
|----------------------------------------------|----------------------|
|----------------------------------------------|----------------------|


   Chorus
   Rhy Fig 1 x3


 Out-Chorus
  Gtr II
                                                                ~~~~
  W                W                a      +Q.     a      +E   +H
|---------------|----------------|------------------------------------|
|---------------|----------------|-15b17==(15)r---15b17==(15)-(15)----|
|---------------|----------------|------------------------------------|
|---------------|----------------|------------------------------------|
|---------------|----------------|------------------------------------|
|---------------|----------------|------------------------------------|
|
| Gtr I
| Q.   E +H       +E  E E E H               Q.             E   +H
|------3-(3)----|-(3)-2-2--------|-------------------------3---(3)----|
|------3-(3)----|-(3)-3-3-2-2----|-------------------------3---(3)----|
|------0-(0)----|-(0)-2-2-2-2----|-------------------------0---(0)----|
|-2----0-(0)----|-(0)-0-0-2-2----|----------2--------------0---(0)----|
|-2-------------|---------0-0----|----------2-------------------------|
|-0----3-(3)----|-(3)------------|----------0--------------3---(3)----|


                                 ~~~~
   +H.        E  E    S   E  S  +H.             +W
|---------------12-|-15--12-12-(12)----------|-(12)----:
|-(15)r------15----|-------------------------|---------:
|------------------|-------------------------|---------:
|------------------|-------------------------|---------:
|------------------|-------------------------|---------:
|------------------|-------------------------|---------:
|
|  +W                 Q.            E +H        +W
|--(3)-------------|--2----------------------|---------:
|--(3)-------------|--3-------------2-(2)----|---------:
|--(0)-------------|--2-------------2-(2)----|--(2)----:
|--(0)-------------|--0-------------2-(2)----|--(2)----:
|------------------|----------------0-(0)----|--(0)----:
|--(3)-------------|-------------------------|---------:


                          |--------7--------|        |--3--|
   a      +E   +E   +Q    S  S  S  S  S  S  S  S  S  S  S  S
|-15b17==(15)r(15)-(15)--12----------------------------------:
|---------------------------15p12-15p12----------------------:
|---------------------------------------15-14-14p12-14p12----:
|---------------------------------------------------------14-:
|------------------------------------------------------------:
|------------------------------------------------------------:
|
|          W
|----------0-------------------------------------------------:
|----------0-------------------------------------------------:
|----------1-------------------------------------------------:
|----------2-------------------------------------------------:
|----------2-------------------------------------------------:
|----------0-------------------------------------------------:


   |-------6-------|  |-----6-----|
   S   S  S  S  S  S  S  S  S  S  E      +E.  S  Q
|--------------------------------------------------------:
|--------------------------------------------------------:
|-14-----12----------------------------------------------:
|-----14----14p12----14----------------------------------:
|-----------------14----14p12-14--------------0----------:
|--------------------------------15b18==(15)rp0-10b12====:
|
| +W
|-(0)----------------------------------------------------:
|-(0)----------------------------------------------------:
|-(1)----------------------------------------------------:
|-(2)----------------------------------------------------:
|-(2)----------------------------------------------------:
|-(0)----------------------------------------------------:


    ~~~~~
   +W            Q   Q  H
|--------------:-------------*|
|--------------:-------------*|
|--------------:-------------*|
|--------------:-x\----------*|
|--------------:-x\----------*|
|-(10)r--------:-------------*|
|
|  +W            Q   Q  H
|--(0)---------:-0-----------*|
|--(0)---------:-0-----------*|
|--(1)---------:-1-----------*|
|--(2)---------:-2-----------*|
|--(2)---------:-2-----------*|
|--(0)---------:-0-----------*|


                                    Givin' The Dog A Bone

 Rhythm Figure 1. (Intro)
e|---------------|-----------------|-----------------|
B|---------------|-----------------|-----------------|
G|-2-2-2-2-2-2-2-|-2-2-2-2-2-2-2-2-|-2-2-2-2-2-2-2-2-|
D|-x-2-2-x-2-2-x-|-2-x-2-2-x-2-2-2-|-x-2-2-x-2-2-x-2-|
A|-3-0-0-5-0-0-3-|-0-5-0-0-3-0-0-x-|-3-0-0-5-0-0-3-0-|
E|---------------|---------------3-|-----------------|

                      Rhythm Figure 1a
end Rhythm figure 1.  with rhythm figure 1.
e|-----------------|-------------------|-----------------|-----------------|
B|-----------------|-------------------|-----------------|-----------------|
G|-2-2-2-2-2-2-2-2-|-------------------|-----------------|-----------------|
D|-2-x-2-2-x-2-2-2-|-2-2-2-2-x-2-2-2-2-|-2-x-2-2-2-2-2-2-|-2-2-2-x-2-2-2-2-|
A|-0-5-0-0-3-0-0-x-|-3-0-0-0-5-0-0-3-0-|-0-5-0-0-3-0-0-x-|-3-0-0-5-0-0-3-0-|
E|---------------3-|-------------------|---------------3-|-----------------|

End rhytm figure 1a
e|-----------------|
B|-----------------|
G|-----------------|
D|-2-x-2-2-2-2-2-2-|
A|-0-5-0-0-0-0-0-x-|
E|---------------3-|

Rhythm Figure 2. (Verse)
e|-----------------|-------------------|-------------------|
B|-------3---------|-------------------|-------3-----------|
G|-------2---------|-------------------|-------2-----------|
D|-------0-------2-|-x-2-2-x-2-x-2-----|-------0-----------|
A|-3-2-0-0-------0-|-3-0-0-5-0-3-0-----|-3-2-0-0---------0-|
E------------------|-------------------|-------------------|

e|-----------------|-------------------|-------------------|
B|-----------------|-------3-----------|-------------------|
G|-----------------|-------2-----------|-------------------|
D|-x-2-2-x-2-x-2---|-------0-----------|-x-2-2-x-2-x-2-----|
A|-3-0-0-5-0-3-0---|-3-2-0-0---------0-|-3-0-0-5-0-3-0-----|
E|-----------------|-------------------|---------------0---|

Rhythm figure 3. (Chorus)
e|-----------------|-------------------|-------------------|
B|-----------------|-------------------|-------------------|
G|-----------------|-------------------|-------------------|
D|-------2---------|-------2-----------|-------2-----------|
A|-x-2-2-0-------2-|-x-2-2-0---------2-|-x-2-2-0---------2-|
E|-3-0-0-------3-0-|-3-0-0---------3-0-|-3-0-0---------3-0-|

e|-----------------|-------------------|-------------------|
B|-----------------|-------------------|-------------------|
G|-----------------|-------------------|-------------------|
D|-------2---------|-------2-----------|-------2-----------|
A|-x-2-2-0-------2-|-x-2-2-0---------2-|-x-2-2-0---------2-|
E|-3-0-0-------3-0-|-3-0-0---------3-0-|-3-0-0---------3-0-|

                   end Rhythm Figure 3.
e|-----------------|-------------------|
B|-----------------|-------------------|
G|-----------------|-------------------|
D|-------2---------|-------2-----------|
A|-x-2-2-0-------2-|-x-2-2-0---------2-|
E|-3-0-0-------3-0-|-3-0-0---------3-0-|

(With Rhytm figures 1 & 1a (3 times)
e|-------5-5--------5----------5-|
B|-8b10--5-5--8b10--5-5--8b10--5-|
G|-------------------------------|
D|-------------------------------|
A|-------------------------------|
E|-------------------------------|

                                    (Hold Bend)
e|-5--------5-------5-5-----5-5----|-----------------------------------5-|
B|-5--8b10--5-5--8--5-5--8--5-5--8-|-8b10-(10)-(10)-(10)------5--8b10--5-|
G|---------------------------------|-------------------------------------|
D|---------------------------------|-------------------------------------|
A|---------------------------------|-------------------------------------|
E|---------------------------------|-------------------------------------|

e|-5--------5-5--8--5-5------------|
B|-5--8b10--5-5--8--5-5--8---------|
G|---------------------------------|
D|---------------------------------|
A|---------------------------------|
E|---------------------------------|


Repeat Rhythm Figure 2, then Rhythm figure 3.


Guitar Solo
e|-------------------------|---------------------5-|
B|-----8-8------8-8------8-|-8------8-8------8-8---|
G|-7b9-----7b9------7b9----|---7b9------7b9--------|
D|-------------------------|-----------------------|
A|-------------------------|-----------------------|
E|-------------------------|-----------------------|
 |
 | Rhythm Figure 4. (Play under solo)
e|-----------------|-------------------------------|
B|-----------------|-------------------------------|
G|-----------------|-------2-----------------------|
D|-x-2-2-2-2-2-2-2-|-x-2-2-0---------------------2-|
A|-3-0-0-0-0-0-0-0-|-3-0-0---------------------3-0-|
E|-----------------|-------------------------------|

e|-----------------------5-|-5-------5--------5--5--8-|
B|--------------7--------5-|-5-------5--------5--5--7-|
G|-7-pb9r7p5----7--5-------|----7b9-------------------|
D|-----------7--------7----|--------------------------|
A|-------------------------|--------------------------|
E|-------------------------|--------------------------|

e|-5------5----------8-|------5-------5---------|
B|-5------5-------5--7-|------5-------5-------8-|
G|---7b9-----7b9--5----|---------7b9-----7b9----|
D|---------------------|------------------------|
A|---------------------|------------------------|
E|---------------------|------------------------|
8
e|-8----------8----------8------|-8--8----8--8--8--8--8--12-|
B|---------8----------8---------|-8--8----8--8--8--8--8--12-|
G|----7b9--------7b9--------7b9-|-------7b9-----------------|
D|------------------------------|---------------------------|
A|------------------------------|---------------------------|
E|------------------------------|---------------------------|

e|-12-12-----------------------|---------------------------------12-|
B|-12-12--14----------------12-|-----12--------------------------12-|
G|--------14--12h13---------12-|-12--12--------------------------12-|
D|-------------------14--------|---------14p12-14---------14--------|
A|-----------------------------|------------------------------------|
E|-----------------------------|------------------------------------|
 |
 | Rhythm under solo figure 5.
e|----------------------|----------------------|
B|----------------------|----------------------|
G|----------------------|----------------------|
D|----------------------|-------2--------------|
A|-x-2-2-2--------2-2-2-|-x-2-2-0------------2-|
E|-2-0-0-0--------0-0-0-|-3-0-0------------3-0-|

e|-12---------------------------------|-------------------------------|
B|-12---------------------------------|---14--------------------15b17-|
G|-12------------------------14b16r14-|------14b15r14p12--------------|
D|-----x--14--------------------------|------------------14-----------|
A|------------------------------------|-------------------------------|
E|------------------------------------|-------------------------------|
 |
 |With Rhythm figure 5 (2 times)

e|-12----------12-12----------|-------12-----------------------------------|
B|----12-15b17-------12-15b17-|-15b17----15-12-------12h15p12---12---------|
G|----------------------------|----------------14b16----------14--12-14b16-|
D|----------------------------|--------------------------------------------|
A|----------------------------|--------------------------------------------|
E-----------------------------|--------------------------------------------|

e|------------------------------|------------------------------------------|
B|-15--15---------15---------15-|-15---------15--15---------15--15---------|
G|---------14b16------14b16-----|-----14b16----------14b16----------12-----|
D|------------------------------|---------------------------------------14-|
A|------------------------------|------------------------------------------|
E|------------------------------|------------------------------------------|

                                                   (Hold Bend)
e|------------------------|------------------------------------------------|
B|------------------------|-15--------15----15-----15----------------------|
G|-12---------14h12-14b16-|----14b16-----14b16--14b16-----------r14p12-----|
D|-----14-----------------|---------------------------------------------14-|
A|------------------------|------------------------------------------------|
E|------------------------|------------------------------------------------|
 |
 |
e|-3--------------------3-|------------------3-------------------------|
B|-3--------------------3-|------------------3-------------------------|
G|-0----------2---------0-|--------2---------0----------------2--------|
D|-0----------2---------0-|--------2---------0----------------2--------|
A|-x----------0---------x-|--------0---------x----------------0--------|
E|-3--------------------3-|------------------3-------------------------|

      (Slowly bend up-wards)
e|-----------------------------17-|----------------------------|
B|-17-----------------------------|-------------------------10-|
G|-16b17b18-----------------------|----------------------9-----|
D|--------------------------------|------------------10--------|
A|--------------------------------|-------------/12------------|
E|--------------------------------|----------------------------|
 |
 |
e|-------------------|--------------------------------------|
B|-------------------|--------------------------------------|
G|-2-----------------|------------------------------------2-|
D|-2-----------------|------------------------------------2-|
A|-0-----------------|------------------------------------0-|
E|-------------------|--------------------------------------|


Repeat Rhythm figures 1 & 1a, and then Rhythm figure 3.


Rhythm figure 6.
e|---------------------------|---------------------------------|
B|----------3----------------|----------3----------------------|
G|----2--2--2--------------2-|----2--2--2--------------------2-|
D|----2--2--0--------------2-|----2--2--0--------------------2-|
A|-3--0--0--------------3--0-|-3--0--0--------------------3--0-|
E|---------------------------|---------------------------------|

e|---------------------------|---------------------------------|
B|----------3----------------|----------3----------------------|
G|----2--2--2--------------2-|----2--2--2--------------------2-|
D|----2--2--0--------------2-|----2--2--0--------------------2-|
A|-3--0--0--------------3--0-|-3--0--0--------------------3--0-|
E|---------------------------|---------------------------------|


Now play the chorus with Rhytjm figure 6.


Outro solo
                                       (Hold bend)
e|---------------------------------|------------------------------------|
B|-------------5-8-----5-8-----5---|---8--------------------------------|
G|----5--7-7b9-----7b9-----7b9---5-|-7b9----------r7--b9r7--b9--------2-|
D|-7-------------------------------|----------------------------------2-|
A|---------------------------------|----------------------------------0-|
E|---------------------------------|------------------------------------|


                             Let Me Put My Love Into You


 e|----------------------------------------------------------------------------|
B|-----------------------------------------------------------------------------|
G|-----------------------------------------------------------------------------|
D|---5---4---5-------5---4---5-------5---4---5---4-----7-----------------------|
A|---7---5---7-------7---5---7-------7---5---7---5-----7-----------------------|
E|-----------------------------------------------------5-----------------------|
	Repeat Multi-X

e|--------------------------------------------------------------------------|
B|--------------------------------------------------------------------------|
G|--------------------------------------------------------------------------|
D|---5---4---5-------5---4---5------5---4---5-----4---------7---------------|
A|---7---5---7--7----7---5---7--7---7---5---7--7--5--5------7---------------|
E|--------------0---------------0--------------0-----0------5---------------|
	Play with Song

e|--------------------------------------------------------------------------|
B|--------------------------------------------------------------------------|
G|----------5h7p0--------------------5h7p0----------------------------------|
D|-----5h7--------7---5--5------5h7--------7--7--7--------------------------|
A|--------------------7--7--------------------7--7--------------------------|
E|--------------------------------------------5--5--------------------------|

e|--------------------------------------------------------------------------|
B|--------------------------------------------------------------------------|
G|---------5h7p0---------------------5h7p0----------------------------------|
D|----5h7--------7---5--5-------5h7--------7--7--7--------------------------|
A|-------------------7--7---------------------7--7--------------------------|
E|--------------------------------------------5--5--------------------------|

e|---------------| Chords
B|---------------|
G|----7----------|
D|----7---7------|
A|----5---7----1-|
E|--------5----0-|

SOLO

e|--------------------------------------------12----------------------------|
B|------------------------------------------12--h15p12----------------------|
G|--------------------------------^13-~13-------------14-^14-14-~12---------|
D|--14-14-14-14-14-14-14-14-14-------------------------------------~14------|
A|--------------------------------------------------------------------------|
E|--xx-xx-xx-xx-xx-xx-xx-xx-xx----------------------------------------------|


e|--------------------------------------------------------------------------|
B|--------------------------------------------------------------------------|
G|--------------------------------------------------------^14-12h14---------|
D|--14-~14--12-~12--^11~11---12--14--------------------14-----------~14-----|
A|----------------------------------12h14p12--12-10-------------------------|
E|------------------------------------------15-----12-----------------------|

e|--------------------------------------------------------------------------|
B|----^13--^12-----------15---15---15-----15.15--15.15---15.15---15.15------|
G|--------------12h14-^14--^14--^14----^14----^14-----^14-----^14-----------|
D|--14---14-----------------------------------------------------------------|
A|--------------------------------------------------------------------------|
E|--------------------------------------------------------------------------|
     note- play that last thing until it stops

e|--------------------------------------------------------------------------|
B|-------------------15-------------------------15---15---------------------|
G|--^14p12h14-----^14--14p12h14--~12---12h14-^14--^14--~14------------------|
D|------------14---------------14-------------------------------------------|
A|--------------------------------------------------------------------------|
E|--------------------------------------------------------------------------|

e|----12---12-15p12----12---12---^15-19-^15---------------------------------|
B|--12---15---------^15--^15------------------^15-15------------------------|
G|---------------------------------------------------^14-^12----------------|
D|-----------------------------------------------------------^14-~12-~11----|
A|--------------------------------------------------------------------------|
E|--------------------------------------------------------------------------|
	Mix the first few riffs around.
Refer: to Chords.

                                   Back In Black

 e|----2-2-2----------3-0-----------------2-2-2---------------------------|
B|----3-3-3--2-2-2-------3-0-------------3-3-3--2-2-2---------------------|
G|----2-2-2--2-2-2-----------2b4r2p0-----2-2-2--2-2-2---------------------|
D|-2--0-0-0--2-2-2--------------------2--0-0-0--2-2-2---------------------|
A|-2---------0-0-0--------------------2---------0-0-0---------------------|
E|-0----------------------------------0----------------7-4-7-5-7-6-7-7----|

Rhy. Fig. 2                                                                     "...back in black!"
e|----------------------|----2-------------2---------|----------------------|---------2-2-2-|
B|----------------------|-3--3--2----2--3--3--2----2-|----------------------|-3(x11)--3-3-3-|
G|----------------------|-0--2--2----2--0--2--2----2-|----------------------|-0-------2-2-2-|
D|-2---4-2-4--2---4-2-4-|-0--0--2----2--0--0--2----2-|-2---4-2-4--2---4-2-4-|-0-------0-0-0-|
A|-0-2-2-0-2--0-2-2-0-2-|-------0----0--------0----0-|-0-2-2-0-2--0-2-2-0-2-|---------------|
E|---0----------0-------|-3--------4----3--------4---|---0----------0-------|-3-------------|

Guitar Solo
e|---------------------------------------------------------|
B|---------------------------------------------------------|
G|-------------------0-2h3p2p0-2------------------7-7-7-7--|
D|-----------------2-------------2-------------------------|
A|---7~----5~---4~-------------------7~---5~---4~----------|
E|-0-----0----0--------------------0----0----0-------------|

e|----------------------------------------------------------------------|
B|---------8----------8-10h11p10p8-10-9-----------------------15--------|
G|-7b9~--9---9---9~-9-------------------9---9--12----12-14b16----14b16~-|
D|----------------------------------------9-------14--------------------|
A|-------------0--------------------------------------------------------|
E|----------------------------------------------------------------------|

e|---------------------------------------------------------|
B|-15--------------------------------------------15--------|
G|----14b16r14p12-14~-12-------12----14-12-14b16----14b16~-|
D|--------------------12-14-14----14-----------------------|
A|---------------------------------------------------------|
E|---------------------------------------------------------|

e|---------12-12---------------------------12---------------------------------------------------------|
B|------12-------15b17-15b17~--15b17-15b17----15p12----12----------15-------15------------------------|
G|14b16---------------------------------------------14----12-14b16----14b16----14b16r14p12-12----12-14|
D|--------------------------------------------------------------------------------------------14------|
A|----------------------------------------------------------------------------------------------------|
E|----------------------------------------------------------------------------------------------------|

e|----------------------------------------------------------12-------------------|
B|-------12----14-------------15-15------------------15b17~----15p12----12-------|
G|-------12----14----12-14b16----14b16r14p12-------------------------14----12----|
D|-14-14----14----14-------------------------14~--14--------------------------14-|
A|-------------------------------------------------------------------------------|
E|-------------------------------------------------------------------------------|

e|---------------0-0-0-0----0-0-0-0----------12---------------------0---0--0-0-0---------12///|
B|-2p0-0---3-5~--3/2-3-3~---2p0-2-2-------12----15b17-15-15--5-3-5--3/2-3--2p0-2---15---------|
G|-------4-----------------------------14------------------------------------------14b16------|
D|--------------------------------------------------------------------------------------------|
A|--------------------------------------------------------------------------------------------|
E|--------------------------------------------------------------------------------------------|

Rhy. Fig. 3                  Rhy. Fig. 4
e|--------------------------|--------------------------|
B|--------------------------|--------------------------|
G|--------------------------|--------------------------|
D|--------------------------|---5p4-2-4----------------|
A|---5p4-2-4----------------|-0---------3--7-4-7-5-7-6-|
E|-0---------3--7-4-7-5-7-6-|--------------------------|

Outro Guitar Solo
e|----------0-0-0-0---0-0-0-0--7--------------0-0-0-0---0-0-0-0--------12----------|
B|-5-3-5~~--3-2-2-3~--2-0-0-2--8b9---5p3-3-5--3-2-2-3~--2-0-0-2--15b17----12-15b17-|
G|---------------------------------9-----------------------------------------------|
D|---------------------------------------------------------------------------------|
A|---------------------------------------------------------------------------------|
E|---------------------------------------------------------------------------------|

e|--------------------------------------------12-12------------------15b17-15b16-|
B|-15b17-15b16-15b17-15b17-15b17-15b16-15b17--------15p12----12------------------|
G|--------------------------------------------------------14---12----------------|
D|----------------------------------------------------------------15-------------|
A|-------------------------------------------------------------------------------|
E|-------------------------------------------------------------------------------|

e|-15p12h15p12----12-------------------------------------------------------------------------------|
B|-------------15----15p12h15p12----12-------------------------------------------------------------|
G|-------------------------------15----15p12h14p12----14-------------12-12-12-12--[12][12][12][12]-|
D|-------------------------------------------------14----14p12h14p12-------------------------------|
A|-------------------------------------------------------------------------------------------------|
E|-------------------------------------------------------------------------------------------------|
Beginning to fade noticably....

e|-------------------------------------------------------------------------------|
B|-20b21----------20b21----------20-20-20-20-20-20-20-20-20-20-20-20-20-20-20-20-|
G|-------21-21-21-------21-19-21----------21----------21----------21----------21-|
D|-------------------------------------------------------------------------------|
A|-------------------------------------------------------------------------------|
E|-------------------------------------------------------------------------------|

e|-------22-------22-------22-------22-------22-|
B|-22b24----22b24----22b24----22b24----22b24----|
G|----------------------------------------------|
D|----------------------------------------------|
A|----------------------------------------------|
E|----------------------------------------------|


                       You Shook Me All Night Long

 e-----------------------------------------------------------------2------|
b-8----10--8--8----8-7-----3----------------8---10-8-8---8-7------3-------|
g-7----7---7--7--7-----7-0-2---2-2-----2-2--7---7--7-7-7-----7-0--2-------|
d------------------------------3-0-3h4-3-0------------------------0-------|
a-------------------------------------------------------------------------|
e-------------------------------------------------------------------------|

                        VERSE              Ds=D suspended
Very rythmic riff,get good timing.   Fill between Verse and chorus.
e---------------2-2--------2---2-|  |-2--2--2-2-2-3--2--3--2-|
b-3---3-3-3-3-3-3-3----3-3-3-3-3-|  |-3--3--3-3-3-3--3--3--3-|
g-0---0-0-0-0-0-2-2----0-0-2-0-2-|  |-2--2--2-2-2-2--2--2--2-|
d-0-------0---0-0-0----0-0-0-0-0-|  |-0--0--0-0-0-0--0--0--0-|
a-----3-3---3--------------------|  |------------------------|
e-3-------3---3--------3-3---3---|  |------------------------|
  G   C C G C G D D    G G D G D      D  D  D D D Ds D  Ds D

                        CHORUS
e-------------------------2----------------------|
b---3---------3-----3-----3----------3-------3---|
g---0-------0-----0---0---2--------0---0---0---0-|
d---0-------------------0-0----------------------|
a-----0-2-3-----2------------0-2-3-------2-------|
e-3-3--------------------------------------------|
    G                     D

              SOLO
e-----3----------------------------------------------------------------|
b-------3-6-----------------------------3-------------6-6-----8-8---8--|
g-5b7-------5b6r5-3---------------------3-------3---7-----7/9-----9----|
d-------------------5---5---5-3-----------5---5------------------------|
a---------------------5---------5-3---------5--------------------------|
e-----------------------------------6-3--------------------------------|

-------10-------------------------------------------15----------------|
-10b12----(12)r10-8--11b13-10b12-8---8-----19b20-------15-18----------|
-----------------------------------9----9--------------------(19)r17--|
----------------------------------------------------------------------|
----------------------------------------------------------------------|
----------------------------------------------------------------------|

--------------------------------------------------------------18b20---|
-------17-15--------18-------18---------------17-15-17-15--15---------|
-15----17-15--17b19----17b19----(19)r17-15----17-15-17-15-------------|
----17-------------------------------------17-------------------------|
----------------------------------------------------------------------|
----------------------------------------------------------------------|

-17b19--(19)r17-15-17----15-------15------------------------15----15--|
----------------------17----18b20----18------------------17----17-----|
----------------------------------------(19)r17-15-17b19--------------|
----------------------------------------------------------------------|
----------------------------------------------------------------------|
----------------------------------------------------------------------|

-15-(19)r17-15-|
---------------|
---------------|
---------------|
---------------|
---------------|

                              Have A Drink On Me

 |------------------------|---------------------|
|------8--(8)--(8)---(8)-|-(8)------(8)---------|
|-7s9-(9)-(9)--(9)---(9)-|-(9)------(9)-(9)\----|
|------------------------|----------------------|
|------------------------|----------------------|
|------------------------|----------------------|


||--------------------------------|---------------------||
||o-----8-------------------------|---------7-(7)------o||
||--7s9---9s7p5---7-5b6==(5)r-----|-5h6-----7-(7)-------||
||--------------7-------------7---|---5-----7-(7)-------||
||o-----------------------------0-|---0-0-0-0-(0)---0--o||
||--------------------------------|---------------------||


  Gtr I
|-------------------------------|---------------------|
|-----8-------------------------|---------7-(7)-------|
|-7s9---9s7p5---7-5b6==(5)r-----|-5h6-----7-(7)-------|
|-------------7-------------7---|---5-----7-(7)-------|
|-----------------------------0-|---0-0-0-0-(0)-----0-|
|-------------------------------|---------------------|
|
| Gtr II
|   <                                        <
|   PM--------------------------------------------------|
|-------------------------------|-----------------------|
|-------------------------------|-----------------------|
|---------------2-----------2-2-|---2-2-2-2--2--2-2-2---|
|---------------2-----------2-2-|---2-2-2-2--2--2-2-2---|
|---0-0-0---0---0-0---------0-0-|---0-0-0-0--0--0-0-0---|
|-------------------------------|-----------------------|


|--------------------------------|
|-----8--------------------------|
|-7s9---9s7p5---7-5b6==(5)r------|
|-------------7-------------7----|
|-----------------------------0--|
|--------------------------------|
|
|               <
|--------------------------------|
|--------------------------------|
|---2-2-2---2---2-2---------2-2--|
|---2-2-2---2---2-2---------2-2--|
|---0-0-0---0---0-0---------0-0--|
|--------------------------------|


|----------------|------------------|--------------------|
|------3-(3)-----|-------2-(2)------|---------7-(7)------|
|-2----2-(2)-----|-5---5-2-(2)------|-5h6-----7-(7)------|
|-2----0-(0)-----|-5---5-2-(2)------|---5-----7-(7)------|
|-0--0-0-(0)---0-|-3p0-3-0-(0)--0-0-|---0-0-0-0-(0)----0-|
|----------------|------------------|--------------------|
|
|                                           PM       PM|
|----------------|------------------|--------------------|
|------3-(3)-----|------------------|---------7-(7)------|
|-2----2-(2)---2-|-5---5-2-(2)------|-5h6-----7-(7)------|
|-2----0-(0)---2-|-5---5-2-(2)------|---5-----7-(7)------|
|-0--0-0-(0)---0-|-3-0-3-0-(0)--0-0-|---0-0-0-0-(0)--0-0-|
|----------------|------------------|--------------------|


|---------------------------|--------------------|-------------------|
|-----8---------------------|---------7-(7)------|-------2-(2)-------|
|-7s9---9s7p5---7-5b5.5-----|-5h6-----7-(7)------|-5---5-2-(2)-------|
|-------------7---------7---|---5-----7-(7)------|-5---5-2-(2)-------|
|-------------------------0-|---0-0-0-0-(0)----0-|-3-0-3-0-(0)----0--|
|---------------------------|--------------------|-------------------|
|
|                       PM|       PM|        PM|                PM|
|---------------------------|--------------------|-------------------|
|-----8---------------------|---------7-(7)------|-------------------|
|-7s9---9s7p5---7-5b5.5-----|-5h6-----7-(7)------|-----5-2-(2)-------|
|-------------7-7-------7-0-|---5-----7-(7)------|-5---5-2-(2)-------|
|-------------0-0-------0-0-|---0-0-0-0-(0)--0-0-|-3-0-3-0-(0)--0-0--|
|---------------------------|--------------------|-------------------|


|---------------------|---------------------------|
|---------7-(7)-------|-----8---------------------|
|-5h6-----7-(7)-------|-7s9---9s7p5---7-5b5.5-----|
|---5-----7-(7)-------|-------------7---------7---|
|---0-0-0-0-(0)----0--|-------------------------0-|
|---------------------|---------------------------|
|
|                                             PM|
|---------------------|---------------------------|
|---------7-(7)-------|-----8---------------------|
|-5h6-----7-(7)-------|-7s9---9s7p5---7-5b5.5-----|
|---5-----7-(7)-------|-------------7-7-------7---|
|---0-0-0-0-(0)---(0)-|-------------0-0-------0-0-|
|---------------------|---------------------------|


|--------------------|------------------||
|---------7-(7)------|-------2-(2)------||
|-5h6-----7-(7)------|-5---5-2-(2)------||
|---5-----7-(7)------|-5---5-2-(2)------||
|---0-0-0-0-(0)----0-|-3-0-3-0-(0)----0-||
|--------------------|------------------||
|
|     PM|        PM|     PM
|--------------------|------------------||
|---------7-(7)------|-------2-(2)------||
|-5h6-----7-(7)------|-5-----2-(2)--2-0-||
|---5-----7-(7)--0---|-5-----2-(2)------||
|---0-0-0-0-(0)--0-0-|-3-0-3-0-(0)------||
|--------------------|------------------||


   Verse 1 & 2
    $
    Gtrs I, II
           PM--------|         PM  PM         PM---------------------------|         PM  PM
||-----------------|-----------------|----------------|--------------------|
||o----------------|-----------------|----------------|-----------------o--|
||-----------------|-----------------|----------------|--------------------|
||--5--4-5---------|---5-5-4-5---7---|-5--4-5---------|---5-5-4-5---7------|
||o-0--0-0-0-0-0-0-|-0-0-0-0-0-0-0-0-|-0--0-0-0-0-0-0-|-0-0-0-0-0-0-0-0-o--|
||-----------------|-----------------|----------------|--------------------|


          PM                                                         PM  PM
|-----------------|-----------------|---------------3--|-(3)---------------|
|-----------------|-----------------|-----------3-3-3--|-(3)---------------|
|---------------2-|-----------------|-----------0-0-0--|-(0)---------------|
|-5-5-4-5---2-2-2-|---5-5-4-5---7---|-5-5-4-5---0-0-0--|-(0)-5-5-4-5---7---|
|-0-0-0-0-0-0-0-0-|-0-0-0-0-0-0-0-0-|-0-0-0-0-0--------|-----0-0-0-0-0-0-0-|
|-----------------|-----------------|-----------3-3-3--|-(3)---------------|


|---------------3--|-(3)-----------------|-2----2-(2)------|-1----3-(3)-------||
|-----------3-3-3--|-(3)-----------------|-3----3-(3)------|-1----3-(3)-------||
|-----------0-0-0--|-(0)-----------------|-2----2-(2)-2-2--|-2----0-(0)--0-0--||
|-5-5-4-5---0-0-0--|-(0)-5-5-4-5---7-0-0-|-0--0-0-(0)-0-0--|-3----0-(0)--0----||
|-0-0-0-0-0-0-0-0--|-(0)-0-0-0-0-0-0-----|-----------------|-3----------------||
|------------------|---------------------|-----------------|-1--0-3-(3)--3-0--||


 Chorus
  Gtr I
                  PM
|-------------------|---------------------------|
|---------7-(7)-----|-----8---------------------|
|-5h6-----7-(7)-----|-7s9---9s7p5---7-5b5.5-----|
|---5-----7-(7)-----|-------------7---------7---|
|---0-0-0-0-(0)---0-|-------------------------0-|
|-------------------|---------------------------|
|
| Gtr II
|                                           PM|
|-------------------|---------------------------|
|---------7-(7)-----|-----8---------------------|
|-5h6-----7-(7)-----|-7s9---9s7p5---7-5b5.5-----|
|---5-----7-(7)---7-|-------------7-7-------7-0-|
|---0-0-0-0-(0)-----|-------------0-0-------0-0-|
|-------------------|---------------------------|


|--------------------|------------------||
|---------7-(7)------|-------2-(2)------||
|-5h6-----7-(7)------|-5---5-2-(2)------||
|---5-----7-(7)------|-5---5-2-(2)------||
|---0-0-0-0-(0)----0-|-3-0-3-0-(0)----0-||
|--------------------|------------------||
|
|                        PM
|--------------------|------------------||
|---------7-(7)------|-------2-(2)------||
|---6-----7-(7)------|-5---5-2-(2)------||
|---5---0-7-(7)--0-0-|-5---5-2-(2)------||
|---0-0-0-0-(0)--0-0-|-3-0-3-0-(0)--0-0-||
|--------------------|------------------||


|-------------------|---------------------------|
|---------7-(7)-----|-----8---------------------|
|-5h6-----7-(7)-----|-7s9---9s7p5---7-5b5.5-----|
|---5-----7-(7)-----|-------------7-7-------7-0-|
|---0-0-0-0-(0)-----|-------------0-0-------0-0-|
|-------------------|---------------------------|
|
|                                           PM|
|-------------------|---------------------------|
|---------7-(7)-----|-----8---------------------|
|-5h6-----7-(7)-----|-7s9---9s7p5---7-5b5.5-----|
|---5-----7-(7)---7-|-------------7-7-------7-0-|
|---0-0-0-0-(0)-----|-------------0-0-------0-0-|
|-------------------|---------------------------|


           To Coda
     PM
|-----------------|-------------------|
|------3-(3)------|-------------------|
|-2----2-(2)------|-5-----2-(2)-------|
|-2----0-(0)--0---|-5-----2-(2)-------|
|-0--0-0-(0)----0-|-3-0-3-0-(0)--0-0--|
|-----------------|-------------------|
|
|    PM
|-----------------|-------------------|
|------3-(3)------|-------------------|
|-2----2-(2)------|-5-----2-(2)-------|
|-2----0-(0)--0---|-5-----2-(2)-------|
|-0--0-0-(0)----0-|-3-0-3-0-(0)--0-0--|
|-----------------|-------------------|


                                                               D.S. al Coda
|----------------|-------------------|-----------------|--------------------||
|----------------|-------------------|-----------------|--------------------||
|----------------|-------------------|-----------------|--------------------||
|-5--4-5-(5)-----|-----5-5-4-5---7---|-5-5-4-5-(5)-----|-----5-5-4-5---7----||
|-0--0-0-(0)--0--|-(0)-0-0-0-0-0-0-0-|-0-0-0-0-(0)--0--|-(0)-0-0-0-0-0-0-0--||
|----------------|-------------------|-----------------|--------------------||


                Guitar Solo
  &
  CACA5     E5        GA5D        G5/D     E5          G5/D  A5       G5/D
  Gtr II
  ||||| |   |     |   |||       |  |        |           |    |  |   | |
  /o/// /   /     /   ///       /  /        /           /    /  /   / /

  Gtr I
            ~~~~~~~~~                                        ~~~~~~
|-------------||-------------------------|---------------------------------|
|-------x-x-5-||-(5)----3-0--------------|------3--------------------------|
|-------------||------------2-0-2-(2)b4==|=(2)r---2pb4r(2)p0--------2-2b4==|
|-------------||-------------------------|-------------------2-(2)--0------|
|-------------||-------------------------|---------------------------------|
|-------------||-------------------------|---------------------------------|


  E5       G5  A5                      G5      G5D5        G5E5
   |       |   |   |               |   |   |   | |  |      | |
   /       /   /   /               /   /   /   / /  /      / /

                                                 ~~~~~~
|------0-0-0-----------------------------|-----------------------|
|------------3-0-3-0---------------------|---3-3-3-(3)-----5-7p5-|
|-(2)rp0-------------2-0-2b3==(2)r-2-0-2s|=4---4-------4s6-6-----|
|----------------------------------------|-----------------------|
|----------------------------------------|-----------------------|
|----------------------------------------|-----------------------|


                   G5/D A5                                          G5/D
        |           |   |          |                 |              |
        /           /   /          /                 /              /

|-----------0----------------------------------------------------------|
|-7b9==(7)r---7b9==(7)r----7b8.5==(7)r---7b8.5==(7)r----7b8.5==(7)r----|
|------------------------9-------------9--------------9--------------9-|
|----------------------------------------------------------------------|
|----------------------------------------------------------------------|
|----------------------------------------------------------------------|


  E5               G5/D A5                              G5/D
        |           |   |                 |          |   |
        /           /   /                 /          /   /

|-----------0-----------------------------0----------0------|
|-7b9==(7)r---7b9==(7)r---7b9==(7)r-7b9==(7)r--7b9==(7)r(7)-|
|-----------------------9-----------------------------------|
|-----------------------------------------------------------|
|-----------------------------------------------------------|
|-----------------------------------------------------------|


  E5      G5/D  A5                G           E5  G E5                       G5/D
  |       |     |  |          |   |       |   |   | |  |         |           |
  /       /     /  /          x   o       /   /   o /  /         /           /

                ~~~~~~~~~~~   PM                    ~~~~~~~~~~~
|-----------------------------0--------|-----------------------------------------|
|-5-8-7p5---5---5-(5)-(5)s2-----0-8b9==|=(8)r-0-0-7------------------------------|
|---------6---6-------------0----------|------0---8------------0-----------5-5---|
|--------------------------------------|------------9-(9)-(9)\---7b9==(7)r-------|
|--------------------------------------|-----------------------------------------|
|--------------------------------------|-----------------------------------------|


  E5              G5       A5                                 G5
        |         |         |     |                     |     |
        /         /         /     /                     /     /

|------------------------------------------------------------------|
|-----------5-5---5-5-----------5-5-----------5-5-----------5-7b9==|
|-7b9==(7)r-----6-----7b9==(7)r-----7b9==(7)r-----7b9==(7)r--------|
|------------------------------------------------------------------|
|------------------------------------------------------------------|
|------------------------------------------------------------------|


  E5            G5/D        A5                      G5/D   E5      G5/DA          G5
   |             |           |   |             |     |     |       |   | |      |  |
   /             /           /   /             /     /     /       /   / /      /  /

|-----7--------------7-----------7-----------7-7---------|-5--------------------------------|
|-(7)---7r-7b9==(7)r---7b9==(7)r---7b9==(7)r---7b9==(7)r-|---5-8-7-5---5-5-(5)\-------------|
|--------------------------------------------------------|-----------6----------0-14b16=====|
|--------------------------------------------------------|----------------------0-----------|
|--------------------------------------------------------|----------------------------------|
|--------------------------------------------------------|----------------------------------|


    |               |     |               |
    /               /     /               /

|----------------------------------------------------|
|-------15---------15----15---------15--(15)---------|
|-(14)r----14b16==(14)r--14-14b16==(14)-(14)r(14)-12-|
|----------------------------------------------------|
|----------------------------------------------------|
|----------------------------------------------------|


                               D5
   |        |      |   |        |            |     |   |   |    |     |
   /        /      /   /        /            /     /   /   /    /     /

                                                       ~~~~~~~~
|-------------------------15-|-15b16==(15)r------------------------------|
|-12-------------------------|--------------17p15-----15-(15)\-----------|
|--x-12----12-12-(12)s=4/----|--------------------16-----------------12--|
|-------14-------------------|---------------------------------10s14-----|
|----------------------------|-------------------------------------------|
|----------------------------|-------------------------------------------|


                                                         gr
   |            |          |            |    |    |    ||
   /            /          /            /    /    /    //

                                        ~~~~~~~~~~~~~~~
|--------------------------------------------------------||
|--------------15----------------------------------------||
|-14b16==(14)r----14b16==(14)r-14b16==(14)-(14)-(14)r\---||
|--------------------------------------------------------||
|--------------------------------------------------------||
|--------------------------------------------------------||


 adual ritard Q=122
  A5
  |            |                          |   |  |   |
  /            /                          /   /  /   /

|----------|----------------------------|-----------------|
|----------|-----8-----------7----------|-----------------|
|-2--------|-7s9---9s7p5-6---7-5--------|-2---2-(2)--2----|
|-2--------|-------------7-7-7---7-(7)\-|-2---2-(2)--2----|
|-0--------|----------------------------|-0---0-(0)--0----|
|----------|----------------------------|-----------------|


    |                        |   |  |   |
    /                        /   /  /   /

|--------------------------|---------------|
|-----8--------------------|---------------|
|-7s9---9s7-----7-5--------|-2---2-(2)--2--|
|-----------7-7-----7-(7)\-|-2---2-(2)--2--|
|--------------------------|-0---0-(0)--0--|
|--------------------------|---------------|


    |                          |       |   |   |
    /                          /       /   /   /

|--------------------------|------------------------|
|-----8---------7----------|-----8------------------|
|-7s9---9s7-----7-5--------|-7s9---9s7-----7-5------|
|-----------7-7-7---7-(7)\-|-----------7-7-7---7----|
|--------------------------|-----------0-------0----|
|--------------------------|------------------------|


    | | |   |   | | | |
    / / /   /   / / / /

                    ~
|----------------------|
|-----8----------------|
|-7s9---9s7-----7-5----|
|-----------7-7-7---7--|
|----------------------|
|----------------------|


    | | |   |     | | |   |          | | |   |   | | | |
    / / /   /     / / /   /          / / /   /   / / / /

                                                     ~
|--------------------------------|----------------------||
|-----8-------------8------------|-----8----------------||
|-7s9---9s7-----7s9---9s7--------|-7s9---9s7-----7-5----||
|-----------7-7-----------7-(7)\-|-----------7-7-7---7--||
|--------------------------------|----------------------||
|--------------------------------|----------------------||


   Outro
    gradual accelerando Q=125            1.,2.,3.
    Gtrs I, II
||-------2-(2)------|------2-(2)--------|------2-(2)------|-3----2-(2)--------||
||o------3-(3)--3---|------3-(3)--------|------3-(3)------|-3----3-(3)-------o||
||--2--2-2-(2)--2-0-|-7--0-2-(2)--2-2-2-|-2--2-2-(2)--0---|-0----2-(2)--2-----||
||--2--2-0-(0)--0-0-|-5--0-0-(0)--2-2-2-|-2--2-0-(0)--0-5-|-0----0-(0)--2-2---||
||o-0--0-0-(0)--0---|-5-----------0-----|-0--0-0-(0)----5-|------0-(0)----0--o||
||------------------|-3-----------------|---------------3-|-3--3--------------||


  4.
         A5             D5
  Gtr II
           |              |    |         |
           /              /    /         /

  Gtr I
           ~~~~~               ~~~~~~~~~~~~~~
|------------------------------------|----------------------|
|---------10-------------10--(10)----|-(10)-----------------|
|-12b14==(12)r---12b14==(12)-(12)----|-(12)r------------0---|
|------------------------------------|----------x-----x-0---|
|------------------------------------|------------14\-----0-|
|------------------------------------|--------------------0-|


         A5             D5
           |              |    |         |
           /              /    /         /

           ~~~~~          ~~~~~~~~~
|-------------------------------------|--------------------------------------------------|
|---------10-------------10--(10)-----|----13----15-14b16==(14)-(14)b17==(14)-(14)r\-0---|
|-12b14==(12)r---12b14==(12)-(12)r----|-14----14-------------------------------------0-0-|
|-------------------------------------|------------------------------------------------0-|
|-------------------------------------|--------------------------------------------------|
|-------------------------------------|--------------------------------------------------|


                                                   Free Time Q=122
         A5     A        D5
           |    |          |    |                     |
           /    o          /    /                     /

           ~~~~~                                                     ~~~~~~~
|---------------x---------10-----------------------|-----------------------:
|---------10----x-13b15==(13)-(13)r--13b15==(13)r--|-13b15===(13)--(13)----:
|-12b14==(12)r-------------------------------------|-----------------------:
|--------------------------------------------------|-----------------------:
|--------------------------------------------------|-----------------------:
|--------------------------------------------------|-----------------------:


    |                        |
    /                        /

 ~~~~~~~                                                                             ~~~~
|-----------10-10-10s15----:--------------------------------------------------------------:
|-(13)r--10----------------:---13b15===(13)-(13)r-13b15==(13)r-13b15==(13)r-13b15==(13)---:
|--------------------------:--------------------------------------------------------------:
|--------------------------:--------------------------------------------------------------:
|--------------------------:--------------------------------------------------------------:
|--------------------------:--------------------------------------------------------------:


                            A5
    |                         |   |             |             |
    /                         /   /             /             /

                                                                        ~~~~~
|----------------------------------------------------------------------------:
|-(13)r-13b15==(13)r-15b17==(15)r--15b17==(15)r--15b17==(15)r--15b17==(15)r--:
|----------------------------------------------------------------------------:
|----------------------------------------------------------------------------:
|----------------------------------------------------------------------------:
|----------------------------------------------------------------------------:


         |                                 |                     |     ||
         /                                 /                     /     //

         ~~~~                                    PM--|           ~~~~
|----------------5-----------------------:-----------------------------------*|
|-8b10==(8)r---8---8p7p5---7p5---7-------:-0---------------------------------*|
|------------------------0-7p5-x-7p5h7p5-:-0-2p0-----------------------------*|
|------------------------------3---------:-------2p0---5b7==(5)-(5)r---------*|
|----------------------------------------:-----------3-----------------------*|
|----------------------------------------:---------------------------xs=0----*|


                                        Shake A Leg

 e|----------------------------------------------------------------------------|
B|-----------------------------------------------------------------------------|
G|-----------------------------------------------------------------------------|
D|-----2---------2-------2---2-------------------------------------------------|
A|-2---0-2---2---0-2--2--0-2-0-2---2-------------------------------------------|
E|-0-----0---0-----0--0----0---0---0-------------------------------------------|

2nd Intro

e|--------------------------------------------------------------------------|
B|--------------------------------------------------------------------------|
G|--------------------------------------------------------------------------|
D|--------------------------------------------------------------------------|
A|-2----2-------2-2-----4-4-2-5-5-4-----------------------------------------|
E|-0-3^-0---3/5-----3/5-----------------------------------------------------|

Verse x2

e|--------------------------------------------------------------------------|
B|--------------------------------------------------------------------------|
G|--------------------------------------------------------------------------|
D|--------------------------------------------------------------------------|
A|-2--2-2-2-2-2-2-2-2--2----2------2-2-----4-4-2-5-5-4----------------------|
E|-0--0-0-0-0-0-0-0-0--0-3^-0--3/5-----3/5----------------------------------|

Change In verse x1

e|--------------------------------------------------------------------------|
B|--------------------------------------------------------------------------|
G|--------------------------------------------------------------------------|
D|-2--2-2-2-2-2-2-2-2--2----2------2-2-----4-4-2-5-5-4----------------------|
A|-0--0-0-0-0-0-0-0-0--0-3^-0--3/5-----3/5----------------------------------|
E|--------------------------------------------------------------------------|

Then Back Into The Normal Verse x1...... Then.........

Chorus x 3

e|----------------------------------------------------------------------------|
B|----------------------------------------------------------------------------|
G|----------------------------------------------------------------------------|
D|-9-9---9--------------------------------------------------------------------|
A|-7-7-9-7-9------------------------------------------------------------------|
E|-----7---7------------------------------------------------------------------|

End Of Chorus x1

e|--------------------------------------------------------------------------|
B|--------------------------------------------------------------------------|
G|--------------------------------------------------------------------------|
D|-9-9---9---9-9---9---9----------------------------------------------------|
A|-7-7-9-7-9-7-7-9-7-9-7----------------------------------------------------|
E|-----7---7-----7---7------------------------------------------------------|

Bit Before Solo x2

e|--------------------------------------------------------------------------|
B|--------------------------------------------------------------------------|
G|--------------------------------------------------------------------------|
D|--------------------------------------------------------------------------|
A|--x~~~~~--2-----2-2----2-2----2-2----2-2----2-----------------------------|
E|--x~~~~~--0--3^-0-0-3^-0-0-3^-0-0-3^-0-0-3^-0-----------------------------|

Solo

e|--------------------------------------------------------------------------|
B|-17-17-----17-17----17-17-------------------------------------------------|
G|-17-17-----17-17----17-17-------------------------------------------------|
D|-------19--------19-------19--17^-17^-------------------------------------|
A|------------------------------17^-17^-------------------------------------|
E|--------------------------------------------------------------------------|

e|--------------------------------------------------------------------------|
B|-17-17----------17-17-----------17-17-----------20^-20^-------------------|
G|-17-17----------17-17-----------17-17-----------19^-19^-------------------|
D|-------19-17-19-------19-17-19--------19-17-19----------------------------|
A|--------------------------------------------------------------------------|
E|--------------------------------------------------------------------------|

e|-----17--------17---------17----------------------------------------------|
B|-20^----20-20^----20-20^-----20-17----------------------------------------|
G|-----------------------------------20\19----19-17-------------------------|
D|-----------------------------------------19-------------------------------|
A|--------------------------------------------------------------------------|
E|--------------------------------------------------------------------------|

e|--------------------17h20p17----17h20p17-----17h20p17-----17h20p17--------|
B|-17/19-17--17/19-17----------20----------20-----------20-----------20-----|
G|-17/19-17--17/19-17-------------------------------------------------------|
D|--------------------------------------------------------------------------|
A|--------------------------------------------------------------------------|
E|--------------------------------------------------------------------------|

e|-17h20p17----17---------------17------------------------------------------|
B|----------20----20-17-17--20^----20-17----20-17---------------------------|
G|---------------------------------------20-20-17-20-17/20\17----17---------|
D|------------------------------------------------------------20----20------|
A|--------------------------------------------------------------------------|
E|--------------------------------------------------------------------------|

e|--------------------------------------------------------------------------|
B|--------------------------------------------------------------------------|
G|--------------------------------------------------------------------------|
D|-------17----20-17----------17--------------------------------------------|
A|-17h20----17-------20-17-20----20-17\15-----------------------------------|
E|----------------------------------------17--------------------------------|

e|--------------------------------------------------------------------------|
B|--------------------------------------------------------------------------|
G|---16-{16-16-16-16-16-16-16-16-16-16-16-16-16^}---------------------------|
D|--------------------------------------------------------------------------|
A|--------------------------------------------------------------------------|
E|--------------------------------------------------------------------------|

e|--------------------------------------------------------------------------|
B|-12p7h10-12p7h10-12p7h10-12p7h10-13p7h10-13p7h10-13p7h10-13p7h10-14p7h10--|
G|--------------------------------------------------------------------------|
D|--------------------------------------------------------------------------|
A|--------------------------------------------------------------------------|
E|--------------------------------------------------------------------------|

e|--------------------------------------------------------------------------|
B|-14p7h10-14p7h10-14p7h10-15p7h10-15p7h10-15p7h10-15p7h10------------------|
G|--------------------------------------------------------------------------|
D|--------------------------------------------------------------------------|
A|--------------------------------------------------------------------------|
E|--------------------------------------------------------------------------|

                       Rock And Roll Ain't Noise Pollution

 E-------------||------------------|------------------|--------------------------|
B--0---2---3--||---2---2---3------|-------0---2---3--|---2---2---3---------------|
G--1---2---4--||.--2---2---4------|-------1---2---4--|---2---2---4------9\\-.----|
D-------------||.-----------------|---2--------------|------------------9\\-.----|
A-------------||---0---0---0------|---2--------------|---0---0---0------7\\------|
E-------------||---------------3--|---0--------------|---------------3--0--------|


E--------------|-------------------|-------------------|------------------|
B--0---2---3---|----2---2---3------|--------0---2---3--|---2---2----------|
G--1---2---4---|----2---2---4------|--------1---2---4--|---2---2-------1--|
D--------------|-------------------|---2---------------|---------------2--|
A--------------|----0---0---0------|---2---------------|---0---0-------2--|
E--------------|----------------3--|---0---------------|-----------3---0--|


E--------------|------------------|------------------|------------------------|
B--0---2---3---|---2---2---3------|-------0---2---3--|---2---2---3------------|
G--1---2---4---|---2---2---4------|-------1---2---4--|---2---2---4------9\\---|
D--------------|------------------|---2--------------|------------------9\\---|
A--------------|---0---0---0------|---2--------------|---0---0---0------7\\---|
E--------------|---------------3--|---0--------------|---------------3--0-----|


E--------------|------------------|------------------|------------------------|
B--0---2---3---|---2---2---3------|-------0---2---3--|---2---2---3------------|
G--1---2---4---|---2---2---4------|-------1---2---4--|---2---2---4------9-----|
D--------------|------------------|---2--------------|------------------9-----|
A--------------|---0---0---0------|---2--------------|---0---0---0------7-----|
E--------------|---------------3--|---0--------------|---------------3--0-----|

  Heavy decibels are playin on my guitar. We got vibrations comin up from the
E-----|---------------------|-----------------------|-------------------------|
B-----|---------------------|-----------------------|-------------------------|
G-----|-------------------2-|--------------------9--|-----------------2-------|
D--2--|-------------------2-|--2---4---2----9----9--|-----------------2-------|
A--2--|---2---4---5-------0-|--0---0---0----9\11----|-2---4---2-------0-------|
E--0--|---0---0---0---3-----|-----------------------|-0---0---0---3-----------|

         Well just listenin 2 the rock that's givin 2 much noise.     Are U
E---------------------|----------------------|--------------------------------|
B---------------------|----------------------|--------------------------------|
G--------------4------|-------------------2--|--------------------4---4-------|
D--2---4---2-------6--|-------------------2--|-----4---2------------6---6-----|
A--0---0---0----------|--2---4----5-------0--|-----0---0----------------------|
E---------------------|--0---0----0---3------|--------------------------------|

  deaf, U wanna hear some more.                 We're just
E----------------------------|-------------------------------|
B----------------------------|-------------------------------|
G-------------------------2--|---2---------2----2------------|
D-------------------------2--|---2----4----2----2----4-------|
A--2-----4-----2----------0--|---0----0----0----0----0-------|
E--0-----0-----0-----3-------|----------------------------0--|


   talkin'  about  the future,       forget   about   the   past.        It'll
E---------------------------------------|-------------------------------------|
B----------------------3----------------|----4--------------------------------|
G--------9-------------2----------------|----4--------------9-----------------|
D--------9-------------0----------------|----4--------------9-----------------|
A--------7-------------0-------------2--|----2--------------7--------------7--|
E--------0------------------------------|-------------------0--------------0--|

     Always    be    with   us.    It's   never   gonna    die
E-------------------------------------|---------------------------------------|
B---------------------3------------4--|---4---4---4---4---4---4---4---4-------|
G----9----------------2------------4--|---4---4---4---4---4---4---4---4-------|
D----9----------------0------------4--|---4---4---4---4---4---4---4---4-------|
A----7----------------0------------2--|---2---2---2---2---2---2---2---2-------|
E----0--------------------------------|---------------------------------------|

     Never   gonna   die.   Rock'N'   Roll    ain't  Noise  Pollution.
E----------------------------------------|------------------------------------|
B----4-------4-------4------1----2----3--|----2------2------3-----------------|
G----4-------4-------4------0----2----4--|----2------2------4-----------9-----|
D----4-------4-------4-------------------|----2------2------------------9-----|
A----2-------2-------2-------------------|----0------0------0-----------7-----|
E----------------------------------------|-------------------------3----0-----|

  Rock'n'  Roll   Ain't gonna   die         Rock'n' Roll Ain't noise pollution
E--------------|-------------------|-------------------|---------------------|
B--0---2---3---|----2---2---3------|--------0---2---3--|---2---2---3---------|
G--1---2---4---|----2---2---4------|--------1---2---4--|---2---2---4------1--|
D--------------|----2---2----------|---2---------------|---2---2----------2--|
A--------------|----0---0---0------|---2---------------|---0---0----------2--|
E--------------|----------------3--|---0---------------|--------------3---0--|

  Rock'n'  Roll     It  will   survive. Yes it will
E--------------|--------------------|------------------||
B--0---2---3---|----2---2-----------|------------------||
G--1---2---4---|----2---2-------9^^-|-^^^^^^^^^^^-----.||
D--------------|----2---2-------9^^-|-^^^^^^^^^^^-----.||
A--------------|----0---0-------7^^-|-^^^^^^^^^^^------||
E--------------|------------3---0---|------------------||


  I took a look inside your bedroom door.   You look so good lyin'on your bed
E-----|---------------------|-----------------------|-------------------------|
B-----|---------------------|-----------------------|-------------------------|
G-----|-------------------2-|--------------------9--|-----------------2-------|
D--2--|-------------------2-|--2---4---2----9----9--|-----------------2-------|
A--2--|---2---4---5-------0-|--0---0---0----9\11----|-2---4---2-------0-------|
E--0--|---0---0---0---3-----|-----------------------|-0---0---0---3-----------|

          Well I asked U if U wanted any rhythm and love. You said you
E---------------------|----------------------|--------------------------------|
B---------------------|----------------------|--------------------------------|
G--------------4------|-------------------2--|--------------------4---4-------|
D--2---4---2-------6--|-------------------2--|-----4---2------------6---6-----|
A--0---0---0----------|--2---4----5-------0--|-----0---0----------------------|
E---------------------|--0---0----0---3------|--------------------------------|

  wanna Rock 'n' Roll Instead.                 We're just
E----------------------------|-------------------------------|
B----------------------------|-------------------------------|
G-------------------------2--|---2---------2----2------------|
D-------------------------2--|---2----4----2----2----4-------|
A--2-----4-----2----------0--|---0----0----0----0----0-------|
E--0-----0-----0-----3-------|----------------------------0--|


   talkin'  about  the future,       forget   about   the   past.        It'll
E---------------------------------------|-------------------------------------|
B----------------------3----------------|----4--------------------------------|
G--------9-------------2----------------|----4--------------9-----------------|
D--------9-------------0----------------|----4--------------9-----------------|
A--------7-------------0-------------2--|----2--------------7--------------7--|
E--------0------------------------------|-------------------0--------------0--|

     Always    be    with   us.    It's   never   gonna    die
E-------------------------------------|---------------------------------------|
B---------------------3------------4--|---4---4---4---4---4---4---4---4-------|
G----9----------------2------------4--|---4---4---4---4---4---4---4---4-------|
D----9----------------0------------4--|---4---4---4---4---4---4---4---4-------|
A----7----------------0------------2--|---2---2---2---2---2---2---2---2-------|
E----0--------------------------------|---------------------------------------|


     Never   gonna   die.   Rock'N'   Roll    ain't  Noise  Pollution.
E----------------------------------------|------------------------------------|
B----4-------4-------4------1----2----3--|----2------2------3-----------------|
G----4-------4-------4------0----2----4--|----2------2------4-----------9-----|
D----4-------4-------4-------------------|----2------2------------------9-----|
A----2-------2-------2-------------------|----0------0------0-----------7-----|
E----------------------------------------|-------------------------3----0-----|

  Rock'n'  Roll   Ain't gonna   die         Rock'n' Roll Ain't noise pollution
E--------------|-------------------|-------------------|---------------------|
B--0---2---3---|----2---2---3------|--------0---2---3--|---2---2---3---------|
G--1---2---4---|----2---2---4------|--------1---2---4--|---2---2---4------1--|
D--------------|----2---2----------|---2---------------|---2---2----------2--|
A--------------|----0---0---0------|---2---------------|---0---0----------2--|
E--------------|----------------3--|---0---------------|--------------3---0--|

  Rock'n'  Roll     It  will   survive. Yes it will
E--------------|--------------------|------------------||
B--0---2---3---|----2---2-----------|------------------||
G--1---2---4---|----2---2-------9^^-|-^^^^^^^^^^^-----.||
D--------------|----2---2-------9^^-|-^^^^^^^^^^^-----.||
A--------------|----0---0-------7^^-|-^^^^^^^^^^^------||
E--------------|------------3---0---|------------------||

 (Solo)
E------------------------------------------------------------------------------|
B--------------2--2^^----2--2^^--------5------\8--8--8-----------9--9\---------|
G--2(4)2--\4---3--3^^----2--2^^----\6-----6---\9--9--9---9-9--9-----9\---------|
D-------------------------------------------------------------------9\---------|
A------------------------------------------------------------------------------|
E------------------------------------------------------------------------------|


E----------------------------------------------------------12--12--15-\\-------|
B----------9--9------------15------------------15----------12--12--14-\\-------|
G----------9--9----14(16)------(16)14--12--14------14--12----------------------|
D---11__9--9--9----------------------------------------------------------------|
A------------------------------------------------------------------------------|
E------------------------------------------------------------------------------|


E-----------------------------------------------------------------------------|
B---15------------------------------------------------------------------------|
G---14------------------------------------------------------------------------|
D-----------------------------------------------------------------------------|
A-----------------------------------------------------------------------------|
E-----------------------------------------------------------------------------|
comments
print report bad tab
22 comments total. Showing first comments. show 1 bad comment
0 reply
buddyhimself wrote on July 26 2005, 12:00 am

on black in black song, did u use power tab editor and export the ASCII file?

0 reply
karateguy29 wrote on July 26 2005, 12:00 am

everything seems to be in order, it's better than the other back in black album tab, a minor mistake in the song back in black, but everyone maakes a few, good job tho.

I want to post or [tab]
guest
You may want to rate the tab now too:
select rating
Please do not post tabs as comments. Select "correction" instead!