Oops, an error
Loading. Please wait.

Back In Black Bass Tab

ver7
ver7

Album

More versions @911Tabs.com
8,727 views 18 this week
2 commentsread comments
1 2 3 4 5
worth learning
x 3
add to favorites launch autoscroll
font size
0
reset
Autoscroll
+/-
esc
set tempo
stop
WARNING: You are trying to view
                                    content from Ultimate-Guitar.com
                                    in an unauthorized application,
                                    which is prohibited.

                                    Please use an official Ultimate
                                    Guitar Tabs application for iPhone,
                                    iPad or Android to access legitimate
                                    chords, guitar, bass, and drum tabs
                                    from Ultimate-Guitar.com database.

                                    Type "ultimate guitar tabs" in Apple
                                    App Store's or Android Market's
                                    search to find the application.
AC/DC-Back in Black (Album)
Recorded: April-May 1980
Released: July 25, 1980

================================================
TAB INFORMATION, CONTACT DETAILS
================================================

Transcribed by: Alex M. (playinbass1432)
Email: playinbass1432@hotmail.com
Site: www.ultimate-guitar.com
Date of transcription: May 2nd-June 22nd, 2008

================================================
PLEASE RATE AND COMMENT!!!
================================================

TRACK LISTING:

1. Hells Bells (5:12)
2. Shoot to Thrill (5:17)
3. What Do You Do For Money Honey (3:35)
4. Givin the Dog a Bone (3:31)
5. Let Me Put My Love Into You (4:15)
6. Back in Black (4:15)
7. You Shook Me All Night Long (3:30)
8. Have a Drink on Me (3:58)
9. Shake a Leg (4:05)
10. Rock 'n' Roll Ain't Noise Pollution (4:26)

All songs wirtten by Young, Young Johnson
All songs in standard tuning, except where noted

================================================
1. HELLS BELLS
================================================

Intro: (Start counting at 0:46)

             C B A                                   A
G|-----------------|-----------------|-----------------|-----------------|
D|-----------------|-----------------|-----------------|-----------------|
A|-----------3-2---|-----------------|-----------------|-----------------|
E|---------------5-|-----------------|---------------5-|-----------------|

             C B A
G|-----------------|-----------------|-----------------|-----------------|
D|-----------------|-----------------|-----------------|-----------------|
A|-----------3-2---|-----------------|-----------------|-----------------|
E|---------------5-|-5-5-5-5-5-5-5-5-|-5-5-5-5-5-5-5-5-|-5-5-5-5-5-5-5-5-|

   A         C B A                                                     G
G|-----------------|-----------------|-----------------|-----------------|
D|-----------------|-----------------|-----------------|------------57---|
A|-----------3-2---|-----------------|-----------------|----------57-----|
E|-5-5-5-5-5-----5-|-5-5-5-5-5-5-5-5-|-5-5-5-5-5-5-5-5-|-5-5-5-5-5-----3-|

     G   D   C B A
G|-----------------|
D|-----------------|
A|-------5---3-2---|
E|---3-3---------5-|

Pre Verse 1:

   A             D           C   B     A             D           C   B
G|-----------------|-----------------|-----------------|-----------------|
D|-----------------|-----------------|-----------------|-----------------|
A|---------------5-|-5-5-5-5-3---2---|---------------5-|-5-5-5-5-3---2---|
E|-5-5-5-5-5-5-5---|-----------------|-5-5-5-5-5-5-5---|-----------------|

Verse 1:

   A             D           C   B     A             D           C   B
G|-----------------|-----------------|-----------------|-----------------|
D|-----------------|-----------------|-----------------|-----------------|
A|---------------5-|-5-5-5-5-3-3-2-2-|---------------5-|-5-5-5-5-3-3-2-2-|
E|-5-5-5-5-5-5-5---|-----------------|-5-5-5-5-5-5-5---|-----------------|

   A             D           C   B     A             D           C   B
G|-----------------|-----------------|-----------------|-----------------|
D|-----------------|-----------------|-----------------|-----------------|
A|---------------5-|-5-5-5-5-3-3-2-2-|---------------5-|-5-5-5-5-3---2---|
E|-5-5-5-5-5-5-5---|-----------------|-5-5-5-5-5-5-5---|-----------------|

Pre Chorus 1:

   D                         C   G     D                         C   G
G|-----------------|-----------------|-----------------|-----------------|
D|-----------------|-----------------|-----------------|-----------------|
A|-5-5-5-5-5-5-5-5-|-5-5-5-5-3-------|-5-5-5-5-5-5-5-5-|-5-5-5-5-3-------|
E|-----------------|-------------3---|-----------------|-------------3---|

   E                         D   A     E
G|-----------------|-----------------|-----------------|-----------------|
D|-----------------|-----------------|-----------------|-----------------|
A|-7-7-7-7-7-7-7-7-|-7-7-7-7-5-------|-----------------|-----------------|
E|-----------------|-------------5---|-0-0-0-0-0-0-0-0-|-0-0-0-0-2-2-3b--|

Chorus 1:

   A                                                               C B A
G|-----------------|-----------------|-----------------|-----------------|
D|-----------------|-----------------|-----------------|-----------------|
A|-----------------|-----------------|-----------------|-----------3-2---|
E|-5-5-5-5-5-5-5-5-|-5-5-5-5-5-5-5-5-|-5-5-5-5-5-5-5-5-|-5-5-5-5-5-----5-|

   A                                                 G     G   D   C B A
G|-----------------|-----------------|-----------------|-----------------|
D|-----------------|-----------------|----------/7-7---|-----------------|
A|-----------------|-----------------|-----------------|-------5\--3-2---|
E|-5-5-5-5-5-5-5-5-|-5-5-5-5-5-5-5-5-|-5-5-5-5-------3-|---3-3---------5-|

Pre Verse 2:

   A             D           C   B     A             D           C   B
G|-----------------|-----------------|-----------------|-----------------|
D|-----------------|-----------------|-----------------|-----------------|
A|---------------5-|-5-5-5-5-3---2---|---------------5-|-5-5-5-5-3---2---|
E|-5-5-5-5-5-5-5---|-----------------|-5-5-5-5-5-5-5---|-----------------|

Verse 2:

   A                 D       C   B     A             D           C   B
G|-----------------|-----------------|-----------------|-----------------|
D|-----------------|-----------------|-----------------|-----------------|
A|---------------3/|-5-5-5-5-3-3-2-2-|---------------3/|-5-5-5-5-3-3-2-2-|
E|-5-5-5-5-5-5-5---|-----------------|-5-5-5-5-5-5-5---|-----------------|

   A             D           C   B     A             D           C   B
G|-----------------|-----------------|-----------------|-----------------|
D|-----------------|-----------------|-----------------|-----------------|
A|---------------5-|-5-5-5-5-3-3-2-2-|---------------5-|-5-5-5-5-3---2---|
E|-5-5-5-5-5-5-5---|-----------------|-5-5-5-5-5-5-5---|-----------------|

Pre Chorus 2:

   D                         C   G     D                         C   G
G|-----------------|-----------------|-----------------|-----------------|
D|-----------------|-----------------|-----------------|-----------------|
A|-5-5-5-5-5-5-5-5-|-5-5-5-5-3-------|/5-5-5-5-5-5-5-5-|-5-5-5\--3-------|
E|-----------------|-------------3---|-----------------|-------------3---|

   E                         D   A     E                         4
G|-----------------|-----------------|-----------------|-----------------|
D|-----------------|-----------------|-----------------|-----------------|
A|-7-7-7-7-7-7-7-7-|-7-7-7-7-5-------|-----------------|-----------------|
E|-----------------|-------------5---|-0-0-0-0-0-0-0-0-|-0-0-0-0-2-2-3-3-|

Chorus 2:

   A                                                               C B A
G|-----------------|-----------------|-----------------|-----------------|
D|-----------------|-----------------|-----------------|-----------------|
A|-----------------|-----------------|-----------------|-----------3-2---|
E|-5-5-5-5-5-5-5-5-|-5-5-5-5-5-5-5-5-|-5-5-5-5-5-5-5-5-|-5-5-5-5-5-----5-|

   A                                                 G     G   D   C B A
G|-----------------|-----------------|-----------------|-----------------|
D|-----------------|-----------------|-----------------|-----------------|
A|-----------------|-----------------|-----------------|-------5---3-2---|
E|-5-5-5-5-5-5-5-5-|-5-5-5-5-5-5-5-5-|-5-5-5-5-5-5-5-3-|---3-3---------5-|

Bridge:

   A
G|-----------------|-----------------|-----------------|-----------------|
D|-----------------|-----------------|-----------------|-----------------|
A|-----------------|-----------------|-----------------|-----------------|
E|-5-5-5-5-5-5-5-5-|-5-5-5-5-5-5-5-5-|-5-5-5-5-5-5-5-5-|-5-5-5-5-5-5-5-5-|

Guitar Solo:

   A G A         C         D           A G A         C         D
G|-----------------|-----------------|-----------------|-----------------|
D|-----------------|-----------------|-----------------|-----------------|
A|---------------3-|-------5---------|---------------3-|-------5---------|
E|-5-3-5-----------|-----------------|-5-3-5-----------|-----------------|

   A G A         C         D           A G A         C         D
G|-----------------|-----------------|-----------------|-----------------|
D|-----------------|-----------------|-----------------|-----------------|
A|---------------3-|-------5---5-5---|---------------3-|-------5-5-5-5-5-|
E|-5-3-5-----------|-----------------|-5-3-5-----------|-----------------|

   D   C D     C D           C   G     D   C D     C D           C   G
G|-----------------|-----------------|-----------------|-----------------|
D|-----------------|-----------------|-----------------|-----------------|
A|-5-5-3-5-5-5-3-5-|-5-5-5-5-3-3-----|-5-5-3-5-5-5-3-5-|-5-5-5-5-3-3-----|
E|-----------------|-------------3---|-----------------|-------------3---|

   E   D E     D E           D   A     E
G|-----------------|-----------------|-----------------|-----------------|
D|-----------------|-----------------|-----------------|-----------------|
A|-7-7-5-7-7-7-5-7-|-7-7-7-7-5-------|-----------------|-----------------|
E|-----------------|-------------5---|-0-0-0-0-0-0-0-0-|-0-0-0-1-2-2-3-3-|

Chorus 3:

   A                                                               C B A
G|-----------------|-----------------|-----------------|-----------------|
D|-----------------|-----------------|-----------------|-----------------|
A|-----------------|-----------------|-----------------|-----------3-2---|
E|-5-5-5-5-5-5-5-5-|-5-5-5-5-5-5-5-5-|-5-5-5-5-5-5-5-5-|-5-5-5-5-5-----5-|

   A                                                 C     C   D   C B A
G|-----------------|-----------------|-----------------|-----------------|
D|-----------------|-----------------|-----------------|-----------------|
A|-----------------|-----------------|---------------3-|---3-3-5---3-2---|
E|-5-5-5-5-5-5-5-5-|-5-5-5-5-5-5-5-5-|-5-5-5-5-5-5-5---|---------------5-|

   A                                                 C     C   D   C B A
G|-----------------|-----------------|-----------------|-----------------|
D|-----------------|----------------7|-----------------|-----------------|
A|-----------------|-----------7/10--|---------------3-|---3-3-5---3-2---|
E|-5-5-5-5-5-5-5-5-|-5-5-5-5-5-------|-5-5-5-5-5-5-5---|---------------5-|

   A                                                 C     C   D   D
G|-----------------|-----------------|-----------------|-----------------|
D|-----------------|-----------------|------------57---|-----------------|
A|-----------------|-----------------|----------57---3-|---3-3-5---5-5-5-|
E|-5-5-5-5-5-5-5-5-|-5-5-5-5-5-5-5-5-|-5-5-5-5-5-------|-----------------|

Outro:

   A G A         C         D           A G A         C         D
G|-----------------|-----------------|-----------------|-----------------|
D|-----------------|-----------------|-----------------|-----------------|
A|---------------3-|-------5---------|---------------3-|-------5---------|
E|-5-3-5-----------|-----------------|-5-3-5-----------|-----------------|


   A G A         C         D           A G A         C         D
G|-----------------|-----------------|-----------------|-----------------|
D|-----------------|-----------------|-----------------|-----------------|
A|---------------3-|-------5---------|---------------3-|-------5---------|
E|-5-3-5-----------|-----------------|-5-3-5-----------|-----------------|

                                       A G A
G|-----------------|-----------------|-----------------|
D|-----------------|-----------------|-----------------|
A|-----------------|-----------------|-----------------|
E|-----------------|-----------------|-5-3-5-----------|


I'm rolling thunder, pouring rain
I'm coming on like a hurricane
My lightning's flashing across the sky
You're only young but you're gonna die
I won't take no prisoners won't spare no lives
Nobody's putting up a fight
I got my bell I'm gonna take you to hell
I'm gonna get ya, satan get ya

Hells bells
Hells bells, you got me ringing
Hells bells, my temperature's high
Hells bells

I'll give you black sensations up and down your spine
If you're into evil, you're a friend of mine
See the white light flashing as I split the night
Cos if good's on the left then I'm sticking to the right
I won't take no prisoners won't spare no lives
Nobody's puttin' up a fight
I got my bell I'm gonna take you to hell
I'm gonna get ya satan get ya

Hells bells
Hells bells, you got me ringing
Hells bells, my temperature's high
Hells bells

Hells bells, satan's coming to you
Hells bells, he's ringing them now
Those hells bells, the temperature's high
Hells bells, across the sky
Hells bells, they're taking you down
Hells bells, they're dragging you down
Hells bells, gonna split the night
Hells bells, there's no way to fight
Hells bells

================================================
2. SHOOT TO THRILL
================================================

Intro: (4 bars after drums enter, fade in)

   A                                                           D  Db A
G|-----------------|-----------------|-----------------|-----------------|
D|-7-7-7-7-7-7-7-7-|-7-7-7-7-7-7-7-7-|-7-7-7-7-7-7-7-7-|-7-7-7-----------|
A|-----------------|-----------------|-----------------|-------5-5-4-----|
E|-----------------|-----------------|-----------------|-------------5-5-|

   A
G|-----------------|-----------------|-----------------|-----------------|
D|-----------------|-----------------|-----------------|-----------------|
A|-----------------|-----------------|-----------------|-----------------|
E|-5-5-5-5-5-5-5-5-|-5-5-5-5-5-5-5-5-|-5-5-5-5-5-5-5-5-|-5-5-5-5-5-5-5-5-|

   A                                                             D Db
G|-----------------|-----------------|-----------------|-----------------|
D|-----------------|-----------------|-----------------|-----------------|
A|-----------------|-----------------|-----------------|---------5-4-----|
E|-5-5-5-5-5-5-5-5-|-5-5-5-5-5-5-5-5-|-5-5-5-5-5-5-5-5-|-5-5-5-5-----5-5-|

Verse 1:

   A
G|-----------------|-----------------|-----------------|-----------------|
D|-----------------|-----------------|-----------------|-----------------|
A|-----------------|-----------------|-----------------|-----------------|
E|-5-5-5-5-5-5-5-5-|-5-5-5-5-5-5-5-5-|-5-5-5-5-5-5-5-5-|-5-5-5-5-5-5-5-5-|

   A
G|-----------------|-----------------|-----------------|-----------------|
D|-----------------|-----------------|-----------------|-----------------|
A|-----------------|-----------------|-----------------|-----------------|
E|-5-5-5-5-5-5-5-5-|-5-5-5-5-5-5-5-5-|-5-5-5-5-5-5-5-5-|-5-5-5-5-5-5-5-7-|

Pre Chorus 1:

    C
G|-----------------|-----------------|-----------------|-----------------|
D|-----------------|-----------------|-----------------|-----------------|
A|-----------------|-----------------|-----------------|-----------------|
E|-8-8-8-8-8-8-8-8-|-8-8-8-8-8-8-8-x-|-8-8-8-8-8-8-8-8-|-8-8-8-8-8-0h3/5-|

   D                                E    G   E G   E G     E G   E
G|-----------------|-----------------|-----------------|-----------------|
D|-----------------|-----------------|---5-5---5-5---5-|-5---5-5---5-75--|
A|-5-5-5-5-5-5-5-5-|-5-5-5-5-5-5-5-7-|-------7-----7---|---7-----7-----7-|
E|-----------------|-----------------|-----------------|-----------------|

Chorus 1:

   A             G                 D
G|-----------------|-----------------|-----------------|-----------------|
D|-----------------|-----------------|-----------------|-----------------|
A|-----------------|---------------5-|-5-5-5-5-5-5-5-5-|-5-5-5-5-5-3h4---|
E|-5-5-5-5-5-5-5-3-|-3-3-3-3-3-3-3---|-----------------|---------------5-|

   A             G                 D                       F#  G     A
G|-----------------|-----------------|-----------------|-----------------|
D|-----------------|-----------------|-----------------|---4---5-x-6-7-7-|
A|-----------------|---------------5-|-5-5-5-5-5-5-5-5-|-5---------------|
E|-5-5-5-5-5-5-5-3-|-3-3-3-2-3-3-2---|-----------------|-----------------|

Pre Verse 2:

   A                         D Db      A                         D Db
G|-----------------|-----------------|-----------------|-----------------|
D|-----------------|-----------------|-----------------|-----------------|
A|-----------------|---------5-4-----|-----------------|---------5-4-----|
E|-5-5-5-5-5-5-5-5-|-5-5-5-5-----5-5-|-5-5-5-5-5-5-5-5-|-5-5-5-5-----5-3/|


Verse 2:

   A
G|-----------------|-----------------|-----------------|-----------------|
D|-----------------|-----------------|-----------------|-----------------|
A|-----------------|-----------------|-----------------|-----------------|
E|-5-5-5-5-5-5-5-5-|-5-5-5-5-5-5-5-5-|-5-5-5-5-5-5-5-5-|-5-5-5-5-5-5-5-5-|

   A
G|-----------------|-----------------|-----------------|-----------------|
D|-----------------|-----------------|-----------------|-----------------|
A|-----------------|-----------------|-----------------|-----------------|
E|-5-5-5-5-5-5-5-5-|-5-5-5-5-5-5-5-5-|-5-5-5-5-5-5-5-5-|-5-5-5-5-5-5-5-5-|

Pre Chorus 2:

   C
G|-----------------|-----------------|-----------------|-----------------|
D|-----------------|-----------------|-----------------|-----------------|
A|-----------------|-----------------|-----------------|-----------------|
E|-8-8-8-8-8-8-8-8-|-8-8-8-8-8-3-6-3-|-8-8-8-8-8-8-8-8-|-8-0-1-0-2---3---|

   D                               E     G   E G   E G     E
G|-----------------|-----------------|-----------------|-----------------|
D|-----------------|-----------------|---------------5-|-5---6-6---5-75--|
A|/5-5-5-5-5-5-5-5-|-5-5-5-5-5-5-5---|-----------------|---7-----8-----7-|
E|-----------------|---------------0-|---3-3-0-3-3-0---|-----------------|

Chorus 2:

   A             G                 D                  D  C   B   A
G|-----------------|-----------------|-----------------|-----------------|
D|-----------------|-----------------|---------3h4-----|-----------------|
A|-----------------|---------------5-|-5-5-5-5-------5-|-----------------|
E|-5-5-5-5-5-5-5-3-|-3-3-3-3-3-3-3---|-----------------|-8---7---5---5-5-|

   A             G                 D                       E
G|-----------------|-----------------|-----------------|-----------------|
D|-----------------|-----------------|-----------------|-----------------|
A|-----------------|---------------5-|-5-5-5-5-5-5-5-5-|-5---------------|
E|-5-5-5-5-5-5-5-3-|-3-3-3-3-3-3-3---|-----------------|---0-1-0-2-0-3-0-|

   A                 B             D
G|-----------------|-----------------|-----------------|-----------------|
D|-----------------|-----------------|-----------------|---4---5-x-6-x-7-|
A|-----------------|---------------5-|-5-5-5-5-5-5-5-5-|-5---------------|
E|-5-5-5-5-5-5-5-7-|-7-7-7-6-7-7-7---|-----------------|-----------------|

   A             G                     D                               E
G|-----------------|-----------------|-----------------|-----------------|
D|-----------------|-----------------|-----------------|-----------------|
A|-----------------|-----------------|-5---------------|-----------------|
E|-5-5-5-5-5-5-5-3-|-3-3-3-3-3-3-3---|-----------------|---------------0-|

Bridge:

                                   E                                   E
G|-----------------|-----------------|-----------------|-----------------|
D|-----------------|-----------------|-----------------|-----------------|
A|-----------------|-----------------|-----------------|-----------5-6-7-|
E|-----------------|---------------0-|-----------------|-----------------|

     G     G   E G     E G         E      G  E G   E G     E G#
G|-----------------|-----------------|-----------------|-----------------|
D|---5-5---5-5---5-|-5---5-5-2-------|-----------------|-----------------|
A|-------------7---|---7-------------|-----------------|-----------------|
E|-----------------|-----------3-4-0-|---3-3-0-3-3-0-3-|-3-0-4-4-0-6-6-3-|

Guitar Solo:

   A                         D   A                               D   A
G|-----------------|-----------------|-----------------|-----------------|
D|-----------------|-----------------|-----------------|-----------------|
A|-----------------|---------5-4-----|-----------------|---------5-4-----|
E|-5-5-5-5-5-5-5-5-|-5-5-5-5-----5-5-|-5-5-5-5-5-5-5-5-|-5-5-5-5-----5-5-|

   A                         D   A                               D   A
G|-----------------|-----------------|-----------------|-----------------|
D|-----------------|-----------------|-----------------|-----------------|
A|-----------------|---------5-4-----|-----------------|---------5-4-----|
E|-5-5-5-5-5-5-5-5-|-5-5-5-5-----5-5-|-5-5-5-5-5-5-5-5-|-5-5-5-5-----5-5-|

   C
G|-----------------|-----------------|-----------------|-----------------|
D|-----------------|-----------------|-----------------|-----------------|
A|-----------------|-----------------|-----------------|-----------------|
E|-8-8-8-8-8-8-8-8-|-8-8-8-8-8-3-6-3-|-8-8-8-8-8-8-8-8-|-8-8-8-0-2-0-3-0-|

   D                               E     G   E G   E G     E
G|-----------------|-----------------|-----------------|-----------------|
D|-----------------|-----------------|---5-5---5-5-----|-----------------|
A|-5-5-5-5-5-5-5-5-|-5-5-5-5-5-5-5---|-------7-----7---|-----------------|
E|-----------------|---------------0-|---------------3-|-3-0-3-3-0-4-4-x-|

Chorus 3:

   A             G                 D
G|-----------------|-----------------|-----------------|-----------------|
D|-----------------|-----------------|-----------------|-----------------|
A|-----------------|---------------5-|-5-5-5-5-5-5-5-5-|-5-5-5-5-5-5-5-5-|
E|-5-5-5-5-5-5-5-3-|-3-3-3-3-3-3-3---|-----------------|-----------------|

   A             G                     D
G|-----------------|-----------------|-----------------|-----------------|
D|-----------------|-----------------|-----------------|-----------------|
A|-----------------|---------------4-|-5-5-5-5-5-5-5-5-|-5-5-5-5-5-------|
E|-5-5-5-5-5-5-5-3-|-3-3-3-3-3-3-3---|-----------------|-----------6-8-6-|

   A                 B             D
G|-----------------|-----------------|-----------------|-----------------|
D|-----------------|-----------------|-----------------|-----------------|
A|-----------------|---------------5-|-5-5-5-5-5-5-5-5-|-5-5-5-5-5-3-4---|
E|-5-5-5-5-5-5-5-7-|-7-7-7-7-7-7-7---|-----------------|---------------3-|

   A                 G                 D
G|-----------------|-----------------|-----------------|-----------------|
D|-----------------|-----------------|-----------------|-----------------|
A|-----------------|-----------------|-5---------------|-----------------|
E|-5---------------|-3---------------|-----------------|-----------------|

Interlude:

G|-----------------|-----------------|-----------------|-----------------|
D|-----------------|-----------------|-----------------|-----------------|
A|-----------------|-----------------|-----------------|-----------------|
E|-----------------|-----------------|-----------------|-----------------|

G|-----------------|-----------------|-----------------|-----------------|
D|-----------------|-----------------|-----------------|-----------------|
A|-----------------|-----------------|-----------------|-----------------|
E|-----------------|-----------------|-----------------|-----------------|

G|-----------------|-----------------|-----------------|-----------------|
D|-----------------|-----------------|-----------------|-----------------|
A|-----------------|-----------------|-----------------|-----------------|
E|-----------------|-----------------|-----------------|-----------------|

                                                           E
G|-----------------|-----------------|-----------------|-----------------|
D|-----------------|-----------------|-----------------|-----------------|
A|-----------------|-----------------|-----------------|-----------------|
E|-----------------|-----------------|-----------------|---0-1-2---3-4-5-|

     A                 G                 D
G|-----------------|-----------------|-----------------|-----------------|
D|-----------------|-----------------|-----------------|-----------------|
A|-----------------|-----------------|---5-----5-------|---5-----5-------|
E|---5-----5-------|---3-----3-------|-----------------|-----------------|

     A                 G                 D                 E
G|-----------------|-----------------|-----------------|-----------------|
D|-----------------|-----------------|-----------------|-----------------|
A|-----------------|-----------------|---5-----5-------|-----------------|
E|---5-----5-------|---3-----3-------|-----------------|---0-1-2---3-4-5-|

   A             G                 D
G|-----------------|-----------------|-----------------|-----------------|
D|-----------------|-----------------|-----------3h4---|-----------------|
A|-----------------|-------------4-5-|---5-5-x-5-----5-|---3-----3-------|
E|-5-5---5-5-5-5-3-|---3-3-3-3-3-----|-----------------|-----5-x---5-3-5-|

     A           G                     D
G|-----------------|-----------------|-----------------|-----------------|
D|-----------------|-----------------|-----------------|-----------------|
A|-----------------|---------------4-|-5-5-5-5-5-5-5-5-|-5---------------|
E|---5-----5-5-5-3-|---3-----3-3-3---|-----------------|---0-1-2---3-4-5-|

Outro:

   A             B                 D
G|-----------------|-----------------|-----------------|-----------------|
D|-----------------|-----------------|-----------------|-----------------|
A|-----------------|---------------5-|-5-5-5-5-5-5-5-5-|-5-5-5-5-5-5-5---|
E|-5-5-5-5-5-5-5-7-|-7-7-7-7-7-7-7---|-----------------|---------------5-|

     A             B               D
G|-----------------|-----------------|-----------------|-----------------|
D|-----------------|-----------------|-----------------|---4---5-x-6-x-7-|
A|-----------------|---------------5-|-5-5-5-5-5-5-5-5-|-----------------|
E|-5-5-5-5-5-5-5-7-|-7-7-7-6-7-7-7---|-----------------|-----------------|

   A             B                 D                        E
G|-----------------|-----------------|-----------------|-----------------|
D|-----------------|-----------------|-----------------|-----------------|
A|-----------------|---------------5-|-5-5-5-5-5-5-5-5-|-5---------------|
E|-5-5-5-5-5-5-5-7-|-7-7-7-7-7-7-7---|-----------------|---0-1-2---3-4-5-|

   A             G                 D
G|-----------------|-----------------|-----------------|-----------------|
D|-----------------|-----------------|-----------------|-----------------|
A|-----------------|---------------5-|-5-5-5-5-5-5-5-5-|-5-5-5-5-5-5-5---|
E|-5-5-5-5-5-5-5-3-|-3-3-3-3-3-3-3---|-----------------|---------------3-|

   A             B                 D
G|-----------------|-----------------|-----------------|-----------------|
D|-----------------|-----------------|-----------------|-----------------|
A|-----------------|---------------5-|-5-5-5-5-5-5-5-5-|-5-5-5-5-5-3-4---|
E|-5-5-5-5-5-5-5-7-|-7-7-7-7-7-7-7---|-----------------|---------------5-|

   A             B                     D                         G
G|-----------------|-----------------|-----------------|-----------------|
D|-----------------|-----------------|-----------------|---------5---5---|
A|-----------------|---------------4-|-5-5-5-5-5-5-5-5-|-5-5-5-5---------|
E|-5-5-5-5-5-5-5-7-|-7-7-7-7-7-7-7---|-----------------|-----------------|

   D                         G         D                               G
G|-----------------|-----------------|-----------------|-----------------|
D|-----------------|---------5---5---|-----------------|-----------------|
A|-5-5-5-5-5-5-5-5-|-5-5-5-5---------|-5-----5-----5---|-----------------|
E|-----------------|-----------------|-----------------|---------------3-|

(Half Speed)

       G   A
G|-----------------|-----------------|------------------|----------------|
D|-----------------|-----------------|------------------|----------------|
A|-----------------|-----------------|------------------|----------------|
E|-----3---55555555|55555555555555555|555555555555555555|--------------5-|


All you women who want a man of the street
But you don't know which way you wanna turn
Just keep a coming and put your hand out to me
'Cause I'm the one who's gonna make you burn

I'm gonna take you down - down, down, down
So don't you fool around
I'm gonna pull it, pull it, pull the trigger

Shoot to thrill, play to kill
Too many women with too many pills
Shoot to thrill, play to kill
I got my gun at the ready, gonna fire at will

I'm like evil, I get under your skin
Just like a bomb that's ready to blow
'Cause I'm illegal, I got everything
That all you women might need to know

I'm gonna take you down - down, down, down
So don't you fool around
I'm gonna pull it, pull it, pull the trigger

Shoot to thrill, play to kill
Too many women with too many pills
Shoot to thrill, play to kill
I got my gun at the ready, gonna fire at will
Shoot to thrill, ready to kill
I can't get enough, I can't get the thrill
I shoot to thrill, play to kill
Pull the trigger


================================================
3. WHAT DO YOU DO FOR MONEY HONEY
================================================

Intro:

   E     G                             E     G
G|-----------------|-----------------|-----------------|-----------------|
D|-----------------|-----------------|-----------------|-----------------|
A|-----------------|-----------------|-----------------|-----------------|
E|-0-----3---------|-----------------|-0-----3---------|-----------------|

   E     G                             E     G
G|-----------------|-----------------|-----------------|-----------------|
D|-----------------|-----------------|-----------------|-----------------|
A|-----------------|-----------------|-----------------|-----------------|
E|-0-----3---------|-----------------|-0-----3---------|-----------------|


 Pre Verse 1:

   E                                                           G   F#
G|-----------------|-----------------|-----------------|-----------------|
D|-----------------|-----------------|-----------------|-----------------|
A|-----------------|-----------------|-----------------|-----------------|
E|-0-0-0-0-0-0-0-0-|-0-0-0-0-0-0-0-0-|-0-0-0-0-0-0-0-0-|-0-0-0-3-3-2-2-0-|

Verse 1:

   E                                                           G   F#
G|-----------------|-----------------|-----------------|-----------------|
D|-----------------|-----------------|-----------------|-----------------|
A|-----------------|-----------------|-----------------|-----------------|
E|-0-0-0-0-0-0-0-0-|-0-0-0-0-0-0-0-0-|-0-0-0-0-0-0-0-0-|-0-0-0-3-3-2-2-0-|

   E
G|-----------------|-----------------|-----------------|-----------------|
D|-----------------|-----------------|-----------------|-----------------|
A|-----------------|-----------------|-----------------|-----------------|
E|-0-0-0-0-0-0-0-0-|-0-0-0-0-0-0-0-0-|-0-0-0-0-0-0-0-0-|-0-0-0-0-0-0-0-0-|

   E
G|-----------------|-----------------|-----------------|-----------------|
D|-----------------|-----------------|-----------------|-----------------|
A|-----------------|-----------------|-----------------|-----------------|
E|-0-0-0-0-0-0-0-0-|-0-0-0-0-0-0-0-0-|-0-0-0-0-0-0-0-0-|-0-0-0-0-0-0-0-0-|

Pre Chorus 1:

    E     D                G   F#       E    D       A
G|-----------------|-----------------|-----------------|-----------------|
D|-----------------|-----------------|-----------------|-----------------|
A|-7-7-7-5---5-5-4-|-----------------|-7-7-7-5---------|-----------------|
E|-----------------|-------3---2-----|---------------5-|---5-5-5-5-5-5-5-|

   A
G|-----------------|
D|-------------7---|
A|----------/7---7-|
E|-5-5-5-5-5-------|

Chorus 1:

   E     G             D     A         E     G             D     A
G|-----------------|-----------------|-----------------|-----------------|
D|-----------------|-----------------|-----------------|-----------------|
A|-----------------|---5-5-5---------|-----------------|---5-5-5---------|
E|-0-----3---3-3-3-|-3-------5-5-5-5-|-0-----3---3-3-3-|-3-------5-5-3-2-|

   E     G             D     A         E     G             D     A
G|-----------------|-----------------|-----------------|-----------------|
D|-----------------|-----------------|-----------------|-----------------|
A|-----------------|---5-5-5---------|-----------------|---5-5-5---------|
E|-0-----3---3-3-3-|-3-------5-5-5-5-|-0-----3---------|---------5-5-----|


Pre Verse 2:

   E     D       Db        G   F#      E     D       Db        G   F#
G|-----------------|-----------------|-----------------|-----------------|
D|-----------------|-----------------|-----------------|-----------------|
A|-7-----5-------4-|-----------------|-7-----5-------4-|-----------------|
E|-----------------|-------3---2-----|-----------------|-------3---2-----|

Verse 2:

   E                                                            G   F#
G|-----------------|-----------------|-----------------|-----------------|
D|-----------------|-----------------|-----------------|-----------------|
A|-----------------|-----------------|-----------------|-----------------|
E|-0-0-0-0-0-0-0-0-|-0-0-0-0-0-0-0-0-|-0-0-0-0-0-0-0-0-|-0-0-0-3-3-2-2-0-|

   E
G|-----------------|-----------------|-----------------|-----------------|
D|-----------------|-----------------|-----------------|-----------------|
A|-----------------|-----------------|-----------------|-----------------|
E|-0-0-0-0-0-0-0-0-|-0-0-0-0-0-0-0-0-|-0-0-0-0-0-0-0-0-|-0-0-0-0-0-0-0-0-|

   E
G|-----------------|-----------------|-----------------|-----------------|
D|-----------------|-----------------|-----------------|-----------------|
A|-----------------|-----------------|-----------------|-------------5-7-|
E|-0-0-0-0-0-0-0-0-|-0-0-0-0-0-0-0-0-|-0-0-0-0-0-0-0-0-|-0-0-0-0-5-7-----|

Pre Chorus 2:

    E     D                G   F#       E    D       A
G|-----------------|-----------------|-----------------|-----------------|
D|-----------------|-----------------|-----------------|-----------------|
A|-7-7-7-5---5-5-4-|-----------------|-7-7-7-5---------|-----------------|
E|-----------------|-------3---2-----|---------------5-|---5-5-5-5-5-5-5-|

   A
G|-----------------|
D|-----------------|
A|-----------5-75--|
E|-5-5-5-5-5-----7-|

Chorus 2:

   E     G             D     A         E     G             D     A
G|-----------------|-----------------|-----------------|-----------------|
D|-----------------|-----------------|-----------------|-----------------|
A|-----------------|---5-5-5---------|-----------------|---5-5-5---------|
E|-0-----3---3-3-3-|-3-------5-5-5-5-|-0-----3---3-3-3-|-3-------5-5-5-5-|

   E     G             D     A         E     G             D     A
G|-----------------|-----------------|-----------------|-----------------|
D|-----------------|-----------------|-----------------|-----------------|
A|-----------------|---5-5-5---------|-----------------|---5-5-5---------|
E|-0-----3---3-3-3-|-3-------5-5-5-5-|-0-----3---------|---------5-5-----|

Bridge:

                                       E
G|-----------------|-----------------|-----------------|-----------------|
D|-----------------|-----------------|-----------------|-----------------|
A|-----------------|-----------------|-----------------|-----------------|
E|-----------------|-----------------|-0---------------|-----------------|

Guitar Solo:

    A
G|-----------------|-----------------|-----------------|-----------------|
D|-----------------|-----------------|-----------------|-----------------|
A|-----------------|-----------------|-----------------|-----------------|
E|-5-5-5-5-5-5-5-3-|-5-5-5-5-5-5-5-3-|-5-5-5-5-5-5-5-3-|-5-5-5-5-5-5-5-3-|

    A
G|-----------------|-----------------|-----------------|-----------------|
D|-----------------|-----------------|-----------------|-----------------|
A|-----------------|-----------------|-----------------|-----------------|
E|-5-5-5-5-5-5-5-3-|-5-5-5-5-5-5-5-3-|-5-5-5-5-5-5-5-3-|-5-5-5-5-5-5-5---|

   E                       G   F#      E                      G    F#
G|-----------------|-----------------|-----------------|-----------------|
D|-----------------|-----------------|-----------------|-----------------|
A|-----------------|-----------------|-----------------|------10---9-----|
E|-0---------------|-------3---2-----|-0---------------|-----------------|

   E     D       Db        G   F#      E     D       Db        G   F#
G|-----------------|-----------------|-----------------|-----------------|
D|-----------------|-----------------|-----------------|-----------------|
A|-------5-------4-|-----------------|-7-----5-------4-|-----------------|
E|-0---------------|-------3---2-----|-----------------|-------3---2-----|

    E     D                G   F#       E    D       A
G|-----------------|-----------------|-----------------|-----------------|
D|-----------------|-----------------|-----------------|-----------------|
A|-7-7-7-5---5-5-4-|-----------------|-7-7-7-5---------|-----------------|
E|-----------------|-------3---2-----|---------------5-|---5-5-5-5-5-5-5-|

   A
G|-----------------|
D|-------------7---|
A|----------/7-----|
E|-5-5-5-5-5-------|

Chorus 3:

   E     G             D     A         E     G             D     A
G|-----------------|-----------------|-----------------|-----------------|
D|-----------------|-----------------|-----------------|-----------------|
A|-----------------|---5-5-5---------|-----------------|---5-5-5---5-7-x-|
E|-0-----3---3-3-3-|-3-------5-5-5-5-|-0-----3---3-3-3-|-3-------5-------|

   E     G             D     A         E     G             D     A
G|-----------------|-----------------|-----------------|-----------------|
D|-----------------|-----------------|-----------------|-----------5-7---|
A|-----------------|---5-5-5---------|-----------------|---5-5-5---------|
E|-0-----3---3-3-3-|-3-------5-5-5-5-|-0-----3---------|---------5-------|


   E     G             D     A         E     G             D     A
G|-----------------|-----------------|-----------------|-----------------|
D|-----------------|-----------------|-----------------|-----------------|
A|-----------------|---5-5-5---------|-----------------|---5-5-5---------|
E|-0-----3---3-3-3-|-3-------5-5-5-5-|-0-----3---3-3-3-|-3-------5-5-5-5-|

   E     G             D     A         E     G
G|-----------------|-----------------|-----------------|-----------------|
D|-----------------|-----------------|-----------------|-----------------|
A|-----------------|---5-5-5---------|-----------------|-----------------|
E|-0-----3---3-3-3-|-3-------5-5-5-5-|-0-----3---------|-----------------|

Half Speed

   D   A                               E
G|-----------------|-----------------|-----------------|-----------------|
D|-----------------|-----------------|-----------------|-----------------|
A|-5---------------|-----------------|-----------------|-----------------|
E|-----5-----------|-----------------|-0---------------|-----------------|


You're workin in bars, ridin in cars
Never gonna give it for free
Your apartment with a view
On the finest avenue
Lookin at your beat on the street
You're always pushin, shovin
Satisfied with nothing
You bitch you must be gettin old
So stop your love on the road
All your diggin for gold
You make me wonder
Yes I wonder
I wonder

Honey, what do you do for money
Honey, what do you do for money
How do ya get your kicks?

You're ridin on the take and you're always on the make
Squeezin all the blood out of men
They're standin in a queue just to spend the night wth you
It's business as usual again
You're always grabbin, stabbin
Tryin to get it back but girl you must be gettin slow
So stop your love on the road
All your diggin for gold
You make me wonder
Yes I wonder
Yes I wonder

Honey, what do you do for money
Honey, what do you do for money
What do you do for money honey?
How do you get your kicks?
What do you do for money honey?
How do you get your licks?

What you gonna do?
Aw what you gonna do?


================================================
4. GIVIN THE DOG A BONE
================================================

Intro: (0:15)

   C A   D A   C A     D A   C A       C A   D A   C  A    D  A   C
G|-----------------|-----------------|-----------------|-----------------|
D|-----------------|-----------------|-----------------|-----------------|
A|-3-----5-----3---|---5-----3-------|-3-----5-----3---|---5-----3-------|
E|---5-5---5-5---5-|-5---5-5---5-5-5-|---5-5---5-5---5-|-5---5-5---5-5-5-|

Verse 1:

   C A   D A   C A     D A   C A
G|-----------------|-----------------|-----------------|-----------------|
D|-----------------|-----------------|-----------------|-----------------|
A|-3-----5-----3---|---5-----3-------|-----------------|---3-------------|
E|---5-5---5-5---5-|-5---5-5---5-5-5-|-5-5-5-5-5-5-5-5-|-5---5-5-5-5-5-5-|

   A
G|-----------------|-----------------|-----------------|-----------------|
D|-----------------|-----------------|-----------------|-----------------|
A|-----------------|-----------------|-----------------|-----------------|
E|-5-5-5-5-5-5-5-5-|-5-5-5-5-5-5-5-5-|-5-5-5-5-5-5-5-5-|-5-5-5-5-5-5-5-3-|

   A
G|-----------------|-----------------|-----------------|-----------------|
D|-----------------|-----------------|-----------------|-----------------|
A|-----------------|---------------3-|-----------------|-------------0-2-|
E|-5-5-5-5-5-5-5-5-|-5-5-5-5-5-5-5---|-5-5-5-5-5-5-5-5-|-5-5-5-5-5-3-----|

Pre Chorus 1:

   C B A D           C A   D A C D     C B A D           A
G|-----------------|-----------------|-----------------|-----------------|
D|-----------------|-----------------|-----------------|-----------------|
A|-3-2-0-5---5-5-2-|-3-----5---3-----|-3-2-0-5---5-5-5-|-----------------|
E|-----------------|---5-5---5---5---|-----------------|-5-5-5-4-5-5-5-5-|

   C B A D           C A   D A C D
G|-----------------|-----------------|
D|-----------------|-----------------|
A|-3-2-0-5---5-5-5-|-3-----5---3-----|
E|-----------------|---5-5---5---5-0-|

Chorus 1:

   G E    A  G E     G E   A   G E     G E   A   G E     G E   A   G E
G|-----------------|-----------------|-----------------|-----------------|
D|-----------------|-----------------|-----------------|-----------------|
A|-----------------|-----------------|-----------------|-----------------|
E|-3-0-0-5---3-0---|-3-0-0-5---3-0---|-3-0-0-5---3-0---|-3-0-0-5---3-0---|

   G E    A  G E     G E   A   G E     G E   A   G E     G E   A   G E
G|-----------------|-----------------|-----------------|-----------------|
D|-----------------|-----------------|-----------------|-----------------|
A|-----------------|-----------------|-----------------|-----------------|
E|-3-0-0-5---3-0---|-3-0-0-5---3-0---|-3-0-0-5---3-0---|-3-0-0-5---3-0---|

Pre Verse 2:

   C A   D A   C A     D A   C A       C A   D A   C  A    D  A   C
G|-----------------|-----------------|-----------------|-----------------|
D|-----------------|-----------------|-----------------|-----------------|
A|-3-----5-----3---|---5-----3-------|-3-----5-----3---|---5-----3-------|
E|---5-5---5-5---5-|-5---5-5---5-5-3-|---5-5---5-5---5-|-5---5-5---5-5-3-|

Verse 2:

  A
G|-----------------|-----------------|-----------------|-----------------|
D|-----------------|-----------------|-----------------|-----------------|
A|-----------------|-----------------|-----------------|-----------------|
E|-5-5-5-5-5-5-5-5-|-5-5-5-5-5-5-5-5-|-5-5-5-5-5-5-5-5-|-5-5-5-5-5-5-5-3-|

   A
G|-----------------|-----------------|-----------------|-----------------|
D|-----------------|-----------------|-----------------|-----------------|
A|-----------------|-----------------|-----------------|-------------0-2-|
E|-5-5-5-5-5-5-5-5-|-5-5-5-5-5-5-5-3-|-5-5-5-5-5-5-5-5-|-5-5-5-5-5-3-----|

Pre Chorus 1:

   C B A D           C A   D A C D     C B A D           C A   D A C A
G|-----------------|-----------------|-----------------|-----------------|
D|-----------------|-----------------|-----------------|-----------------|
A|-3-2-0-5---5-5-2-|-3-----5---3-----|-3-2-0-5---5-5-5-|-3-----5---3-----|
E|-----------------|---5-5---5---5---|-----------------|---5-5---5---5-3-|

   C B A D           C A   D A C D
G|-----------------|-----------------|
D|-----------------|-----------------|
A|-3-2-0-5---5-5-5-|-3-----5---3-----|
E|-----------------|---5-5---5---5---|

Chorus 2:

   G E    A  G E     G E   A   G E     G E   A   G E     G E   A   G E
G|-----------------|-----------------|-----------------|-----------------|
D|-----------------|-----------------|-----------------|-----------------|
A|-----------------|-----------------|-----------------|-----------------|
E|-3-0-0-5---3-0---|-3-0-0-5---3-0---|-3-0-0-5---3-0---|-3-0-0-5---3-0---|

   G E    A  G E     G E   A   G E     G E   A   G E     G E   A   G E
G|-----------------|-----------------|-----------------|-----------------|
D|-----------------|-----------------|-----------------|-----------------|
A|-----------------|-----------------|-----------------|-----------------|
E|-3-0-0-5---3-0---|-3-0-0-5---3-0---|-3-0-0-5---3-0---|-3-0-0-5---3-0---|

Guitar Solo:

   A                       D   C A     C A   D   C A           D   C A
G|-----------------|-----------------|-----------------|-----------------|
D|-----------------|-----------------|-----------------|-----------------|
A|-----------------|-------5---------|-------5---------|-------5---------|
E|-5-5-5-5-5-5-5-5-|-5-5-5-----8-5---|-8-5-5-----8-5-5-|-5-5-5-----8-5---|

   C A                         C A                             D   C A
G|-----------------|-----------------|-----------------|-----------------|
D|-----------------|-----------------|-----------------|-----------------|
A|-----------------|-----------------|-----------------|-------5---------|
E|-8-5-5-4-5-5-5-5-|-4-5-5-5-5-8-5---|-5-5-5-5-5-5-5-5-|-4-5-5-----8-5-5-|

   G E               G E   A   G E     G                 G     A   G E
G|-----------------|-----------------|-----------------|-----------------|
D|-----------------|-----------------|-----------------|-----------------|
A|-----------------|-----------------|-----------------|-----------------|
E|-3-0-0-0-0-0-0-0-|-3-0-0-5---3-0-0-|-3-0-0-0-0-0-0-0-|-3-0-0-5---3-0-0-|

   G E               G E   A   G E     G E   A   G E     G E   A   G E
G|-----------------|-----------------|-----------------|-----------------|
D|-----------------|-----------------|-----------------|-----------------|
A|-----------------|-----------------|-----------------|-----------------|
E|-3-0-0-0-0-0-0-0-|-3-0-0-5---3-0-0-|-3-0-0-5---3-0-0-|-3-0-0-5---3-0-0-|

   G     A     G       A     G   A     A
G|-----------------|-----------------|-----------------|-----------------|
D|-----------------|-----------------|-----------------|-----------------|
A|-----------------|-----------------|-----------------|-----------------|
E|-3-----5-----3---|---5-----3---5---|-5---------------|-----------------|

Verse 3:

   C A   D A   C A     D A   C A       C A   D A   C  A    D  A   C
G|-----------------|-----------------|-----------------|-----------------|
D|-----------------|-----------------|-----------------|-----------------|
A|-3-----5-----3---|---5-----3-------|-3-----5-----3---|---5-----3-------|
E|---5-5---5-5---5-|-5---5-5---5-5-5-|---5-5---5-5---5-|-5---5-5---5-5-5-|

   C A   D A   C A     D A   C A       C A   D A   C  A    D  A   C
G|-----------------|-----------------|-----------------|-----------------|
D|-----------------|-----------------|-----------------|-----------------|
A|-3-----5-----3---|---5-----3-------|-3-----5-----3---|---5-----3-------|
E|---5-5---5-5---5-|-5---5-5---5-5-5-|---5-5---5-5---5-|-5---5-5---5-5-5-|

Chorus 3:

   G E    A  G E     G E   A   G E     G E   A   G E     G E   A   G E
G|-----------------|-----------------|-----------------|-----------------|
D|-----------------|-----------------|-----------------|-----------------|
A|-----------------|-----------------|-----------------|-----------------|
E|-3-0-0-5---3-0---|-3-0-0-5---3-0---|-3-0-0-5---3-0---|-3-0-0-5---3-0---|

   G E    A  G E     G E   A   G E     G E   A   G E     G E   A   G E
G|-----------------|-----------------|-----------------|-----------------|
D|-----------------|-----------------|-----------------|-----------------|
A|-----------------|-----------------|-----------------|-----------------|
E|-3-0-0-5---3-0---|-3-0-0-5---3-0---|-3-0-0-5---3-0---|-3-0-0-5---3-0---|

   C A   D   C A     C A   D   C A     C A   D   C A     C A   D   C A
G|-----------------|-----------------|-----------------|-----------------|
D|-----------------|-----------------|-----------------|-----------------|
A|-------5---------|-------5---------|-------5---------|-------5---------|
E|-8-5-5---5-8-5-5-|-8-5-5---5-8-5-5-|-8-5-5---5-8-5-5-|-8-5-5---5-8-5-5-|

   C A   D A C       C A   D A C
G|-----------------|-----------------|
D|-----------------|-----------------|
A|-------5---------|-------5---------|
E|-8-5-5---5-8-5-5-|-8-5-5---5-8-5-5-|

Outro: (Gradually slow down)

   C     D     C       D     C   D     C     D     C       D     C
G|-----------------|-----------------|-----------------|-----------------|
D|-----------------|-----------------|-----------------|-----------------|
A|-3-----5-----3---|---5-----3---5---|-3-----5-----3---|---5-----3-------|
E|-----------------|-----------------|-----------------|-----------------|

   G       A                       A
G|-----------------|-----------------|
D|-----------------|-----------------|
A|-----------------|-----------------|
E|-3-------5-------|---------------5-|


She takes you down easy
Going down to her knees
Going down to the devil
Down down to ninety degrees
She's blowing me crazy
Till my ammunition is dry

She's using her head again
She's using her head
She's using her head again

I'm just giving the dog a bone

She's no Mona Lisa
She's no Playboy star
But she'll send you to heaven
Then explode you to Mars

She's using her head again
She's using her head
She's using her head again

I'm just giving the dog a bone

She got the power of union
She only hits when it's hot
And if she likes what you're doing
She'll give you a lot
(Given everything she got)

I've just given the dog a bone


================================================
5. LET ME PUT MY LOVE INTO YOU
================================================

Intro: (After 3 guitar notes)

       E
G|-----------------|-----------------|-----------------|-----------------|
D|-----------------|-----------------|-----------------|-----------------|
A|-----------------|-----------------|-----------------|-----------------|
E|-----0-------0---|-----0-------0---|-----0-------0---|-----0-------0---|

       E                                                           G F#E
G|-----------------|-----------------|-----------------|-----------------|
D|-----------------|-----------------|-----------------|-----------------|
A|-----------------|-----------------|-----------------|-----------------|
E|-----0-------0---|-----0-------0---|-----0-------0---|-----0-----3-2-0-|

   E                                                 A             G F#E
G|-----------------|-----------------|-----------------|-----------------|
D|-----------------|-----------------|-----------------|-----------------|
A|-----------------|-----------------|-----------------|-----------------|
E|-0-0-0-0-0-0-0-0-|-0-0-0-0-0-0-0-0-|-0-0-0-0-0-0-0-5-|-5-5-5-5-5-3-2-0-|

   E                               E         D       A
G|-----------------|-----------------|-----------------|-----------------|
D|-----------------|-----------------|-----------------|-----------------|
A|-----------------|-------------5-7-|-7-7-7-5-5-5-5---|-----------------|
E|-0-0-0-0-0-0-0-0-|-0-0-0-0-0/7-----|---------------5-|-5-5-5-5-5-3-2-0-|

Verse 1:

   E                                                 A
G|-----------------|-----------------|-----------------|-----------------|
D|-----------------|-----------------|-----------------|-----------------|
A|-----------------|-----------------|-----------------|-----------------|
E|-0-0-0-0-0-0-0-0-|-0-0-0-0-0-0-0-0-|-0-0-0-0-0-0-0-5-|-5-5-5-5-5-5-5-0-|

   E                                                 A
G|-----------------|-----------------|-----------------|-----------------|
D|-----------------|-----------------|-----------------|-----------------|
A|-----------------|-----------------|-----------------|-----------------|
E|-0-0-0-0-0-0-0-0-|-0-0-0-0-0-0-0-0-|-0-0-0-0-0-0-0-5-|-5-5-5-5-5-3-2-0-|

   E                                                 A
G|-----------------|-----------------|-----------------|-----------------|
D|-----------------|-----------------|-----------------|-----------------|
A|-----------------|-----------------|-----------------|-----------------|
E|-0-0-0-0-0-0-0-0-|-0-0-0-0-0-0-0-0-|-0-0-0-0-0-0-0-5-|-5-5-5-5-5-3-2-0-|

   E                                                 A
G|-----------------|-----------------|-----------------|-----------------|
D|-----------------|-----------------|-----------------|-----------------|
A|-----------------|-----------------|-----------------|-----------------|
E|-0-0-0-0-0-0-0-0-|-0-0-0-0-0-0-0-0-|-0-0-0-0-0-0-0-5-|-5-5-5-5-5-5-5-5-|

Pre Chorus 1:

   E                 A                 E                 A   G A
G|-----------------|-----------------|-----------------|-----------------|
D|-----------------|-----------------|-----------------|-----------------|
A|-----------------|-----------------|-----------------|-----------------|
E|-0-----0---------|-5-----5---------|-0-----0---------|-5-5-3-5---5-5---|

Chorus 1:

   D       A     E                     D       A     E
G|-----------------|-----------------|-----------------|-----------------|
D|-----------------|-----------------|-----------------|-----------------|
A|-5-5-5-5---------|---------------4-|-5-5-5-5---------|-----------------|
E|---------5-5-5-0-|-0-0-0-0-0-5-7---|---------5-5-5-0-|-----0-0-0-0-0-0-|

   D       A     E                     D      A          E
G|-----------------|-----------------|-----------------|-----------------|
D|-----------------|-----------------|-----------------|-----------------|
A|-5-5-5-5---------|-------------5-7-|-5---------------|-----------------|
E|---------5-5-5-0-|-0-0-0-0-0/7-----|--------5--------|-0---------3-2-0-|

Pre Verse 2:

   E                                                 A
G|-----------------|-----------------|-----------------|-----------------|
D|-----------------|-----------------|-----------------|-----------------|
A|-----------------|-----------------|-----------------|-----------------|
E|-0-0-0-0-0-0-0-0-|-0-0-0-0-0-0-0-0-|-0-0-0-0-0-0-0-5-|-5-5-5-5-5-3-2-0-|

Verse 2:


   E                                                 A
G|-----------------|-----------------|-----------------|-----------------|
D|-----------------|-----------------|-----------------|-----------------|
A|-----------------|-----------------|-----------------|-----------------|
E|-0-0-0-0-0-0-0-0-|-0-0-0-0-0-0-0-0-|-0-0-0-0-0-0-0-5-|-5-5-5-5-5-5-5-5-|

   E                                                 A
G|-----------------|-----------------|-----------------|-----------------|
D|-----------------|-----------------|-----------------|-----------------|
A|-----------------|-----------------|-----------------|-----------------|
E|-0-0-0-0-0-0-0-0-|-0-0-0-0-0-0-0-0-|-0-0-0-0-0-0-0-5-|-5-5-5-5-5-5-5-5-|

Pre Chorus 2:

   E                 A                 E                 A   G A
G|-----------------|-----------------|-----------------|-----------------|
D|-----------------|-----------------|-----------------|-----------------|
A|-----------------|-----------------|-----------------|-----------------|
E|-0-----0---------|-5-----5---------|-0-----0---------|-5-5-3-5---x-7-7-|

Chorus 2:

   D       A     E                     D       A     E
G|-----------------|-----------------|-----------------|-----------------|
D|-----------------|-----------------|-----------------|-----------------|
A|-5-5-5-5---------|-----------------|-5-5-5-5---------|-----------------|
E|---------5-5-5-0-|-0-0-0-0-0-0-0-0-|---------5-5-5-0-|-0-0-0-0-0-/7\-x-|

   D        A    E                     D       A         E
G|-----------------|-----------------|-----------------|-----------------|
D|-----------------|-----------------|-----------------|-----------------|
A|-5-5-5-5---------|-----------------|-5---------------|-----------------|
E|---------5-5-5-0-|-0-0-0-0-0-0-0-0-|---------5-------|-0---------------|

   E
G|-----------------|
D|-----------------|
A|-----------------|
E|-0-0-0-0-0-0-0-0-|
   > > > > > > > >

Guitar Solo:

   E                 A                 E                 A   G A
G|-----------------|-----------------|-----------------|-----------------|
D|-----------------|-----------------|-----------------|-----------------|
A|-----------------|-----------------|-----------------|-----------------|
E|-0-----0---------|-5-----5---------|-0-----0---------|-5-5-3-5---------|

   E                 A                 E                 A   G A
G|-----------------|-----------------|-----------------|-----------------|
D|-----------------|-----------------|-----------------|-----------------|
A|-----------------|-----------------|-----------------|-----------------|
E|-0-----0---------|-5-----5---------|-0-----0---------|-5-5-3-5---------|

   E                 A                 E                 A   G A
G|-----------------|-----------------|-----------------|-----------------|
D|-----------------|-----------------|-----------------|-----------------|
A|-----------------|-----------------|-----------------|-----------------|
E|-0-0-0-0-0-0-0-0-|-5-5-5-5-5-5-5-5-|-0-0-0-0-0-0-0-0-|-5-5-3-5---5-5-5-|

   E                 A                 E                 A
G|-----------------|-----------------|-----------------|-----------------|
D|-----------------|-----------------|-----------------|-----------------|
A|-----------------|-----------------|-----------------|-----------------|
E|-0-0-0-0-0-0-0-0-|-5-5-5-5-5-5-5-5-|-0-0-0-0-0-0-0-4-|-5---5-5-5-5-5-5-|

   A
G|-----------------|
D|-----------------|
A|---------------4-|
E|-5-5-5-5-5-5-5---|

Chorus 3:

   D       A     E                     D       A     E
G|-----------------|-----------------|-----------------|-----------------|
D|-----------------|-----------------|-----------------|-----------------|
A|-5-5-5-5---------|-----------------|-5-5-5-5---------|-----------7-75--|
E|---------5-5-5-0-|-0-0-0-0-0-0-0-0-|---------5-5-5-0-|-0-0-0-0-0-----7-|

   D        A    E                     D       A     E
G|-----------------|-----------------|--------------/9-|---9-9-9-9-9-9-9-|
D|-----------------|-----------------|-----------------|-----------------|
A|-5-5-5-5---------|-----------------|-5-5-5-5---------|-----------------|
E|---------5-5-5-0-|-0-0-0-0-0-0-0-0-|---------5-5-5---|-----------------|

   D       A     E                     D       A     E
G|-----------------|-----------------|-----------------|-----------------|
D|-----------------|-----------------|-----------------|-----------------|
A|-5-5-5-5---------|-------------2-4-|-5-5-5-5---------|-----------------|
E|---------5-5-5-0-|-0-0-0-0-0-5-----|---------5-5-5-0-|-0-0-0-0-0-0-0-0-|

   D        A    E                     D                 A
G|---------------9-|---9-9-9-9-9-9---|-----------------|-----------------|
D|-----------------|---------------9-|-----------------|-----------------|
A|-5-5-5-5---------|-----------------|-5---------------|-----------------|
E|---------5-5-5---|-----------------|-----------------|-5---------------|

Outro: (After 3 guitar notes, half speed)

       E               E D E           D                  A
G|-----------------|-----------------|------------------|----------------|
D|-----------------|-----------------|------------------|----------------|
A|-----------------|---7-5-7---------|-5----------------|----------------|
E|-----0-------0---|-----------------|------------------|-5--------------|

Flying on a free flight
Driving all night
With my machinery
'Cause I got the power
Any hour
To show the man in me
I got reputations
Blown to pieces
With my artillery
I'll be guided in
We'll be riding
Given what you got to me

Don't you struggle
Don't you fight
Don't you worry
'Cause it's your turn tonight

Let me put my love into you, babe
Let me put my love on the line
Let me put my love into you, babe
Let me cut your cake with my knife

Like a fever
Burning faster
You spark the fire in me
Crazy feelings
Got me reeling
They got me raising steam

Don't you struggle
Don't you fight
Don't you worry
'Cause it's your turn tonight

Let me put my love into you, babe
Let me put my love on the line
Let me put my love into you, babe
Let me cut your cake with my knife

Let me give it all to you

================================================
6. BACK IN BLACK
================================================

Intro: (0:05)

   E     D       Db                    E     D       Db      B
G|-----------------|-----------------|-----------------|-----------------|
D|-----------------|-----------------|-----------------|-----------------|
A|-------555-----44|-4---------------|-------555-----44|-4---------------|
E|-0---------------|-----------------|-0---------------|-----74-75-76-77-|

   E     D       Db                    E     D       Db      B
G|-----------------|-----------------|-----------------|-----------------|
D|-----------------|-----------------|-----------------|-----------------|
A|-------555-----44|-4---------------|-------555-----44|-4---------------|
E|-0---------------|-----------------|-0---------------|-----74-75-76-77-|

Verse 1:

   E     D       Db                    E     D       Db      B
G|-----------------|-----------------|-----------------|-----------------|
D|-----------------|-----------------|-----------------|-----------------|
A|-------555-----44|-4---------------|-------555-----44|-4---------------|
E|-0---------------|-----------------|-0---------------|-----74-75-76-77-|

   E     D       Db                    E     D       Db      B
G|-----------------|-----------------|-----------------|-----------------|
D|-----------------|-----------------|-----------------|-----------------|
A|-------555-----44|-4---------------|-------555-----44|-4---------------|
E|-0---------------|-----------------|-0---------------|-----74-75-76-77-|

Chorus 1:

   B          A  B              A   B     A       G  A              G  A
G|-----------------|-----------------|-----------------|-----------------|
D|-----------------|-----------------|-----------------|-----------------|
A|-----------------|-----------------|-----------------|-----------------|
E|-7-7-7-7-7--5--7-|-7-7-7-7-7--5--7-|-0-5-5-5-5--3--5-|-5-5-5-5-5--3--5-|

     A  E  B  A  B              A  B   G                 D    D    D
G|-----------------|-----------------|-----------------|-----------------|
D|-----------------|-----------------|-----------------|-----------------|
A|-----------------|-----------------|---------------34|-5----5----5-----|
E|---5--0--7--5--7-|-7-7-7-7-7--5--7-|-3---3-3-3-3333--|-----------------|

Verse 2:

   E     D       Db                    E     D       Db      B
G|-----------------|-----------------|-----------------|-----------------|
D|-----------------|-----------------|-----------------|-----------------|
A|-------555-----44|-4---------------|-------555-----44|-4---------------|
E|-0---------------|-----------------|-0---------------|-----74-75-76-77-|

   E     D       Db                    E     D       Db      B
G|-----------------|-----------------|-----------------|-----------------|
D|-----------------|-----------------|-----------------|-----------------|
A|-------555-----44|-4-----
comments
We did not receive enough feedback on this tab! Please rate:
1 2 3 4 5
2 comments total.
0 reply
bassjoe72 wrote on January 11 2011, 06:25 pm

dont know about anything past the first bar of first song--but that shit is wrong man! look at version with 5 star and all of the comments, learn it --then try to work up 2 songs, ect. to an album and quit waisting all of our time

0 reply
playinbass1432 wrote on August 22 2011, 05:21 pm

hahaha wut

I want to post or [tab]
guest
You may want to rate the tab now too:
select rating
Please do not post tabs as comments. Select "correction" instead!