Oops, an error
Loading. Please wait.

Black Ice Tab

ver1
ver1

Album

Whole song

More versions @911Tabs.com
110,096 views 54 this week
26 commentsread comments
1 2 3 4 5
accurate
x 17
add to favorites launch autoscroll
font size
0
reset
Autoscroll
+/-
esc
set tempo
stop
Contributor
WARNING: You are trying to view
                                    content from Ultimate-Guitar.com
                                    in an unauthorized application,
                                    which is prohibited.

                                    Please use an official Ultimate
                                    Guitar Tabs application for iPhone,
                                    iPad or Android to access legitimate
                                    chords, guitar, bass, and drum tabs
                                    from Ultimate-Guitar.com database.

                                    Type "ultimate guitar tabs" in Apple
                                    App Store's or Android Market's
                                    search to find the application.
*UPDATE*12/15/08
jUST GOT TO THE PC TO UPDATE.
SORRY FOR THE WAIT!!!

*UPDATE*11/11/08
ADDED ROCKING ALL THE WAY

*UPDATE*10/31/08
ADDED ROCK N ROLL DREAM!
JUST ONE MORE GUYS!!!

*UPDATE*10/27/08
ADDED SMASH N' GRAB

*UPDATE*10/24/08?
ADDED MONEY MADE.

*UPDATE* 10/23/08
ADDED DECIBEL AND WHEELS.


I don't expect credit for this, but i thought id be nice and put together the
black ice album from acdc in tabs.


1.Rock N Roll Train – Unknown
2.Skies On Fire – Playinbass1432
3.Big Jack – Blur819
4.Anything Goes – Blur819
5.War Machine – benjo48
6.Smash N' Grab - marcelaguiar
7.Spoilin’ For A Fight – ACDCrox74
8.Wheels – blur819
9.Decibel – blur819
10.Stormy May Day – gtcspider
11.She Likes Rock N’ Roll – blur819
12.Money Made – gnolivos
13.Rock N’ Roll Dream – marcelaguiar
14.Rocking All The Way – benjo48
15.Black Ice – Unknown


-----------------------------------------------------------------------
                      1.ROCK 'N' ROLL TRAIN-AC/DC
-----------------------------------------------------------------------

e|--------------------|
B|--------------------|
G|-Angus Young--------|
D|-Lead---------------|
A|--------------------|
E|--------------------|
 |
e|--------------------|
B|--------------------|
G|-Malcolm Young------|
D|-Rhythm-------------|
A|--------------------|
E|--------------------|


Intro Riff

e|----------------------------------------------|
B|---3----3----3--------3-3-3-3-3-3-3-3-3-------|
G|-2-2--2-2----2--------2-0-0-0-0-2-2-2-2-2-2-2-|  Angus only
D|-2-0--2-0----0--------0-0-0-0-0-0-0-0-0-2-2-2-|
A|-0-0--0-0----0----------x-x-x-x---------0-0-0-|
E|------------------------3-3-3-3---------------|


e|----------------------------------------------|
B|---3----3----3--------3-3-3-3-3-3-3-3-3-------|
G|-2-2--2-2----2--------2-0-0-0-0-2-2-2-2-2-2-2-|
D|-2-0--2-0----0--------0-0-0-0-0-0-0-0-0-2-2-2-|
A|-0-0--0-0----0----------x-x-x-x---------0-0-0-|
E|------------------------3-3-3-3---------------|
 |
e|------------------------3-3-3-3-2-2-2---------|
B|---3----3----3----------3-3-3-3-3-3-3---------|
G|-2-2--2-2----2----------0-0-0-0-2-2-2-0-2-2-2-|
D|-2-0--2-0----0----------0-0-0-0-0-0-0-0-2-2-2-|
A|-0-0--0-0----0----------x-x-x-x-------0-0-0-0-|
E|------------------------3-3-3-3---------------|


e|----------------------------------------------|
B|---3----3----3--------3-3-3-3-3-3-3-3-3-------|
G|-2-2--2-2----2--------2-0-0-0-0-2-2-2-2-2-2-2-|
D|-2-0--2-0----0--------0-0-0-0-0-0-0-0-0-2-2-2-|
A|-0-0--0-0----0----------x-x-x-x---------0-0-0-|
E|------------------------3-3-3-3---------------|
 |
e|------------------------3-3-3-3-2-2-2---------|
B|---3----3----3----------3-3-3-3-3-3-3---------|
G|-2-2--2-2----2----------0-0-0-0-2-2-2-0-2-2-2-|
D|-2-0--2-0----0----------0-0-0-0-0-0-0-0-2-2-2-|
A|-0-0--0-0----0----------x-x-x-x-------0-0-0-0-|
E|------------------------3-3-3-3---------------|

e|----------------------------------------------|
B|---3----3----3--------3-3-3-3-3-3-3-3-3-------|
G|-2-2--2-2----2--------2-0-0-0-0-2-2-2-2-2-2-2-|
D|-2-0--2-0----0--------0-0-0-0-0-0-0-0-0-2-2-2-|
A|-0-0--0-0----0----------x-x-x-x---------0-0-0-|
E|------------------------3-3-3-3---------------|
 |
e|------------------------3-3-3-3-2-2-2---------|
B|---3----3----3----------3-3-3-3-3-3-3---------|
G|-2-2--2-2----2----------0-0-0-0-2-2-2-0-2-2-2-|
D|-2-0--2-0----0----------0-0-0-0-0-0-0-0-2-2-2-|
A|-0-0--0-0----0----------x-x-x-x-------0-0-0-0-|
E|------------------------3-3-3-3---------------|

Both Angus and Malcolm hold the last A5 chord until Angus
starts the Verse Riff.

Verse
Malcolm rests from this point on until the Pre Chorus.

e|------------------| |------------------|
B|---3---3----3-----| |---3---3----------|
G|-2-2---2----2-----| |-2-2---2----2-----| x2
D|-2-4-2-4----4-----| |-2-4-2-4----2-----|
A|-0-0-0-0----0-----| |-0-0-0-0----0-----|
E|------------------| |------------------|

Pre Chorus
(Both Angus and Malcolm plam mute these parts. They stop muting
at the "*" )

e|----------------------------|
B|-3-----1-1-3-3-3-3-3-3-3----|
G|-2-2-2-0-0-0-0-0-2-2-0-2----|
D|---2-2-2-2-0-0-0-0-0-0-0----|
A|----------------------------|
E|----------------------------|
 |                              x3
e|----------------------------|
B|----------------------------|
G|-------0-0-----0-2-2-0-2----|
D|-2-2-2-2-2-0-0-0-0-0-0-2----|
A|-0-0-0-3-3-x-x--------------|
E|-----------3-3--------------|

                 *
e|-----------------|
B|-3-----1-1-3-3---|
G|-2-2-2-0-0-0-0-0-|
D|---2-2-2-2-0-0-0-|
A|-----------------|
E|-----------------|
 |               *
e|-----------------|
B|-----------------|
G|-------0-0-----0-|
D|-2-2-2-2-2-0-0-0-|
A|-0-0-0-3-3-x-x-0-|
E|-----------3-3---|

e|-------------------------------------|
B|-3-3-3-3----3-3-3----3-3-3-3----3----|
G|-2-2-2-2----2-2-2----2-2-2-2----2----|
D|-0-0-0-0----0-0-0----0-0-0-0----0----|
A|-------------------------------------|
E|-------------------------------------|
 |
e|-------------------------------------|
B|-3-3-3-3----3-3-3----3-3-3-3----3----|
G|-2-2-2-2----2-2-2----2-2-2-2----2----|
D|-0-0-0-0----0-0-0----0-0-0-0----0----|
A|-------------------------------------|
E|-------------------------------------|

Chorus

e|------------------------3-3--------------------------|
B|---3----3----3----------3-3-----3-3-------3----------|
G|-2-2--2-2----2----------0-0-----2-2-------2-2---2----|
D|-2-0--2-2----0----------0-0-----0-0-------0-2-2-2----|
A|-0-0--0-0----0----------x-x-----x-x---------0-0-0----|
E|------------------------3-3-----2-2------------------|
 |                                                       x4
e|------------------------3-------2--------------------|
B|---3----3----3----------3-3-3-3-3---------3----------|
G|-2-2--2-2----2----------0-0-0-0-2-2-2-2-2-2-2-2-2----|
D|-2-0--2-0----0----------0-0-0-0-0-0-0-0-0-0-2-2-2----|
A|-0-0--0-0---------------x-------------------0-0-0----|
E|------------------------3----------------------------|

Verse

e|------------------| |------------------|
B|---3---3----3-----| |---3---3----------|
G|-2-2---2----2-----| |-2-2---2----2-----|  Angus only
D|-2-4-2-4----4-----| |-2-4-2-4----2-----|
A|-0-0-0-0----0-----| |-0-0-0-0----0-----|
E|------------------| |------------------|

e|------------------| |------------------|
B|---3---3----3-----| |---3---3----------|
G|-2-2---2----2-----| |-2-2---2----2-----|
D|-2-4-2-4----4-----| |-2-4-2-4----2-----|
A|-0-0-0-0----0-----| |-0-0-0-0----0-----|
E|------------------| |------------------|
 |                    |
e|------------------| |------------------|
B|---3---3----3-----| |---3---3----------|
G|-2-2---2----2-----| |-2-2---2----2-----|
D|-2-4-2-4----4-----| |-2-4-2-4----2-----|
A|-0-0-0-0----0-----| |-0-0-0-0----0-----|
E|------------------| |------------------|

Pre Chorus
(Both Angus and Malcolm palm mute the same parts )

e|----------------------------|
B|-3-----1-1-3-3-3-3-3-3-3----|
G|-2-2-2-0-0-0-0-0-2-2-0-2----|
D|---2-2-2-2-0-0-0-0-0-0-0----|
A|----------------------------|
E|----------------------------|
 |                              x3
e|----------------------------|
B|----------------------------|
G|-------0-0-----0-2-2-0-2----|
D|-2-2-2-2-2-0-0-0-0-0-0-2----|
A|-0-0-0-3-3-x-x--------------|
E|-----------3-3--------------|

                 *
e|-----------------|
B|-3-----1-1-3-3---|
G|-2-2-2-0-0-0-0-0-|
D|---2-2-2-2-0-0-0-|
A|-----------------|
E|-----------------|
 |               *
e|-----------------|
B|-----------------|
G|--------0-0----0-|
D|-2-2-2-2-2-0-0-0-|
A|-0-0-0-3-3-x-x-0-|
E|-----------3-3---|

e|-------------------------------------|
B|-3-3-3-3----3-3-3----3-3-3-3----3----|
G|-2-2-2-2----2-2-2----2-2-2-2----2----|
D|-0-0-0-0----0-0-0----0-0-0-0----0----|
A|-------------------------------------|
E|-------------------------------------|
 |
e|-------------------------------------|
B|-3-3-3-3----3-3-3----3-3-3-3----3----|
G|-2-2-2-2----2-2-2----2-2-2-2----2----|
D|-0-0-0-0----0-0-0----0-0-0-0----0----|
A|-------------------------------------|
E|-------------------------------------|

Chorus

e|------------------------3-3--------------------------|
B|---3----3----3----------3-3-----3-3-------3----------|
G|-2-2--2-2----2----------0-0-----2-2-------2-2---2----|
D|-2-0--2-2----0----------0-0-----0-0-------0-2-2-2----|
A|-0-0--0-0---------------x-x-----x-x---------0-0-0----|
E|------------------------3-3-----2-2------------------|
 |                                                       x4
e|------------------------3-------2--------------------|
B|---3----3----3----------3-3-3-3-3---------3----------|
G|-2-2--2-2----2----------0-0-0-0-2-2-2-2-2-2-2-2-2----|
D|-2-0--2-0----0----------0-0-0-0-0-0-0-0-0-0-2-2-2----|
A|-0-0--0-0---------------x-------------------0-0-0----|
E|------------------------3----------------------------|

Solo

e|-------------------------------------------------------|
B|-------------------------------------------------------|
G|-x\\\----7^9~~~~-5---5-----------5--7^9~~~7^9~~~7^9~~~-|
D|-x\\\--------------7---5-7~~~~~~-----------------------|
A|-x\\\--------------------------------------------------|
E|-------------------------------------------------------|

e|-----------------------------------8~~~~--|
B|------------------------8---8-10-8--------|
G|-7p5--------5^~~~~--8h9---9---------------|
D|-----7~~~---5-~~~~------------------------|
A|------------------------------------------|
E|------------------------------------------|

e|-8^~~---8^~~~~~------|-12-~~~-12-~~~-12-~~~-12-~~|
B|-------------10~~~---|-13^~~--13^~~~-13^~~~-13~~~|
G|-------------------x-|---------------------------|
D|-------------------x-|---------------------------|
A|---------------------|---------------------------|
E|---------------------|---------------------------|

     pb
e|-10^11r-8-------------------|---------|
B|----------10-10~~~~~~~~~~~~-|~~~~////-|
G|----------------------------|-(Drums)-|
D|----------------------------|---------|
A|----------------------------|---------|
E|----------------------------|---------|

e|-8-------|
B|---10~~~~|
G|---------|
D|---------|
A|---------|
E|---------|

Malcolm repeats this under the solo:

e|-------------3-3-3-3-------|
B|-3-----------3-3-3-3-3-3-3-|
G|-2-2-2-2-----0-0-0-0-2-2-2-|
D|-0-2-2-2-----0-0-0-0-0-0-0-|
A|---0-0-0-----x-x-x-x-------|
E|-------------3-3-3-3-------|

Verse

e|------------------| |------------------|
B|---3---3----3-----| |---3---3----------|
G|-2-2---2----2-----| |-2-2---2----2-----|
D|-2-4-2-4----4-----| |-2-4-2-4----2-----|
A|-0-0-0-0----0-----| |-0-0-0-0----0-----|
E|------------------| |------------------|
 |                                        x2
e|------------------| |------------------|
B|---3---3----3-----| |---3---3----------|
G|-2-2---2----2-----| |-2-2---2----2-----|
D|-2-4-2-4----4-----| |-2-4-2-4----2-----|
A|-0-0-0-0----0-----| |-0-0-0-0----0-----|
E|------------------| |------------------|

Guitar Solo 2/Bridge

e|-10^--8---------------|
B|--------10~~~---8^----|
G|----------------------|
D|----------------------|
A|----------------------|
E|----------------------|

e|------5---------------|
B|--------5--8^10~~~~---|
G|-7^9------------------|
D|----------------------|
A|----------------------|
E|----------------------|

e|-------------|
B|-13~~~~~~~~\-|
G|-------------|
D|-------------|
A|-------------|
E|-------------|

e|--------------------|
B|-15^17r15-15~~~~-13-|
G|--------------------|
D|--------------------|
A|--------------------|
E|--------------------|

e|------5~~~------5-5~~~-|
B|-8^10------8^10--------|
G|-----------------------|
D|-----------------------|
A|-----------------------|
E|-----------------------|

         Hold bend
e|----8--8^10--8--8^10~~~~-10----13^15-----|
B|-10------------------------10------------|
G|-----------------------------------------|
D|-----------------------------------------|
A|-----------------------------------------|
E|-----------------------------------------|

e|-15----------------------------------------|
B|------13----13-15-13------------------12^--|
G|---------14----------14-14p12---14~~~------|
D|-----------------------------14------------|
A|-------------------------------------------|
E|-------------------------------------------|

e|-----------------|
B|-------------12^-|
G|-14~~~~~~~~------|
D|-----------------|
A|-----------------|
E|-----------------|
                              pb
e|-15--------------20~~~~----------------15------------|
B|----15-18-18^20--------10-12^13r-12~~~----15-20^22~~-|
G|-----------------------------------------------------|
D|-----------------------------------------------------|
A|-----------------------------------------------------|
E|-----------------------------------------------------|

Malcolm:

e|---------------------------------|
B|---------------------------------|
G|-2-2-2-2-2-2-2-2-2-2-2-2-2-2-2-2-| x4
D|-5-5-5-5-5-4-4-4-2-2-2-2-2-2-2-2-|
A|-0-0-0-0-0-0-0-0-0-0-0-0-0-0-0-0-|
E|---------------------------------|

e|-3-3-3-3-2-2-2-2-----------|
B|-3-3-3-3-3-3-3-3-----------|
G|-0-0-0-0-2-2-2-2-2-2-2-2---| x4
D|-0-0-0-0-0-0-0-0-0-2-2-2---|
A|-x-x-x-x-----------0-0-0---|
E|-3-3-3-3-------------------|

Guitar Solo 3/Chorus
Malcolm and Angus both play through the chorus normally.
Angus overdubbed the licks here.

e|----|
B|----|
G|-x\-|
D|-x\-|
A|-x\-|
E|----|

e|----------------------|
B|---20^22~~~~~20^22~~~-|
G|----------------------|
D|----------------------|
A|----------------------|
E|----------------------|

              pb
e|------------------------------------------------|
B|----20-------20--------------------------20^22--|
G|-19^20----19^20r----19-17-------17^--17^--------|
D|--------------------------19-17-----------------|
A|------------------------------------------------|
E|------------------------------------------------|

e|----------------------------------------------------------|
B|-20^22~~~~-----19-17-------20-19-17----17-----------------|
G|----------------------19------------19----19-17~~~--------|
D|---------------------------------------------------19~~~~-|
A|----------------------------------------------------------|
E|----------------------------------------------------------|

e|-----------------------------------------|
B|-18^20~~~~-20-19-17-19-17----------------|
G|--------------------------19-17^~~~------|
D|----------------------------------19~~~~-|
A|-----------------------------------------|
E|-----------------------------------------|

e|--------------------------------------|
B|-17-----------20----------------------|
G|----19-17--19^20---17^19--17----------|
D|-----------------------------19~~~~\--|
A|--------------------------------------|
E|--------------------------------------|

                           Hold Bend
e|----------------------------------------|
B|----20------20------20---20-20-20-20-20-|
G|-19^20---19^20---19^20---19-19-19-19-19-|
D|----------------------------------------|
A|----------------------------------------|
E|----------------------------------------|

e|---------------------------------------------------------|
B|-20^22----18-17-18-17-18-17-17h18p17----17---------------|
G|-------------------------------------19----19-17---------|
D|-------------------------------------------------19~~~~--|
A|---------------------------------------------------------|
E|---------------------------------------------------------|

e|----|
B|----|
G|-2\-|
D|-2\-|
A|-0\-|
E|----|
 |
e|----|
B|----|
G|-2\-|
D|-2\-|
A|-0\-|
E|----|


                  2.Skies On Fire – AC/DC

Intro:

                                          G5             D5
E|-----------------|-----------------|----3----33--3---|-----------------|
B|-----------------|-----------------|-3333--3333--3---|-3---------------|
G|-----------------|-----------------|-2220--2200--0---|-2---------------|
D|-----------------|-----------------|-0000--0000--0---|-0---------------|
A|-----------------|-----------------|----x----xx--x---|-----------------|
E|-----------------|-----------------|----3----33--3---|-----------------|
 |
 |                                        G5             D
E|-----------------|-----------------|----3----33--3---|-----------------|
B|-----------------|-----------------|-3333--3333--3---|-3---------------|
G|-----------------|-----------------|-2220--2200--0---|-2---------------|
D|-----------------|-----------------|-0000--0000--0---|-0---------------|
A|-----------------|-----------------|----x----xx--x---|-0---------------|
E|-----------------|-----------------|----3----33--3---|-----------------|

Repeat last two bars 4 times.

Verse 1:

    A5 G5 F5   FD              C5 G5 D5
E|-----------------|       |-----------------|
B|-----------------|       |---------3-------|
G|-----------------|       |------0--2-------|
D|-------------37--|       |---5--0--0-------|
A|---7--5--3---35--|       |---3--x----------|
E|---5--3--1-------|       |------3----------|
 |                   x3    |
 |  A5 G5 F5               |   C5 G5 D5
E|-----------------|       |-----------------|
B|-----------------|       |---------3-------|
G|-----------------|       |---5-----2-------|
D|---7--5--3---33--|       |---5--5--0-------|
A|---7--5--3---3---|       |---3--5----------|
E|-----------------|       |------3----------|


    A5 G5 F5   FD              C5 G5 D5
E|-----------------|       |-----------------|
B|-----------------|       |---------3-------|
G|-----------------|       |------0--2-------|
D|-------------37--|       |---5--0--0-------|
A|---7--5--3---35--|       |---3--x----------|
E|---5--3--1-------|       |------3----------|
 |                   x3    |
 |  A5 G5 F5               |   C5 G5 D5
E|-----------------|       |-----------------|
B|-----------------|       |---------3-------|
G|-----------------|       |---5-----2-------|
D|---7--5--3---33--|       |---5--5--0-------|
A|---7--5--3---3---|       |---3--5----------|
E|-----------------|       |------3----------|

    C5 G5 D5
E|-----------------|
B|---------3-------|
G|------0--2-------|
D|---5--0--0-------|
A|---3--x----------|
E|------3----------|
 |                   x3
 |
E|-----------------|
B|---------3-------|
G|---5-----2-------|
D|---5--5--0-------|
A|---3--5----------|
E|------3----------|

Chorus 1:

      G5             D5                   G5             D5
E|----3----33--3---|-----------------|----3----33--3---|-----------------|
B|-3333--3333--3---|-3---------------|-3333--3333--3---|-3---------------|
G|-2220--2200--0---|-2---------------|-2220--2200--0---|-2---------------|
D|-0000--0000--0---|-0---------------|-0000--0000--0---|-0---------------|
A|----x----xx--x---|-----------------|----x----xx--x---|-----------------|
E|----3----33--3---|-----------------|----3----33--3---|-----------------|
 |
 |    G5             D                    G5             D
E|----3----33--3---|-----------------|----3----33--3---|-----------------|
B|-3333--3333--3---|-3---------------|-3333--3333--3---|-3---------------|
G|-2220--2200--0---|-2---------------|-2220--2200--0---|-2---------------|
D|-0000--0000--0---|-0---------------|-0000--0000--0---|-0---------------|
A|----x----xx--x---|-0---------------|----x----xx--x---|-0---------------|
E|----3----33--3---|-----------------|----3----33--3---|-----------------|


      G5             D5                   G5             D5
E|----3----33--3---|-----------------|----3----33--3---|-----------------|
B|-3333--3333--3---|-3---------------|-3333--3333--3---|-3---------------|
G|-2220--2200--0---|-2---------------|-2220--2200--0---|-2---------------|
D|-0000--0000--0---|-0---------------|-0000--0000--0---|-0---------------|
A|----x----xx--x---|-----------------|----x----xx--x---|-----------------|
E|----3----33--3---|-----------------|----3----33--3---|-----------------|
 |
 |    G5             D                    G5             D
E|----3----33--3---|-----------------|----3----33--3---|-----------------|
B|-3333--3333--3---|-3---------------|-3333--3333--3---|-3---------------|
G|-2220--2200--0---|-2---------------|-2220--2200--0---|-2---------------|
D|-0000--0000--0---|-0---------------|-0000--0000--0---|-0---------------|
A|----x----xx--x---|-0---------------|----x----xx--x---|-0---------------|
E|----3----33--3---|-----------------|----3----33--3---|-----------------|

Verse 2:

    A5 G5 F5   FD              C5 G5 D5
E|-----------------|       |-----------------|
B|-----------------|       |---------3-------|
G|-----------------|       |------0--2-------|
D|-------------37--|       |---5--0--0-------|
A|---7--5--3---35--|       |---3--x----------|
E|---5--3--1-------|       |------3----------|
 |                   x7    |                   x4
 |  A5 G5 F5               |   C5 G5 D5
E|-----------------|       |-----------------|
B|-----------------|       |---------3-------|
G|-----------------|       |---5-----2-------|
D|---7--5--3---33--|       |---5--5--0-------|
A|---7--5--3---3---|       |---3--5----------|
E|-----------------|       |------3----------|

Chorus 2:

      G5             D5                   G5             D5
E|----3----33--3---|-----------------|----3----33--3---|-----------------|
B|-3333--3333--3---|-3---------------|-3333--3333--3---|-3---------------|
G|-2220--2200--0---|-2---------------|-2220--2200--0---|-2---------------|
D|-0000--0000--0---|-0---------------|-0000--0000--0---|-0---------------|
A|----x----xx--x---|-----------------|----x----xx--x---|-----------------|
E|----3----33--3---|-----------------|----3----33--3---|-----------------|
 |
 |    G5             D                    G5             D
E|----3----33--3---|-----------------|----3----33--3---|-----------------|
B|-3333--3333--3---|-3---------------|-3333--3333--3---|-3---------------|
G|-2220--2200--0---|-2---------------|-2220--2200--0---|-2---------------|
D|-0000--0000--0---|-0---------------|-0000--0000--0---|-0---------------|
A|----x----xx--x---|-0---------------|----x----xx--x---|-0---------------|
E|----3----33--3---|-----------------|----3----33--3---|-----------------|


      G5             D5                   G5             D5
E|----3----33--3---|-----------------|----3----33--3---|-----------------|
B|-3333--3333--3---|-3---------------|-3333--3333--3---|-3---------------|
G|-2220--2200--0---|-2---------------|-2220--2200--0---|-2---------------|
D|-0000--0000--0---|-0---------------|-0000--0000--0---|-0---------------|
A|----x----xx--x---|-----------------|----x----xx--x---|-----------------|
E|----3----33--3---|-----------------|----3----33--3---|-----------------|
 |
 |    G5             D                    G5             D
E|----3----33--3---|-----------------|----3----33--3---|-----------------|
B|-3333--3333--3---|-3---------------|-3333--3333--3---|-3---------------|
G|-2220--2200--0---|-2---------------|-2220--2200--0---|-2---------------|
D|-0000--0000--0---|-0---------------|-0000--0000--0---|-0---------------|
A|----x----xx--x---|-0---------------|----x----xx--x---|-0---------------|
E|----3----33--3---|-----------------|----3----33--3---|-----------------|

Hold D chord for one more bar

Guitar Solo 1:

Angus (Solo):

                                                 P.H.
E|---------------------------|------------------------|
B|-13b15~~~~~~~13b15~~~~~~\--|------------------------|
G|------------------------\--|-10b--------------------|
D|------------------------\--|-------12-10-12~~~~10b--|
A|------------------------\--|------------------------|
E|---------------------------|------------------------|

E|-------------10----------------10-13---|-------------------------------|
B|----------10----13-10-------10---------|----13-15-13b15-15-13b15~~~~~\-|
G|-12b14----------------12b14------------|-/14---------------------------|
D|---------------------------------------|-------------------------------|
A|---------------------------------------|-------------------------------|
E|---------------------------------------|-------------------------------|

                                       P.H.----------------|
E|---------------------------------------------------------|
B|------------10-------------------------------------------|
G|-12b14r12~~~---12pb14-----10-12----10b~~~~---------------|
D|--------------------------------12--------12(10)\/10////-|
A|---------------------------------------------------------|
E|---------------------------------------------------------|

E|-------------------|-----10-13-13b-10~~~~-10-13b~10~-|
B|-------------------|-/13-----------------------------|
G|-5-5-5~~~-5-7~~~~\-|---------------------------------|
D|--------7----------|---------------------------------|
A|-------------------|---------------------------------|
E|-------------------|---------------------------------|

E|---------------------------------------|
B|-20b22~~~~~20b22~~~~~18b---------------|
G|---------------------------19~~~~~~~\\-|
D|---------------------------------------|
A|---------------------------------------|
E|---------------------------------------|

E|----17---17---17-------|
B|----18b--18b--18b------|
G|-----------------------|
D|-----------------------|
A|-----------------------|
E|-----------------------|

E|-20b22~~~~~20b22~~~~~20b22~~~~~~22----20--------------------------|
B|-----------------------------------22----20-22-18b~~~-------------|
G|-------------------------------------------------------19-19~~~~\-|
D|------------------------------------------------------------------|
A|------------------------------------------------------------------|
E|------------------------------------------------------------------|

E|----------------|
B|-13b15~~~~~~~~~~|
G|----------------|
D|----------------|
A|----------------|
E|----------------|


Angus and Malcolm (Rhythm):

    A5 G5 F5   FD              C5 G5 D5
E|-----------------|       |-----------------|
B|-----------------|       |---------3-------|
G|-----------------|       |------0--2-------|
D|-------------37--|       |---5--0--0-------|
A|---7--5--3---35--|       |---3--x----------|
E|---5--3--1-------|       |------3----------|
 |                   x7    |                   x4
 |  A5 G5 F5               |   C5 G5 D5
E|-----------------|       |-----------------|
B|-----------------|       |---------3-------|
G|-----------------|       |---5-----2-------|
D|---7--5--3---33--|       |---5--5--0-------|
A|---7--5--3---3---|       |---3--5----------|
E|-----------------|       |------3----------|

Then play the last two bars of the intro once, before blasting back
into the chorus.

Chorus/Guitar Solo 2:

Angus (Solo):

2:50

E|-------14-15-15b17-------14-15-14-----------------12-----|
B|-15~~~~---------------------------15-15~~~~~12h15---15~~~|
G|---------------------------------------------------------|
D|---------------------------------------------------------|
A|---------------------------------------------------------|
E|---------------------------------------------------------|

   P.H.
E|-13~~~~~-----------------------|
B|---------12b13r10-----15~~~~~\-|
G|-------------------------------|
D|-------------------------------|
A|-------------------------------|
E|-------------------------------|

E|-------15-16-17-16-15-13-15-13~~~~~----------|
B|-15-19-----------------------------15-13-15--|
G|---------------------------------------------|
D|---------------------------------------------|
A|---------------------------------------------|
E|---------------------------------------------|

E|-13b-13b~~~~13b-13b-13b------|
B|-----------------------------|
G|-----------------------------|
D|-----------------------------|
A|-----------------------------|
E|-----------------------------|

E|-------14-15~~~~-------15-15~~~~-|
B|-15-17-----------15-17-----------|
G|---------------------------------|
D|---------------------------------| x3
A|---------------------------------|
E|---------------------------------|

E|-13b15~~~~~-13----15-13----------13-----10~~~~~~~\-|
B|---------------15-------15-13-15----13-------------|
G|---------------------------------------------------|
D|---------------------------------------------------|
A|---------------------------------------------------|
E|---------------------------------------------------|

Angus and Malcolm (Rhythm):

Repeat Chorus underneath solo. End on D5

E|-----|
B|-3---|
G|-2---|
D|-0---|
A|-----|
E|-----|


                3.AC/DC:  BIG JACK (Album, Black Ice)
Transcribed by:  Jeff Martin
Tuning:  Standard

Intro:

ANGUS
|-------------|
|-------------|
|-4---4-----4-|
|-4-2-4-2-2-4-|
|-2-2-2-2-2-2-|
|---0---0-0---|

Verse:

ANGUS & MALCOM
|------------------------------:||
|------------------------------:||
|------------------------------:||
|-4-4-------4*-4---4-4-4-4-4-4-:|| X4
|-0h2-2-5-4-2--2-2-0h2-0h2-0h2-:||
|-----0----------0-------------:||
          *Optional (But, played for sure)

|---------------------:||     |-0-|
|---------------------:||     |-2-|
|---------------------:||     |-3-|
|-4-4-4-4-4-4-----4-4-:|| X4  |-0-| (On 4th time, play D,
|-2-2-0h2-0h2-5-4-2-2-:||     |-0-|  instead of last B)
|---------------------:||     |-0-|

Chorus:

ANGUS (Listen for timing)
|----------|-7-8-8-7-8-0----------------------------------:||
|-13-13-13-|-8-8-8-8-8-0-7-8-8-7-8-0----------------------:||
|-12-12-12-|-------------7-7-7-7-7-0-6-7-6-7-6-6-7-6-7-6--:||
|----------|----------------------------------7---------7-:||X4
|----------|----------------------------------------------:||
|----------|----------------------------------------------:||
Note:  there are surely different variations of this riff as
       it repeats.  Sometimes, single notes are played. This
       will get you in the right place though.

MALCOM:                                     End on:
|-0-0-0-0--|-0-000-0-000-------------:||    |-----|
|-3-3-3-3--|-3-333-3-333-------------:||    |-----|
|-2-2-2-2--|-0-000-2-222-2-222-2-222-:||    |-2---|
|-0-0-0-0--|-0-000-0-000-2-222-2-222-:||X4  |-2-2-|
|-0-0-0-0--|-0-000-0-000-0-000-0-000-:||    |-0-2-|
|----------|-3-333-------------------:||    |---0-|

Verse 2 = Verse 1
Chorus 2 = Chorus 1

MALCOM, SOLO
|-------------|-------------|---| |-------:||
|-------------|-------------|---| |-------:||
|-------------|-------------|-4-| |-4-7-9-:||
|-4-4---7-6-4-|-4-4---7-6-4-|-4-| |-4-7-9-:||X4
|-0h2-2-5-4-2-|-0h2-2-5-4-2-|-2-| |-2-5-7-:||
|-----0-------|-----0-------|---| |-------:||

|-----------------------------|
|-----------------------------|
|----------7------------------|
|----------7-9----------------|
|-77777777-5-77777777-5555555-|
|-----------------------------|

ANGUS, SOLO:
|-------------------------------|- Arggg....
|-12-12-12-12-12-10-10-10---9-7-|- I will post it later,
|-11-11-11-11-11-09h11-09-7-9-7-|- Outta time (again), sorry!
|-------------------------------|
|-------------------------------|
|-------------------------------|

Go back to the chorus, end it on B-A...

That's it, except, the solo, which I will post in a separate tab.

I am sure someone else can do it better anyways.  At least these are
the main parts.


             4.AC/DC - Anything Goes, from Black Ice
Transcribed by:  Jeff Martin
Tuning:  Standard

INTRO:
|ANGUS                          Fill 1 at 0:08 (Used often throughout)
|-----------------------:||    |-------------------------|
|-----------------------:||    |-15-15-15-15-15-15-15-15-|
|-7-777-6-4-2-2---------:||    |-------------------------|
|-7-777-7-5-0-0-0000000-:||    |-------------------------|
|-----------------------:||    |-------------------------|
|-----------------------:||X4  |-USE-VERBRATO>>>---------|
|
|MALCOM
|-----------------------:||
|-----------------------:||
|-----------------------:||
|-7-7-7-7-7-7-7-7-7-7-7-:||
|-5-5-5-5-5-5-5-5-5-5-5-:||
|-PM>>>-----------------:||X4
|
|GUITAR 3 (Could be Angus & listen close for the timing)
|-14-14-14-14-14-14-12-10-10-12-10-10-12-:||
|-10-10-10-10-10-10-10-10-10-10-10-10-10-:||
|-11-11-11-11-11-11-11-11-11-11-11-11-11-:||
|----------------------------------------:||
|----------------------------------------:||
|-FINGER PICKING>>>----------------------:||X2 Continued...

GUITAR 3 Cont:
|-14-14-14-14-14-14-14-14-15-15-15-15-15-15-15-14-14-14-12-10-10-|
|-10-10-10-10-10-10-10-10-10-10-10-10-10-10-10-10-10-10-10-10-10-|
|-11-11-11-11-11-11-11-11-11-11-11-11-11-11-11-11-11-11-11-11-11-|
|----------------------------------------------------------------|
|----------------------------------------------------------------|
|-FINGER PICKING>>>----------------------------------------------|X1

VERSE 1
|ANGUS
|-----------------------:||
|-----------------------:||
|-7-777-6-4-2-2---------:||
|-7-777-7-5-0-0-0000000-:||
|-----------------------:||
|-----------------------:||X2
|
|MALCOM
|-----------------------:||
|-----------------------:||
|-----------------------:||
|-7-7-7-7-7-7-7-7-7-7-7-:||
|-5-5-5-5-5-5-5-5-5-5-5-:||
|-PM>>>-----------------:||X2

|ANGUS (*Riff Variation 2)
|-----------------------:||
|-----------------------:||
|-7-777-6-4-2-2-4-2-2-4-:||
|-7-777-7-5-0-0-0-0-0-0-:||
|-----------------------:||
|-----------------------:||X2
|
|MALCOM
|-----------------------:||
|-----------------------:||
|-----------------------:||
|-7-7-7-7-7-7-7-7-7-7-7-:||
|-5-5-5-5-5-5-5-5-5-5-5-:||
|-PM>>>-----------------:||X2

CHORUS
|ANGUS
|-3---------------3---------------3-------|
|-3---------------3---------------3-------|
|-0---------------0---------------0-------|
|-0---------------0---------------0-------|
|-0---------------0---------------0-------|
|-3---------------3---------------3-------|
|
|MALCOM
|-----------------------------------------|
|-----------------------------------------|
|-----------------------------------------|
|-5---------------5---------------5-------|
|-5---------------5---------------5-------|
|-3-3-3-3-3-3-3-3-3-3-3-3-3-3-3-3-3-3-3-3-|

|ANGUS (Mix in Riff 2)          Fill 1 (USED OFTEN!!)
|-----------------------:||    |-------------------------|
|-----------------------:||    |-15-15-15-15-15-15-15-15-|
|-7-777-6-4-2-2---------:||    |-------------------------|
|-7-777-7-5-0-0-0000000-:||    |-------------------------|
|-----------------------:||    |-------------------------|
|-----------------------:||X4  |-USE-VERBRATO>>>---------|
|
|MALCOM                         MALCOM Ends on:
|-----------------------:||    |-------------0-0---------|
|-----------------------:||    |-------------3-3---------|
|-----------------------:||    |-7-7-7-7-6-4-2-2---------|
|-7-7-7-7-7-7-7-7-7-7-7-:||    |-7-7-7-7-6-4-0-0---------|
|-5-5-5-5-5-5-5-5-5-5-5-:||    |-5-5-5-5-4-2-0-0---------|
|-PM>>>-----------------:||X3  |-------------------------|X1

VERSE 2 = VERSE 1
CHORUS 2 = CHORUS 1

BRIDGE
|ANGUS (I will keep it all together here)
|-12-12-10-10-12-12-10-10-12-12-10-10-12-12-12-10-|
|-10-10-10-10-10-10-10-10-10-10-10-10-10-10-10-10-|
|-11-11-11-11-11-11-11-11-11-11-11-11-11-11-11-11-|
|-------------------------------------------------|
|-------------------------------------------------|
|-FINGER PICKING>>>-------------------------------|Continued>>>
>>>
|-14-14-14-14-14-14-14-12-14-14-14-14-12-14-12-14-|
|-10-10-10-10-10-10-10-10-10-10-10-10-10-10-10-10-|
|-11-11-11-11-11-11-11-11-11-11-11-11-11-11-11-11-|
|-------------------------------------------------|
|-------------------------------------------------|
|-FINGER PICKING>>>-------------------------------|Continued>>>
>>>
|-12-12-10-10-12-12-10-10-12-12-10-10-12-12-10-10-|
|-10-10-10-10-10-10-10-10-10-10-10-10-10-10-10-10-|
|-11-11-11-11-11-11-11-11-11-11-11-11-11-11-11-11-|
|-------------------------------------------------|
|-------------------------------------------------|
|-FINGER PICKING>>>-------------------------------|Continued>>>
>>>
|-10-10-10-10-15-15-15-15-15-15-15-15-|
|-10-10-10-10-10-10-10-10-10-10-10-10-|
|-11-11-11-11-11-11-11-11-11-11-11-11-|
|-------------------------------------|
|-------------------------------------|
|-------------------------------------|
|
|
|MALCOM (Close Tab, sorry, they're 16th notes, I guess)
|-------------------------------------------------------------------|
|-------------------------------------------------------------------|
|-------------------------------------------------------------------|
|-2222222222222222-4444444444444444-222222222222222-222222222222222-|
|-0000000000000000-2222222222222222-000000000000000-000000000000000-|
|-------------------------------------------------------------------|
***The A & B's are played behind all the finger picking****

|ANGUS' SOLO
|--------10-------10------10----10-10------------------|
|------10-------10------10------10-10------10-10/15-15-|
|-12b14----12b14---12b14---12b14------12b14------------|
|------------------------------------------------------|
|------------------------------------------------------|
|------------------------------------------------------|

|--------10-------10------10----10-10---------------------------------|
|------10-------10------10------10-10------10h13p10h13p10h13p10h13p10-|
|-12b14----12b14---12b14---12b14------12b14---------------------------|
|---------------------------------------------------------------------|
|---------------------------------------------------------------------|
|---------------------------------------------------------------------|
***These are like 64th notes, super fast anyways****V
|-*10-10-10-10-12-13-13-13-13-10-7-10-7-10-7-13-13-13-13-13/-|
|------------------------------------------------------------|
|------------------------------------------------------------|
|------------------------------------------------------------|
|------------------------------------------------------------|
|------------------------------------------------------------|

|------10-10-----10--10-------10-10-10-10-10-10-|
|------------------12--12-10--------------------|
|-12b14-----12b14--12--12-11--------------------|
|---------------------------12------------------|
|-----------------------------------------------|
|-----------------------------------------------|

|------10--------10-------10-10-10--------------|
|---------------------------------12-10---------|
|-12b14--12b14-14-14-14-14--------12-11---------|
|-----------------------------------------------|
|-----------------------------------------------|
|-----------------------------------------------|
|
|MALCOM (Behind Solo, listen for timing, these are just the chords)
|-------|
|-------|
|-7---7-|
|-7-5-7-|
|-5-5-5-|
|---3---|
|
|Guitar 3 plays Riff Variation 2, from above

Bridge (AGAIN!) Then...

JUST ANGUS FINGER PICKING
|-14-14-14-14-14-14-14-12-12-10-10-10-10-12-10-10-10-10-10-12-10-10-12-10-10-|
|-10-10-10-10-10-10-10-10-10-10-10-10-10-10-10-10-10-10-10-10-10-10-10-10-10-|
|-11-11-11-11-11-11-11-11-11-11-11-11-11-11-11-11-11-11-11-11-11-11-11-11-11-|
|----------------------------------------------------------------------------|
|----------------------------------------------------------------------------|
|----------------------------------------------------------------------------|

Use Intro from here, with ANGUS (Guitar 3) FINGER PICKING

Well,that's the best that I could do... TIA for corrections!!!

                          5.War Machine by AC/DC
from Black Ice

  G  E  D  E
e-3--0--2--0--|
B-3--0--3--0--|
G-0--1--2--1--|
D-0--2--0--2--|
A-2--2-----2--|
E-3--0-----0--|

e-------5----------5----|
B-8p5-5---5--8p5-5---5--|
G-----------------------|
D-----------------------|
A-----------------------|
E-----------------------|

Main Riff
e--------------|
B--------------|
G--------------|
D-------2------|
A-2-2-2-0-2----|
E-3-0-0---0----|

Chorus
e-----------------|
B-----------------|
G----------7-7----|
D-7-7-7-7--7-7-7--|
A-7-7-7-7--5-5-7--|
E-5-5-5-5------5--|

Any corrections please comment
Thanks

                        6.Smash N' Grab

Ac/Dc
Black Ice

|-Angus---||
|          |
|-Malcolm-||

 I split songs into parts/chunks. NOT MEASURES.
So don't let that confuse you. This is a fairly easy song,
even funner to play. Thanks to Playinbass1432 for parts of the solo.

e|----------------------||
B|-10~~~~---------------||
G|---------7~~~~-5~~~~~-||
D|----------------------||
A|----------------------||
E|----------------------||
 |                       |x2
 |                       |
e|----------------------||
B|-------3--------------||
G|-2-2-0-2--------------||
D|-2-2-0-0--------------||
A|-0-0------------------||
E|-----3----------------||


e|-------------------|
B|-3-3-3-3--3--3-----|(Both Malcolm and Angus)
G|-2-2-2-2--0--2--2--|
D|-0-0-0-0--0--0--2--|x4
A|----------------0--|
E|-------------------|

e|----------------------|-------------------||
B|-10~~~~---------------|-------------------||
G|---------7~~~~-5~~~~~-|-------------------||
D|----------------------|-------------------||
A|----------------------|-------------------||
E|----------------------|-------------------||
 |                                           |x2
 |                                           |
e|----------------------|-------------------||
B|-------3--------------|-------3-----------||
G|-2-2-0-2--------------|-2-2-0-2-----------||
D|-2-2-0-0--------------|-2-2-0-0-----------||
A|-0-0------------------|-0-0---------------||
E|-----3----------------|-----3-------------||

Verse:
e|-------------------|
B|-3-3-3-3--3--3-----|
G|-2-2-2-2--0--2--2--|
D|-0-0-0-0--0--0--2--|x4
A|----------------0--|
E|-------------------|

e|-----------------------------------------------------------------|
B|---------------------------------3-3-3-3-3-3-3-3-3-3-3-3-3-3-3-3-|
G|-5-5-5-5-5-5-5-5-----------------2-2-2-2-2-2-2-2-2-2-2-2-2-2-2-2-|
D|-5-5-5-5-5-5-5-5-3-3-3-3-3-3-3-3-0-0-0-0-0-0-0-0-0-0-0-0-0-0-0-0-|
A|-3-3-3-3-3-3-3-3-3-3-3-3-3-3-3-3---------------------------------|
E|-----------------1-1-1-1-1-1-1-1---------------------------------|

Chorus:
e|----------------------------|---3-3-3-3-3-3-3-3-3-3-3-3-3-3-3-|
B|-------3-3-3--3--3-3-3--3-3-|---3-3-3-3-3-3-3-3-3-3-3-3-3-3-3-|
G|-2---2-2-2-2--0--0-0-2--2-2-|---0-0-0-0-0-0-0-0-0-0-0-0-0-0-0-|
D|-2---2-0-0-0--0--0-0-0--0-0-|x3-0-0-0-0-0-0-0-0-0-0-0-0-0-0-0-|
A|-0---0----------------------|---------------------------------|
E|--------------3--3-3--------|---3-3-3-3-3-3-3-3-3-3-3-3-3-3-3-|

Verse:
e|-------------------|
B|-3-3-3-3--3--3-----|
G|-2-2-2-2--0--2--2--|
D|-0-0-0-0--0--0--2--|x4
A|----------------0--|
E|-------------------|

e|-----------------------------------------------------------------|
B|---------------------------------3-3-3-3-3-3-3-3-3-3-3-3-3-3-3-3-|
G|-5-5-5-5-5-5-5-5-----------------2-2-2-2-2-2-2-2-2-2-2-2-2-2-2-2-|
D|-5-5-5-5-5-5-5-5-3-3-3-3-3-3-3-3-0-0-0-0-0-0-0-0-0-0-0-0-0-0-0-0-|
A|-3-3-3-3-3-3-3-3-3-3-3-3-3-3-3-3---------------------------------|
E|-----------------1-1-1-1-1-1-1-1---------------------------------|


Chorus:

e|----------------------------|---3-3-3-3-3-3-3-3-3-3-3-3-3-3-3-|
B|-------3-3-3--3--3-3-3--3-3-|---3-3-3-3-3-3-3-3-3-3-3-3-3-3-3-|
G|-2---2-2-2-2--0--0-0-2--2-2-|---0-0-0-0-0-0-0-0-0-0-0-0-0-0-0-|
D|-2---2-0-0-0--0--0-0-0--0-0-|x3-0-0-0-0-0-0-0-0-0-0-0-0-0-0-0-|
A|-0---0----------------------|---------------------------------|
E|--------------3--3-3--------|---3-3-3-3-3-3-3-3-3-3-3-3-3-3-3-|

e|----------------------|-------------------||
B|-10~~~~---------------|-------------------||
G|---------7~~~~-5~~~~~-|-------------------||
D|----------------------|-------------------||
A|----------------------|-------------------||
E|----------------------|-------------------||
 |                                           |x2
 |                                           |
e|----------------------|-------------------||
B|-------3--------------|-------3-----------||
G|-2-2-0-2--------------|-2-2-0-2-----------||
D|-2-2-0-0--------------|-2-2-0-0-----------||
A|-0-0------------------|-0-0---------------||
E|-----3----------------|-----3-------------||


Solo: (Thanks to Playinbass1432 for some parts)
e|--------------------------|-------------------|
B|-------12b~-12b~----------|-15b17-13-15-------|
D|-------12b~-12b~--7p5---7-|-------------14~~\-|
D|-x\\\\----------------5---|-------------------|
A|-x\\\\--------------------|-------------------|
E|-x\\\\--------------------|-------------------|

e|---------------------------------------|
B|-18b20--17-16-15--13-15----15b17-15b17-|
G|------------------------14-------------|
D|---------------------------------------|
A|---------------------------------------|
E|---------------------------------------|

e|-------------15--------15----------------|
B|-15b17-15b17----15b17-----15b17-15b17r13-|
G|-----------------------------------------|
D|-----------------------------------------|
A|-----------------------------------------|
E|-----------------------------------------|

e|------------|------------------------------------------|
B|------------|-15b17-17-15b17-17-15b17-17-15b17-17r15\--|
G|-14~~~~~~---|------------------------------------------|
D|------------|------------------------------------------|
A|------------|------------------------------------------|
E|------------|------------------------------------------|
 |                                                       |
 |                                                       |
e|------------|------------------------------------------|
B|-20b22~~~---|------------------------------------------|
G|------------|------------------------------------------|
D|------------|------------------------------------------|
A|------------|------------------------------------------|
E|------------|------------------------------------------|

e|--------15-12-------------------------------|---------------------|
B|-18b20--------15-13-15p13-15-13~------------|-15b17-13------------|
G|-20~~~---------------------------14p12-14~\-|----------14--12-14\-|
D|--------------------------------------------|---------------------|
A|--------------------------------------------|---------------------|
E|--------------------------------------------|---------------------|

e|-----------------|
B|-----------------|
G|-----------------|
D|-7-5-------------|
A|-----7-5--3/12\0-|
E|-----------------|

e|----------------------------------15-17-----------17--------------|
B|---------------------------15b17--------17--20b22----20-20b22~~~~\|
G|-----5---5------7~~~-9~~~-----------------------------------------|
D|-x-x---x---7--x---------------------------------------------------|
A|------------------------------------------------------------------|
E|------------------------------------------------------------------|

Rhythm Guitar for Solo:
e|------------------------------------------------------------------|
B|---------------------------------3-3-3-3-3-3-3-3------------------|
G|-2-2-2-2-2-2-2-2-----------------2-2-2-2-2-2-2-2------------------|
D|-2-2-2-2-2-2-2-2-3-3-3-3-3-3-3-3-0-0-0-0-0-0-0-0-5-5-5-5-5-5-x--5-|
A|-0-0-0-0-0-0-0-0-3-3-3-3-3-3-3-3-----------------5-5-5-5-5-5-x--5-|
E|-----------------1-1-1-1-1-1-1-1-----------------3-3-3-3-3-3-x--3-|

e|----------------------------|---------------------------------------|
B|-------3-3-3--3--3-3-3--3-3-|---3-3-3-3-3-3-3-3-3-3-3-3-3-3-3-------|
G|-2---2-2-2-2--0--0-0-2--2-2-|---2-2-2-2-2-2-2-2-2-2-2-2-2-2-2-2~~~~-|
D|-2---2-0-0-0--0--0-0-0--0-0-|x3-0-0-0-0-0-0-0-0-0-0-0-0-0-0-0-2~~~~-|
A|-0---0----------------------|---------------------------------0~~~~-|
E|--------------3--3-3--------|---------------------------------------|

e|----------------------|-------------------||
B|-10~~~~---------------|-------------------||
G|---------7~~~~-5~~~~~-|-------------------||
D|----------------------|-------------------||
A|----------------------|-------------------||
E|----------------------|-------------------||
 |                                           |
 |                                           |
e|----------------------|-------------------||
B|-------3--------------|-------3~~~~~~-----||
G|-2-2-0-2--------------|-2-2-0-2~~~~~~-----||
D|-2-2-0-0--------------|-2-2-0-0~~~~~~-----||
A|-0-0------------------|-0-0---------------||
E|-----3----------------|-----3-------------||

e|----------------------|-------------------------||
B|-10~~~~---------------|-------------------------||
G|---------7~~~~-5~~~~~-|---------5b-5b-5b\2~~~~~-||
D|----------------------|-------------------------||
A|----------------------|-------------------------||
E|----------------------|-------------------------||
 |                                                 |
 |                                                 |
e|----------------------|-------------------------||
B|-------3--------------|-------3~~~~~~-----------||
G|-2-2-0-2--------------|-2-2-0-2~~~~~~-----------||
D|-2-2-0-0--------------|-2-2-0-0~~~~~~-----------||
A|-0-0------------------|-0-0---------------------||
E|-----3----------------|-----3-------------------||

e|----------------------|--------15h16-15-13-15b15.5-|
B|-10~~~~---------------|----------------------------|
G|---------7~~~~-5~~~~~-|----------------------------|
D|----------------------|----------------------------|
A|----------------------|----------------------------|
E|----------------------|----------------------------|
 |
 |
e|----------------------|----------------------------|
B|-------3--------------|-------3~~~~~~--------------|
G|-2-2-0-2--------------|-2-2-0-2~~~~~~--------------|
D|-2-2-0-0--------------|-2-2-0-0~~~~~~--------------|
A|-0-0------------------|-0-0------------------------|
E|-----3----------------|-----3----------------------|

----------------------------------||
15p13-15-13-------13----15-13~~\--||
------------14-14----14-----------||
----------------------------------||
----------------------------------||
----------------------------------||
                                   |
                                   |
----------------------------------||
----------------------------------||
----------------------------------||
----------------------------------||
----------------------------------||
----------------------------------||

e|----------------------|-------------------||
B|-10~~~~---------------|----------15~~~~~--||
G|---------7~~~~-5~~~~~-|-14-14-14----------||
D|----------------------|-------------------||
A|----------------------|-------------------||
E|----------------------|-------------------||
 |                                           |
 |                                           |
e|----------------------|-------------------||
B|-------3--------------|----------3~~~~~~--||
G|-2-2-0-2--------------|-2--2--0--2~~~~~~--||
D|-2-2-0-0--------------|-2--2--0--0~~~~~~--||
A|-0-0------------------|-0-----------------||
E|-----3----------------|-------3-----------||

Any questions? Post a comment and take yur time to rate the tab. I took time
to make it.

                        7.Spoilin' For A Fight

Tabbed By: ACDCrox74
Tuning: Standard

Legend:
p= pull off
h= hammer on
b= bend
/= slide
~= vibrato

Guitar 1: Angus Young
Guitar 2: Malcom Young

Intro:
Guitar 1
e|------------|
B|------------|
G|-4-4-4-4-4--|
D|-4-4-4-4-4--|
A|-2-2-0-2-2--|
E|------------|

Guitar 1
e|---------------------7---7------7--7------|
B|----------------10p7--7--7---10----7--7b--|
G|-4-4-4-4-4----9b-----------9b---------9b--|
D|-4-4-4-4-4--------------------------------|
A|-2-2-0-2-2--------------------------------|
E|------------------------------------------|

Guitar 2
e|------------------------------------------|
B|------------------------------------------|
G|-4-4-4-4-4-----------------7--7-7-7-4-----|
D|-4-4-4-4-4-----------------7--7-7-7-4-----|
A|-2-2-0-2-2-----------------5--5-4-4-2-----|
E|------------------------------------------|


Verse:
Guitar 1
e|------------|
B|------------|
G|-4-4-4-4-4--|
D|-4-4-4-4-4--|
A|-2-2-0-2-2--|
E|------------|

Guitar 2
e|------------|
B|------------|
G|-4-4-4-4-4--|
D|-4-4-4-4-4--|
A|-2-2-0-2-2--|
E|------------|


Guitar 1
e|------------------------------------------|
B|------------------------------------------|
G|-4-4-4-4-4-----------------7--7-7-7-4-----|
D|-4-4-4-4-4-----------------7--7-7-7-4-----|
A|-2-2-0-2-2-----------------5--5-4-4-2-----|
E|------------------------------------------|

Guitar 2
e|------------------------------------------|
B|------------------------------------------|
G|-4-4-4-4-4-----------------7--7-7-7-4-----|
D|-4-4-4-4-4-----------------7--7-7-7-4-----|
A|-2-2-0-2-2-----------------5--5-4-4-2-----|
E|------------------------------------------|


Guitar 1
e|------------|
B|------------|
G|-4-4-4-4-4--|
D|-4-4-4-4-4--|
A|-2-2-0-2-2--|
E|------------|

Guitar 2
e|------------|
B|------------|
G|-4-4-4-4-4--|
D|-4-4-4-4-4--|
A|-2-2-0-2-2--|
E|------------|


Guitar 1
e|------------------------------------------|
B|------------------------------------------|
G|-4-4-4-4-4-----------------7--7-7-7-4-----|
D|-4-4-4-4-4-----------------7--7-7-7-4-----|
A|-2-2-0-2-2-----------------5--5-4-4-2-----|
E|------------------------------------------|

Guitar 2
e|------------------------------------------|
B|------------------------------------------|
G|-4-4-4-4-4-----------------7--7-7-7-4-----|
D|-4-4-4-4-4-----------------7--7-7-7-4-----|
A|-2-2-0-2-2-----------------5--5-4-4-2-----|
E|------------------------------------------|


Guitar 1
e|------------|
B|------------|
G|-4-4-4-4-4--|
D|-4-4-4-4-4--|
A|-2-2-0-2-2--|
E|------------|

Guitar 2
e|------------|
B|------------|
G|-4-4-2-1-4--|
D|-4-4-2-2-4--|
A|-2-2-----2--|
E|------------|


Guitar 1
e|------------------------------------------|
B|------------------------------------------|
G|-4-4-4-4-4-----------------7--7-7-7-4-----|
D|-4-4-4-4-4-----------------7--7-7-7-4-----|
A|-2-2-0-2-2-----------------5--5-4-4-2-----|
E|------------------------------------------|

Guitar 2
e|-------------------------------------------|
B|-------------------------------------------|
G|-4-4-2-1-4-----------------7--7-7-7-4------|
D|-4-4-2-2-4-----------------7--7-7-7-4------|
A|-2-2-----2-----------------5--5-4-4-2------|
E|-------------------------------------------|


Guitar 1
e|------------|
B|------------|
G|-4-4-4-4-4--|
D|-4-4-4-4-4--|
A|-2-2-0-2-2--|
E|------------|

Guitar 2
e|------------|
B|------------|
G|-4-4-2-1-4--|
D|-4-4-2-2-4--|
A|-2-2-----2--|
E|------------|


Guitar 1
e|------------------------------------------|
B|------------------------------------------|
G|-4-4-4-4-4-----------------7--7-7-7-4-----|
D|-4-4-4-4-4----11b11p9------7--7-7-7-4-----|
A|-2-2-0-2-2-----------------5--5-4-4-2-----|
E|------------------------------------------|

Guitar 2
e|-------------------------------------------|
B|-------------------------------------------|
G|-4-4-2-1-4-----------------7--7-7-7-4------|
D|-4-4-2-2-4-----------------7--7-7-7-4------|
A|-2-2-----2-----------------5--5-4-4-2------|
E|-------------------------------------------|


Pre-Chorus:
Guitar 1
e|-----------------------|
B|-----------------------|
G|-1----1----1------2----|
D|-2----2----2------2----|
A|-2----2----2------0----|
E|-0----0----0-----------|

Guitar 2
e|-----------------------|
B|-----------------------|
G|-1----1----1------2----|
D|-2----2----2------2----|
A|-2----2----2------0----|
E|-0----0----0-----------|


Chorus:
Guitar 1
e|---------------------7---7------7--7------|
B|----------------10p7--7--7---10----7--7b--|
G|-4-4-4-4-4----9b-----------9b---------9b--|
D|-4-4-4-4-4--------------------------------|
A|-2-2-0-2-2--------------------------------|
E|------------------------------------------|

Guitar 2
e|------------------------------------------|
B|------------------------------------------|
G|-4-4-4-4-4-----------------7--7-7-7-4-----|
D|-4-4-4-4-4-----------------7--7-7-7-4-----|
A|-2-2-0-2-2-----------------5--5-4-4-2-----|
E|------------------------------------------|


Guitar 1
e|---------------------7---7------7--7------|
B|----------------10p7--7--7---10----7--7b--|
G|-4-4-4-4-4----9b-----------9b---------9b--|
D|-4-4-4-4-4--------------------------------|
A|-2-2-0-2-2--------------------------------|
E|------------------------------------------|

Guitar 2
e|------------------------------------------|
B|------------------------------------------|
G|-4-4-4-4-4-----------------7--7-7-7-4-----|
D|-4-4-4-4-4-----------------7--7-7-7-4-----|
A|-2-2-0-2-2-----------------5--5-4-4-2-----|
E|------------------------------------------|


Guitar 1
e|---------------------7---7------7--7------|
B|----------------10p7--7--7---10----7--7b--|
G|-4-4-4-4-4----9b-----------9b---------9b--|
D|-4-4-4-4-4--------------------------------|
A|-2-2-0-2-2--------------------------------|
E|------------------------------------------|

Guitar 2
e|------------------------------------------|
B|------------------------------------------|
G|-4-4-4-4-4-----------------7--7-7-7-4-----|
D|-4-4-4-4-4-----------------7--7-7-7-4-----|
A|-2-2-0-2-2-----------------5--5-4-4-2-----|
E|------------------------------------------|


Guitar 1
e|-10~------7--|          |----------|
B|-----7b-7-7--|          |----------|
G|-----9b------| x3 then: |----------|
D|-------------|          |-2-2-2-2--|
A|-------------|          |-2-2-2-2--|
E|-------------|          |-0-0-0-0--|

Guitar 2
e|------------|           |----------|
B|------------|           |----------|
G|-4-4-4-4-4--| x3 then:  |----------|
D|-4-4-4-4-4--|           |-2-2-2-2--|
A|-2-2-0-2-2--|           |-2-2-2-2--|
E|------------|           |-0-0-0-0--|


Verse:
Guitar 1
e|------------|
B|------------|
G|-4-4-4-4-4--|
D|-4-4-4-4-4--|
A|-2-2-0-2-2--|
E|------------|

Guitar 2
e|------------|
B|------------|
G|-4-4-4-4-4--|
D|-4-4-4-4-4--|
A|-2-2-0-2-2--|
E|------------|


Guitar 1
e|------------------------------------------|
B|------------------------------------------|
G|-4-4-4-4-4-----------------7--7-7-7-4-----|
D|-4-4-4-4-4-----------------7--7-7-7-4-----|
A|-2-2-0-2-2-----------------5--5-4-4-2-----|
E|------------------------------------------|

Guitar 2
e|------------------------------------------|
B|------------------------------------------|
G|-4-4-4-4-4-----------------7--7-7-7-4-----|
D|-4-4-4-4-4-----------------7--7-7-7-4-----|
A|-2-2-0-2-2-----------------5--5-4-4-2-----|
E|------------------------------------------|


Guitar 1
e|------------|
B|------------|
G|-4-4-4-4-4--|
D|-4-4-4-4-4--|
A|-2-2-0-2-2--|
E|------------|

Guitar 2
e|------------|
B|------------|
G|-4-4-4-4-4--|
D|-4-4-4-4-4--|
A|-2-2-0-2-2--|
E|------------|


Guitar 1
e|------------------------------------------|
B|------------------------------------------|
G|-4-4-4-4-4-----------------7--7-7-7-4-----|
D|-4-4-4-4-4-----------------7--7-7-7-4-----|
A|-2-2-0-2-2-----------------5--5-4-4-2-----|
E|------------------------------------------|

Guitar 2
e|------------------------------------------|
B|------------------------------------------|
G|-4-4-4-4-4-----------------7--7-7-7-4-----|
D|-4-4-4-4-4-----------------7--7-7-7-4-----|
A|-2-2-0-2-2-----------------5--5-4-4-2-----|
E|------------------------------------------|


Guitar 1
e|------------|
B|------------|
G|-4-4-4-4-4--|
D|-4-4-4-4-4--|
A|-2-2-0-2-2--|
E|------------|

Guitar 2
e|------------|
B|------------|
G|-4-4-2-1-4--|
D|-4-4-2-2-4--|
A|-2-2-----2--|
E|------------|


Guitar 1
e|------------------------------------------|
B|------------------------------------------|
G|-4-4-4-4-4-----------------7--7-7-7-4-----|
D|-4-4-4-4-4-----------------7--7-7-7-4-----|
A|-2-2-0-2-2-----------------5--5-4-4-2-----|
E|------------------------------------------|

Guitar 2
e|-------------------------------------------|
B|-------------------------------------------|
G|-4-4-2-1-4-----------------7--7-7-7-4------|
D|-4-4-2-2-4-----------------7--7-7-7-4------|
A|-2-2-----2-----------------5--5-4-4-2------|
E|-------------------------------------------|


Guitar 1
e|------------|
B|------------|
G|-4-4-4-4-4--|
D|-4-4-4-4-4--|
A|-2-2-0-2-2--|
E|------------|

Guitar 2
e|------------|
B|------------|
G|-4-4-2-1-4--|
D|-4-4-2-2-4--|
A|-2-2-----2--|
E|------------|


Guitar 1
e|------------------------------------------|
B|------------------------------------------|
G|-4-4-4-4-4-----------------7--7-7-7-4-----|
D|-4-4-4-4-4----11b11p9------7--7-7-7-4-----|
A|-2-2-0-2-2-----------------5--5-4-4-2-----|
E|------------------------------------------|

Guitar 2
e|-------------------------------------------|
B|-------------------------------------------|
G|-4-4-2-1-4-----------------7--7-7-7-4------|
D|-4-4-2-2-4-----------------7--7-7-7-4------|
A|-2-2-----2-----------------5--5-4-4-2------|
E|-------------------------------------------|


Pre-Chorus:
Guitar 1
e|-----------------------|
B|-----------------------|
G|-1----1----1------2----|
D|-2----2----2------2----|
A|-2----2----2------0----|
E|-0----0----0-----------|

Guitar 2
e|-----------------------|
B|-----------------------|
G|-1----1----1------2----|
D|-2----2----2------2----|
A|-2----2----2------0----|
E|-0----0----0-----------|


Chorus:
Guitar 1
e|---------------------7---7------7--7------|
B|----------------10p7--7--7---10----7--7b--|
G|-4-4-4-4-4----9b-----------9b---------9b--|
D|-4-4-4-4-4--------------------------------|
A|-2-2-0-2-2--------------------------------|
E|------------------------------------------|

Guitar 2
e|------------------------------------------|
B|------------------------------------------|
G|-4-4-4-4-4-----------------7--7-7-7-4-----|
D|-4-4-4-4-4-----------------7--7-7-7-4-----|
A|-2-2-0-2-2-----------------5--5-4-4-2-----|
E|------------------------------------------|


Guitar 1
e|---------------------7---7------7--7------|
B|----------------10p7--7--7---10----7--7b--|
G|-4-4-4-4-4----9b-----------9b---------9b--|
D|-4-4-4-4-4--------------------------------|
A|-2-2-0-2-2--------------------------------|
E|------------------------------------------|

Guitar 2
e|------------------------------------------|
B|------------------------------------------|
G|-4-4-4-4-4-----------------7--7-7-7-4-----|
D|-4-4-4-4-4-----------------7--7-7-7-4-----|
A|-2-2-0-2-2-----------------5--5-4-4-2-----|
E|------------------------------------------|


Guitar 1
e|---------------------7---7------7--7------|
B|----------------10p7--7--7---10----7--7b--|
G|-4-4-4-4-4----9b-----------9b---------9b--|
D|-4-4-4-4-4--------------------------------|
A|-2-2-0-2-2--------------------------------|
E|------------------------------------------|

Guitar 2
e|------------------------------------------|
B|------------------------------------------|
G|-4-4-4-4-4-----------------7--7-7-7-4-----|
D|-4-4-4-4-4-----------------7--7-7-7-4-----|
A|-2-2-0-2-2-----------------5--5-4-4-2-----|
E|------------------------------------------|


Guitar 1
e|-10~------7--|          |----------|
B|-----7b-7-7--|          |----------|
G|-----9b------| x3 then: |----------|
D|-------------|          |-2-2-2-2--|
A|-------------|          |-2-2-2-2--|
E|-------------|          |-0-0-0-0--|

Guitar 2
e|------------|           |----------|
B|------------|           |----------|
G|-4-4-4-4-4--| x3 then:  |----------|
D|-4-4-4-4-4--|           |-2-2-2-2--|
A|-2-2-0-2-2--|           |-2-2-2-2--|
E|------------|           |-0-0-0-0--|

Outro:
Guitar 1
e|------------|
B|------------|
G|-4-4-4-4-4--| x3
D|-4-4-4-4-4--|
A|-2-2-0-2-2--|
E|------------|

Guitar 2
e|------------|
B|------------|
G|-4-4-4-4-4--| x3
D|-4-4-4-4-4--|
A|-2-2-0-2-2--|
E|------------|


Guitar 1
e|----------|
B|----------|
G|----------|
D|-2-2-2-2--|
A|-2-2-2-2--|
E|-0-0-0-0--|

Guitar 2
e|----------|
B|----------|
G|----------|
D|-2-2-2-2--|
A|-2-2-2-2--|
E|-0-0-0-0--|

                               8.AC/DC:  Wheels
Album:  Black Ice
Transcribed by:  Jeff Martin
Tuning:  Standard

INTRO
ANGUS
|-----------------------------:||
|-------------------3---------:||
|-----------2-------2---------:||
|-------2-2-0-2----2--------2-:||
|-3b3.5-0-0---0-0h3---3b3.5-0-:||
|-----------------------------:||X2
MALCOM
|-----------------------------:||
|-------------------3---------:||
|-------------------2---------:||
|------------------2--------2-:||
|---------------0h3---3b3.5-0-:||
|-----------------------------:||X2

VERSE:
ANGUS (ONLY)
|---2----2-----------2-:||
|-3-3-33-3---------3-3-:||
|-2-2-22-2---------2-2-:||
|----------0-----------:||
|-----------3-2-0------:||
|----------------3-----:||X2

ANGUS & MALCOM
|----------------------:||
|----------------------:||
|---2----2-----------2-:||
|-2-2-22-2---------2-2-:||
|-0-0-00-0-0-------0-0-:||
|-----------3-2-0-2----:||X2

|---2----2-----------2-:||
|-3-3-33-3---------3-3-:||
|-2-2-22-2---------2-2-:||
|----------0-----------:||
|-----------3-2-0------:||
|----------------3-----:||X2

ANGUS (Listen for variations within this chord)
|-12-12-12-12/-12-12-12-12/-12-12-12-12-12-12-12-12-|
|-12-12-12-12/-12-12-12-12/-12-12-12-12-12-12-12-12-|
|-13-13-13-13/-13-13-13-13/-13-13-13-13-13-13-13-13-|
|-14-14-14-14/-14-14-14-14/-14-14-14-14-14-14-14-14-|
|---------------------------------------------------|
|---------------------------------------------------|
MALCOM
|---------------------------------------------------|
|---------------------------------------------------|
|---------------------------------------------------|
|-9-9-9-9-9-9-9-9-9-9-9-9-9-9-9-9-9-9-9-9-9-9-9-9-9-|
|-7-7-7-7-7-7-7-7-7-7-7-7-7-7-7-7-7-7-7-7-7-7-7-7-7-|
|---------------------------------------------------|

CHORUS
ANGUS & MALCOM
       ^    ^
|-----------------------------:||
|-----------------------------:||
|-2-----5---7-----------------:||
|-2---5-5-7-7-9-99999-7-77777-:||
|-0-0-3---5---7-77777-5-55555-:||
|-----------------------------:||
*I know Angus is playing something diff in background, not worth tabbing IMO.

ANGUS (Both could play Malcom's part and this could be FILL)
|------10-10------10-:||
|------10-10------10-:||
|-12b14------12b14---:||
|--------------------:||
|--------------------:||
|--------------------:||X2
MALCOM
|--------------:||
|--------3-----:||
|--------2-----:||
|------2-----2-:||
|-0-3-(0)--3-0-:||
|--------------:||X2

VERSE 2 = VERSE 1

ANGUS FILL in Verse 2
|----------|
|-8b9b8b9/-|
|----------|
|----------|
|----------|
|----------|

CHORUS 2 = CHORUS 1

SOLO
|-----------------------------------:||
|-10-12-13-13-13-13-13-13-13-13-13/-:||
|-11-13-14--------------------------:||
|-----------------------------------:||
|-----------------------------------:||
|-----------------------------------:||X2

|-15b17-15b17-15b17-15b17-12------------------------------------|
|----------------------------15h17p15-----17--14----------------|
|------------------------------------14-14--14--14-17b18-17b18/-|
|---------------------------------------------------------------|
|---------------------------------------------------------------|
|---------------------------------------------------------------|

|-------------------------|-------------------------------------------|
|---15--13-15-15b17b15r13-|-------------------------------------------|
|-14--14------------------|-------------------------------------------|
|-***ARGGG***-------------|----------------------------14h17p14h17p14-|
|-------------------------|--------------15h17p15h17p15---------------|
|-------------------------|15h17p15h17p15-----------------------------|

|-------------------|-12-12-12-12-12-14-14-14-14-14-14-15-15-15-15-15-|
|----------------14-|-------------------------------------------------|
|----------14-17-14-|-------------------------------------------------|
|-14h17p14-14-17----|-------------------------------------------------|
|-------------------|-------------------------------------------------|
|-------------------|-------------------------------------------------|

|------------------20----20----20-20-20-20b22-22-22-22-22-|
|------17-17-17-17----17-17-17----------------------------|
|------17-17-17-17----17-17-------------------------------|
|-19b21---------------------------------------------------|
|---------------------------------------------------------|
|---------------------------------------------------------|
***For goodness sake, that's the best I could do... corrections plz!

*****Malcom plays the verse riffs behind the solo!

CHORUS 3 = CHORUS 1

So, what you need is in here... the solo is probably off (a lot???), but this will get
through!  PEACE


                               9.AC/CD - Decibel
Album - Black Ice
Transcribed by:  Jeff Martin
Tuning: Standard

Intro & Verse 1:

ANGUS:               MALCOM:
E|-----------:||     |-----------------:||
B|-----------:||     |-----------------:||
G|--------5--:||     |-----------------:||
D|-7-5-7-7-7-:||     |---------------7-:||
A|----7------:||     |-------7-------7-:||
E|-----------:||X12  |-5-5-5-5-5-5-5-5-:||X12

*The following bass line could also be used (as desired):
E|-------------:||
B|-------------:||
G|-------------:||
D|-------------:||
A|----------3--:||
E|-5-3-0-5-5-5-:||X12

Chorus 1:

ANGUS:
   G A C   D   G C A D
E|---------0-|---------:||
B|----(1)--3-|-------3-:||
G|-0-2-0-0-2-|-----2-2-:||
D|-0-2-2-0-0-|---2-2-0-:||
A|-0-0-3-----|-0-3-0---:||
E|-3---0-----|-3-------:||X2 (Both Parts in Order)

MALCOM:

E|-----------|---------:||
B|-----------|---------:||
G|-----------|---------:||
D|-----5-0-7-|---5---7-:||
A|-5-7-3-0-5-|-5-3-7-5-:||
E|-3-5-------|-3---5---:||X2 (Both Parts in Order)

Verse 2:

ANGUS:
E|-----------|-----------:||
B|-----------|-----------:||
G|--------5--|-7-5----5--:||
D|-7-5-7-7-7-|-----7-7-7-:||
A|----7------|----7------:||
E|-----------|-----------:||X2
*Note: A third guitar could repeat the 1st part 4X

ANGUS:               MALCOM:
E|-----------:||     |-----------------:||
B|-----------:||     |-----------------:||
G|--------5--:||     |-----------------:||
D|-7-5-7-7-7-:||     |---------------7-:||
A|----7------:||     |-------7-------7-:||
E|-----------:||X4   |-5-5-5-5-5-5-5-5-:||X8

Chorus 2:

ANGUS:
E|---------------------|------------------|
B|-10-12-12b13-12-9/10-|10-12-12b13-12/15-|
G|---------------------|------------------|
D|---------------------|------------------|
A|---------------------|------------------|
E|---------------------|------------------|X2

*Angus ends with quick B15 notes with verbrato then a slide back.
E|-----------------------------------------|
B|-15-15-15-15-15-15-15-15-15-15-15-15-15/-|
G|-----------------------------------------|
D|-----------------------------------------|
A|-----------------------------------------|
E|-----------------------------------------|

MALCOM:
E|---------------|---------------|
B|---------------|-------------7-|
G|-------------2-|-------------7-|
D|-----5-0-----2-|-----5-0-----7-|
A|-5-7-3-0-5-0-0-|-5-7-3-0-5-0-5-|
E|-3-5-----3-0---|-3-5-----3-0---|X2

ANGUS:
E|-----------|-----------:||
B|-----------|-----------:||
G|--------5--|-7-5----5--:||
D|-7-5-7-7-7-|-----7-7-7-:||
A|----7------|----7------:||
E|-----------|-----------:||X2

ANGUS:               MALCOM:
E|-----------:||     |-----------------:||
B|-----------:||     |-----------------:||
G|--------5--:||     |-----------------:||
D|-7-5-7-7-7-:||     |---------------7-:||
A|----7------:||     |-------7-------7-:||
E|-----------:||X4   |-5-5-5-5-5-5-5-5-:||X8

Fill (ANGUS, leads into solo)

E|----------------------------------|
B|-7/10-7/8-7/10-10/12-12/13-13/15/-|
G|----------------------------------|
D|----------------------------------|
A|----------------------------------|
E|----------------------------------|

ANGUS SOLO: (Pentatonic Minor Scale in Key of A)
E|---17-15---------15-15-15-15-15-15-15-15------|
B|-17-----17-15-17-17-17-17-17-17-17-17-17-17/7-|
G|----------------------------------------------|
D|----------------------------------------------|
A|----------------------------------------------|
E|----------------------------------------------|

E|-----5-------5---5------------|
B|----5-8-5---5-8-5-8-----------|
G|-7b9-----7b8---7---7-7/9-9/12-|
D|------------------------------|
A|------------------------------|
E|------------------------------|

Chorus 3:

ANGUS:
   G A C   D   G C A D
E|---------0-|---------:||
B|----(1)--3-|-------3-:||
G|-0-2-0-0-2-|-----2-2-:||
D|-0-2-2-0-0-|---2-2-0-:||
A|-0-0-3-----|-0-3-0---:||
E|-3---0-----|-3-------:||X2 (Both Parts in Order)

MALCOM:

E|-----------|---------:||
B|-----------|---------:||
G|-----------|---------:||
D|-----5-0-7-|---5---7-:||
A|-5-7-3-0-5-|-5-3-7-5-:||
E|-3-5-------|-3---5---:||X2 (Both Parts in Order)

Fill 2 (2:35)

E|---------------------------------------|
B|-15b17-15-13--15-13-15-13--------------|
G|------------14-----------14-14~~~~~14/-|
D|---------------------------------------|
A|---------------------------------------|
E|---------------------------------------|

Fill 3: (2:42)

E|------15--------------------------------------|
B|-15h17--17-16-15--------15--13----------------|
G|----------------17-14-12--12--12-9------------|
D|----------------------------------12-10-7~~~~-|
A|----------------------------------------------|
E|----------------------------------------------|

E|-------------------------------------------|
B|---15-17-15-17-15-17-15-17-15-17~~~~~~-----|
G|-17------------------------------------17/-|
D|-------------------------------------------|
A|-------------------------------------------|
E|-------------------------------------------|
*U could also bend the B15 up and down from 15 to 17 etc*

E|-----------------------|-10-10-10~~~~~~~~~10/-|
B|----5-7-8-7h8-7h8-7-8/-|----------------------|
G|-7b9------7---7---7----|----------------------|
D|-----------------------|----------------------|
A|-----------------------|----------------------|
E|-----------------------|----------------------|

(2:57)
E|---------------------------|-----------------------------------|
B|--------------15b17-15b17/-|-15b17-15-13------13---------------|
G|-14b17-14b17/--------------|-------------14-12--14-12--14-12---|
D|---------------------------|-------------------------14-----14-|
A|---------------------------|-----------------------------------|
E|---------------------------|-----------------------------------|
*Sheesh******


ANGUS:
E|---------------------|------------------|
B|-10-12-12b13-12-9/10-|10-12-12b13-12/15-|
G|---------------------|------------------|
D|---------------------|------------------|
A|---------------------|------------------|
E|---------------------|------------------|X2

*Angus ends with quick B15 notes with verbrato then a slide back.
E|-----------------------------------------|
B|-15-15-15-15-15-15-15-15-15-15-15-15-15/-|
G|-----------------------------------------|
D|-----------------------------------------|
A|-----------------------------------------|
E|-----------------------------------------|

MALCOM:
E|---------------|---------------|
B|---------------|-------------7-|
G|-------------2-|-------------7-|
D|-----5-0-----2-|-----5-0-----7-|
A|-5-7-3-0-5-0-0-|-5-7-3-0-5-0-5-|
E|-3-5-----3-0---|-3-5-----3-0---|X2

No flames please. just corrections!  TIA


                         10.stormy may day - I don't have enough patience to tab it 
but all the
notes are correct. Just LISTEN
to the song and you'll know when to use each riff.

Ok?

So, lets get started:
I think Angus uses a slide to play this song, but a might be wrong...

x/y -> slide from x to y
~ -> hold note for a bit
* -> mute strings

ANGUS:
Intro
e|-------3-------1-------0------1--0--1--0--|
B|-----3-------3-------3------3--3--3--3----|
G|---0-------0-------0------0--0--0--0------|
D|------------------------------------------|
A|------------------------------------------|
E|------------------------------------------|


Basic Riff
e|--------------------------------|--------------------------------------|
B|--------------------------------|--------------------------------------|
G|--0-3-0-3-0-3-0-3/5~--3-0-3/0~--|--3/2-0-3/2-0-3/2-3/5~--3-0-3*3*3-0~--|
D|--0-3-0-3-0-3-0-3/5~--3-0-3/0~--|--3/2-0-3/2-0-3/2-3/5~--3-0-3*3*3-0~--|
A|--------------------------------|--------------------------------------|
E|--------------------------------|--------------------------------------|

Chorus Riff
e|------------------|--------------------|
B|------------------|--------------------|
G|---10/5~--3/12~---|---10/5~--15*-12~---|
D|---10/5~--3/12~---|---10/5~--15*-12~---|
A|------------------|--------------------|
E|------------------|--------------------|

MALCOLM

Intro
e|--3------------|
B|--3------------|
G|--0--5--3--0---|
D|--0--5--3--0---|
A|-----3--1--x---|
E|-----------3---|

Everything else (just change a bit the rhythm for the last note some times)
e|---------------|
B|---------------|
G|--5--5--3--0---|
D|--3--5--3--0---|
A|-----3--1--x---|
E|-----------3---|


This is it...

Yep, its simple.

There are some notes Angus plays that area bit hard to listen clearly. But nothing
hard to tab. I'm just lazy.

               11.AC/DC:  She Likes Rock N' Roll (off Black Ice)
Transcribed by:  Jeff Martin
Tuning:  Standard

Intro:
|Angus                                  slide from the bent b/10
|--------------------------|-----------------------|------------|
|---------------------12/0-|-----------------------|-10B12-12/4-|
|---------------------11/0-|-----------------------|------------|
|--------------------------|-----------------------|------------|
|--------------------------|-----------------------|------------|
|--------------------------|-----------------------|------------|
|Malcom
|--------------------------|-----------------------|------------|
|--------------------------|-----------------------|------------|
|-4-4-4-4-2-----4-4-4-4----|-4-4-4-4-2-----4-4-4-4-|------------|
|-x-x-x-x-2-2-2-x-x-x-x----|-x-x-x-x-2-2-2-x-x-x-x-|------------|
|-2-2-2-2-0-2-2-2-2-2-2----|-2-2-2-2-0-2-2-2-2-2-2-|----0-2-----|
|-----------0-0------------|-----------0-0---------|-0H2--------|

|Angus
|--------------------------|-----------------------|------------|
|-4-4-4-4-------4-4-4-4----|-4-4-4-4-------4-4-4-4-|------------|
|-4-4-4-4-2-----4-4-4-4----|-4-4-4-4-2-----4-4-4-4-|------------|
|-4-4-4-4-2-2-2-4-4-4-4----|-4-4-4-4-2-2-2-4-4-4-4-|------------|
|-2-2-2-2-0-2-2-2-2-2-2----|-2-2-2-2-0-2-2-2-2-2-2-|----0-2-----|
|-----------0-0------------|-----------0-0---------|-0H2--------|
|Malcom
|--------------------------|-----------------------|------------|
|-4-4-4-4-------4-4-4-4----|-4-4-4-4-------4-4-4-4-|------------|
|-4-4-4-4-2-----4-4-4-4----|-4-4-4-4-2-----4-4-4-4-|------------|
|-4-4-4-4-2-2-2-4-4-4-4----|-4-4-4-4-2-2-2-4-4-4-4-|------------|
|-2-2-2-2-0-2-2-2-2-2-2----|-2-2-2-2-0-2-2-2-2-2-2-|----0-2-----|
|-----------0-0------------|-----------0-0---------|-0H2--------|

Verse:

|Angus
|--------------------------|-----------------------|------------|
|-4-4-4-4-------4-4-4-4----|-4-4-4-4-------4-4-4-4-|------------|
|-4-4-4-4-2-----4-4-4-4----|-4-4-4-4-2-----4-4-4-4-|------------|
|-4-4-4-4-2-2-2-4-4-4-4----|-4-4-4-4-2-2-2-4-4-4-4-|------------|
|-2-2-2-2-0-2-2-2-2-2-2----|-2-2-2-2-0-2-2-2-2-2-2-|----0-2-----|
|-----------0-0------------|-----------0-0---------|-0H2--------|
|Malcom
|--------------------------|-----------------------|------------|
|-4-4-4-4-------4-4-4-4----|-4-4-4-4-------4-4-4-4-|------------|
|-4-4-4-4-2-----4-4-4-4----|-4-4-4-4-2-----4-4-4-4-|------------|
|-4-4-4-4-2-2-2-4-4-4-4----|-4-4-4-4-2-2-2-4-4-4-4-|------------|
|-2-2-2-2-0-2-2-2-2-2-2----|-2-2-2-2-0-2-2-2-2-2-2-|----0-2-----|
|-----------0-0------------|-----------0-0---------|-0H2--------|


|Angus
|--------------------------|-----------------------|------------|
|-4-4-4-4-------4-4-4-4----|-4-4-4-4-------4-4-4-4-|------12/---|
|-4-4-4-4-2-----4-4-4-4----|-4-4-4-4-2-----4-4-4-4-|------11/---|
|-4-4-4-4-2-2-2-4-4-4-4----|-4-4-4-4-2-2-2-4-4-4-4-|------------|
|-2-2-2-2-0-2-2-2-2-2-2----|-2-2-2-2-0-2-2-2-2-2-2-|----0-------|
|-----------0-0------------|-----------0-0---------|-0H2--------|
|Malcom
|--------------------------|-----------------------|------------|
|-4-4-4-4-------4-4-4-4----|-4-4-4-4-------4-4-4-4-|------------|
|-4-4-4-4-2-----4-4-4-4----|-4-4-4-4-2-----4-4-4-4-|------------|
|-4-4-4-4-2-2-2-4-4-4-4----|-4-4-4-4-2-2-2-4-4-4-4-|------------|
|-2-2-2-2-0-2-2-2-2-2-2----|-2-2-2-2-0-2-2-2-2-2-2-|----0-2-----|
|-----------0-0------------|-----------0-0---------|-0H2--------|


|Angus
|--------------------------|-----------------------|------------|
|-4-4-4-4-------4-4-4-4----|-4-4-4-4-------4-4-4-4-|------------|
|-4-4-4-4-2-----4-4-4-4----|-4-4-4-4-2-----4-4-4-4-|------------|
|-4-4-4-4-2-2-2-4-4-4-4----|-4-4-4-4-2-2-2-4-4-4-4-|------------|
|-2-2-2-2-0-2-2-2-2-2-2----|-2-2-2-2-0-2-2-2-2-2-2-|----0-2-----|
|-----------0-0------------|-----------0-0---------|-0H2--------|
|Malcom
|--------------------------|-----------------------|------------|
|-4-4-4-4-------4-4-4-4----|-4-4-4-4-------4-4-4-4-|------------|
|-4-4-4-4-2-----4-4-4-4----|-4-4-4-4-2-----4-4-4-4-|------------|
|-4-4-4-4-2-2-2-4-4-4-4----|-4-4-4-4-2-2-2-4-4-4-4-|------------|
|-2-2-2-2-0-2-2-2-2-2-2----|-2-2-2-2-0-2-2-2-2-2-2-|----0-2-----|
|-----------0-0------------|-----------0-0---------|-0H2--------|


|Angus
|--------------------------|------------------------------------|
|-4-4-4-4-------4-4-4-4----|------------------------------------|
|-4-4-4-4-2-----4-4-4-4----|----------------44444-4-4444--------|
|-4-4-4-4-2-2-2-4-4-4-4----|----------------44444-4-4444--------|
|-2-2-2-2-0-2-2-2-2-2-2----|-99999----------22222-2-2222--------|
|-----------0-0------------|-77777-0-55-000---------------------|
|Malcom
|--------------------------|------------------------------------|
|-4-4-4-4-------4-4-4-4----|-44444------------------------------|
|-4-4-4-4-2-----4-4-4-4----|-44444---22-----44444-4-4444--------|
|-4-4-4-4-2-2-2-4-4-4-4----|-44444-0-22-2-2-44444-4-4444--------|
|-2-2-2-2-0-2-2-2-2-2-2----|-22222-0-00-2-2-22222-2-2222--------|
|-----------0-0------------|------------0-0---------------------|

Chorus:
|Angus
|---------------|---------------|---------------|---------------|
|-2-------------|-2-------------|---------------|---------------|
|-2--------5--7-|-2--------5--7-|-2--------5--7-|-2--------5-7--|
|-2--------5--7-|-2--------5--7-|-2--------5--7-|-2--------5-7--|
|-0--------3--5-|-0--------3--5-|-0--------3--5-|-0--------3-5--|
|---------------|---------------|---------------|---------------|
|Malcom
|---------------|---------------|---------------|---------------|
|---------------|---------------|---------------|---------------|
|---------------|---------------|---------------|---------------|
|-22222222-5-/7-|-22222222-5-/7-|-22222222-5-/7-|-22222222-5-7--|
|-00000000-3-/5-|-00000000-3-/5-|-00000000-3-/5-|-00000000-3-5--|
|---------------|---------------|---------------|---------------|

|Angus (could play Malcom's chords too)
|--------------------------|-----------------------|---------------|
|---------------------12/0-|-----------------------|-17b19-17-15---|
|---------------------11/0-|-----------------------|------------16-|
|--------------------------|-----------------------|---------------|
|--------------------------|-----------------------|---------------|
|--------------------------|-----------------------|---------------|
|Malcom
|--------------------------|-----------------------|---------------|
|-4-4-4-4-------4-4-4-4----|-4-4-4-4-------4-4-4-4-|---------------|
|-4-4-4-4-2-----4-4-4-4----|-4-4-4-4-2-----4-4-4-4-|---------------|
|-4-4-4-4-2-2-2-4-4-4-4----|-4-4-4-4-2-2-2-4-4-4-4-|---------------|
|-2-2-2-2-0-2-2-2-2-2-2----|-2-2-2-2-0-2-2-2-2-2-2-|----0-2--------|
|-----------0-0------------|-----------0-0---------|-0H2-----------|

Verse 2 = Verse 1
Chorus 2 = Chorus 1

Solo (best shot anyways... no flames, just corrections please):
|Angus
|-7-7----7--------------------------------------------------------|
|----10-7-10-7------------7b(1/2)-7p0-6p0-5p0-7b(1/2)-7p0-6p0-5p0-|
|-------------9---------------------------------------------------|
|--------------7-7-7-9-9-9----------------------------------------|
|-----------------------------------------------------------------|
|-----------------------------------------------------------------|

|---------------------------15b17-15-12-10-12-14-10---------|
|----12-15-12-15b17-15-15-15-----------------------12-12-12-|
|-b7(1/2step)-----------------------------------------------|
|-----------------------------------------------------------|
|-----------------------------------------------------------|
|-----------------------------------------------------------|

|------19-----19---------------------------|
|-17b19--17b19--19-19-19-19-19-19b17p15-12-|
|------------------------------------------|
|------------------------------------------|
|------------------------------------------|
|------------------------------------------|

|------14-----14-----14-----14-17b19~~~~---|
|-12h15--12h15--12h15--12h15---------------|
|------------------------------------------|
|------------------------------------------|
|------------------------------------------|
|------------------------------------------| YIKES

|Malcom (under solo)
|---------------------------------:||   |---|
|---------------------------------:||   |---|
|-4-4-4-4-4-4-4-4-7-7-7-7-9-9-9-9-:||   |-4-|
|-4-4-4-4-4-4-4-4-7-7-7-7-9-9-9-9-:||   |-4-|
|-2-2-2-2-2-2-2-2-5-5-5-5-7-7-7-7-:||   |-2-|
|---------------------------------:||X4 |---|

Verse 3

|Angus
|--------------------------|-----------------------|------------|
|--------------------------|-----------------------|------------|
|--------------------------|-----------------------|------------|
|--------------------------|-----------------------|------------|
|--------------------------|-----------------------|----0-2-----|
|--------------------------|-----------------------|-0H2--------|
|Malcom
|--------------------------|-----------------------|------------|
|-4-4-4-4-------4-4-4-4----|-4-4-4-4-------4-4-4-4-|------------|
|-4-4-4-4-2-----4-4-4-4----|-4-4-4-4-2-----4-4-4-4-|------------|
|-4-4-4-4-2-2-2-4-4-4-4----|-4-4-4-4-2-2-2-4-4-4-4-|------------|
|-2-2-2-2-0-2-2-2-2-2-2----|-2-2-2-2-0-2-2-2-2-2-2-|----0-2-----|
|-----------0-0------------|-----------0-0---------|-0H2--------|

|Angus (could play Malcom's chords)
|------------------------12b14-12-10-----10------|
|-----------------------------------12-10--10-12-|
|------------------------------------------------|
|------------------------------------------------|
|------------------------------------------------|
|------------------------------------------------|
|Malcom
|------------------------------------------------|
|-4-4-4-4-------4-4-4-4--------------------------|
|-4-4-4-4-2-----4-4-4-4--------------------------|
|-2-2-2-2-2-2-2-2-2-2-2--------------------------|
|-----------0-0----------------------------------|

|Angus
|------------------------------------|
|------------------------------------|
|----------------44444-4-4444--------|
|----------------44444-4-4444--------|
|-99999----------22222-2-2222--------|
|-77777-0-55-000---------------------|
|Malcom
|------------------------------------|
|-44444------------------------------|
|-44444---22-----44444-4-4444--------|
|-44444-0-22-2-2-44444-4-4444--------|
|-22222-0-00-2-2-22222-2-2222--------|
|------------0-0---------------------|

Chorus 3 = Chorus 1

Finish with intro, and a few Angus riffs...  I gotta go.

Peace

                                 12.MONEY MADE
                              As recorded by AC/DC
                         (From the 2008 Album BLACK ICE)

Transcribed by gnolivos

Here is one of the few AC/DC songs that does NOT have a guitar solo.  The guitar
between the two brothers is very cool on this

one.  This is a pretty accurate transcription as far as I can tell.  Listen for the
and check the PowerTab version if you can --

easier to follow!

Gtr I (E A D G B E) - 'Malcolm'
Gtr II (E A D G B E) - 'Angus'


MAIN RYTHM ELEMENTS OUTLINED.  COMBINE AS NEEDED.   SELF EXPLANATORY!

 Intro
  Q=88
 4/4
  Gtr I
          PM--------|           PM-----------|
|---------------------|----------------------|
|---------------------|----------------------|
|---------------------|----------------------|
|-0-0-0-0-------------|-0-0-0-0--------------|
|-5-5-5-5-5-5-5-5-5-5-|-5-5-5-5-5-5-5-5-5----|
|-3-3-3-3-6-3-6-3-6-3-|-3-3-3-3-6-3-6-3-6----|


 4/4
  Gtr I
           PM-----------------|              PM--------------------|
|---------------------------------|--------------------------------|
|---------------------------------|--------------------------------|
|---------------------------------|--------------------------------|
|-0-0-0-0-------------------------|-0-0-0-0------------------------|
|-5-5-5-5--5---5---5---5---5---5--|-5-5-5-5--5---5---5---5---5-----|
|-3-3-3-3--6---3---6---3---6---3--|-3-3-3-3--6---3---6---3---6-----|
|
| Gtr II
|-3-3-3-3-(3)-(3)-(3)-(3)-(3)-(3)-|-3-3-3-3-(3)-(3)-(3)-(3)-(3)--|
|-3-3-3-3-(3)-(3)-(3)-(3)-(3)-(3)-|-3-3-3-3-(3)-(3)-(3)-(3)-(3)--|
|-0-0-0-0--5---0---5---0---5---0--|-0-0-0-0--5---0---5---0---5---|
|-5-5-5-5--5---5---5---5---5---5--|-5-5-5-5--5---5---5---5---5---|
|---------------------------------|------------------------------|
|---------------------------------|------------------------------|


   Pre-Verse
   4/4
    Gtr I
            PM--------------|             PM----------|
                                                             4x
||------------------------------|----------------------------||
||o-----------------------------|---------------------------o||
||------------------------------|----------------------------||
||--0-0-0-0---------------------|-0-0-0-0--------------------||
||o-5-5-5-5-5-5---5-5---5---5---|-5-5-5-5-5-5---5-5---5-----o||
||--3-3-3-3-6-3---6-3---6---3---|-3-3-3-3-6-3---6-3---6------||
|
|   Gtr II
|                                                            4x
||--3-3-3---3-----3-------3---3-|-3-3-3---3-----3-------3-3--||
||o-3-3-3---3-----3-------3---3-|-3-3-3---3-----3-------3-3-o||
||--0-0-0-3-0-----0-------0---0-|-0-0-0-3-0-----0-------0-0--||
||--0-----0---3-0---3-0-3-------|-0-----0---3-0---3-0-3------||
||o-----------------------------|---------------------------o||
||------------------------------|----------------------------||


   Verse
   4/4
    Gtr I
                                PM----------|
                                                  4x
||--3-3-3--|--1-1-1---1---0---|-------------------||
||o-3-3-3--|--1-1-1---1---1---|------------------o||
||--0-0-0--|--2-2-2---2---0---|-2---3-------2-----||
||--5-5-5--|--3-3-3---3---2---|-x---x-------x-----||
||o--------|--------------3---|-3---3-------3----o||
||---------|------------------|-------------------||
|
|   Gtr II
|                                                 4x
||--3-3-3--|--1-1-1---1---0---|-----1-1-1-1-1-0---||
||o-3-3-3--|--1-1-1---1---1---|-----1-1-1-1-1-1--o||
||--0-0-0--|--2-2-2---2---0---|-----2-2-2-2-2-0---||
||--0-0-0--|--3-3-3---3---2---|-----3-3-3-3-3-2---||
||o-x-x-x--|--------------3---|---------------3--o||
||--3-3-3--|------------------|-------------------||


   Chorus
    Gtr I
                                                               4x
||--3-------3------3------3-----|-3-------3------3------3------||
||o-3-------3------3------3-----|-3-------3------3------3-----o||
||--0-------0------0------0-----|-0-------0------0------0------||
||--0-------0------0------0-----|-0-------0------0------0------||
||o-x-------x------x------x-----|-x-------x------x------x-----o||
||--3-------3------3------3-----|-3-------3------3------3------||
|
|   Gtr II
|                                                              4x
||--3-3-3---3------3--------3-3-|-3-3-3---3------3--------3-3--||
||o-3-3-3---3------3--------3-3-|-3-3-3---3------3--------3-3-o||
||--0-0-0-3-0------0--------0-0-|-0-0-0-3-0------0--------0-0--||
||--0-----0----3-0----3-0-3-----|-0-----0----3-0----3-0-3------||
||o-----------------------------|-----------------------------o||
||------------------------------|------------------------------||


   Out-Chorus
   4/4
    Gtr I
||--1-------------------------|-0-------------------------|
||o-1-------------------------|-1-------------------------|
||--2-------------------------|-0-------------------------|
||--3-------------------------|-2-------------------------|
||o---------------------------|-3-------------------------|
||----------------------------|---------------------------|
|
|   Gtr II
||--3-3-3---3-----3-------3-3-|-3-3-3---3-----3-------3-3-|
||o-3-3-3---3-----3-------3-3-|-3-3-3---3-----3-------3-3-|
||--0-0-0-3-0-----0-------0-0-|-0-0-0-3-0-----0-------0-0-|
||--0-----0---3-0---3-0-3-----|-0-----0---3-0---3-0-3-----|
||o---------------------------|---------------------------|
||----------------------------|---------------------------|


 4/4
  Gtr I
|-3-------3------3------3-----|-3-------3------3------3------||
|-3-------3------3------3-----|-3-------3------3------3-----o||
|-0-------0------0------0-----|-0-------0------0------0------||
|-0-------0------0------0-----|-0-------0------0------0------||
|-x-------x------x------x-----|-x-------x------x------x-----o||
|-3-------3------3------3-----|-3-------3------3------3------||
|
| Gtr II
|-3-3-3---3------3--------3-3-|-3-3-3---3------3--------3-3--||
|-3-3-3---3------3--------3-3-|-3-3-3---3------3--------3-3-o||
|-0-0-0-3-0------0--------0-0-|-0-0-0-3-0------0--------0-0--||
|-0-----0----3-0----3-0-3-----|-0-----0----3-0----3-0-3------||
|-----------------------------|-----------------------------o||
|-----------------------------|------------------------------||


Tablature Legend
----------------
 h   - hammer-on
 p   - pull-off
 b   - bend
 pb  - pre-bend
 r   - bend release (if no number after the r, then release immediately)
 /\  - slide into or out of (from/to "nowhere")
 s   - legato slide
 S   - shift slide
  - natural harmonic
[n]  - artificial harmonic
n(n) - tapped harmonic
 ~   - vibrato
 tr  - trill
 T   - tap
 TP  - trem. picking
 PM  - palm muting
\n/  - tremolo bar dip; n = amount to dip
 \n  - tremolo bar down
 n/  - tremolo bar up
/n\  - tremolo bar inverted dip
 =   - hold bend; also acts as connecting device for hammers/pulls
 <>  - volume swell (louder/softer)
 x   - on rhythm slash represents muted slash
 o   - on rhythm slash represents single note slash

Misc Legend
-----------
 |  - bar
||  - double bar
||o - repeat start
o|| - repeat end
*|  - double bar (ending)
 :  - bar (freetime)
 $  - Segno
 &  - Coda
Tempo markers -  = BPM(8/16=s8/s16), where s8 = swing 8ths, s16 = swing 16ths

                    |-----------------------|
 |--Rock-N-Roll-Dream-----------------------|
 |-----Black-Ice----------------------------|
 |-------Ac-Dc------------------------------|
 |------------------------------------------|

  h - hammer-on
  p - pull-off
  b - bend
  r - release
( ) - optional
  * - pitch harmonic
  x - mute
  ~ - tremolo bend
  / - slide up
  \ - slide down

Intro:
0:00
e|-------------|----------|-------------|--------|
B|-----6---6---|---6--6---|-----6---6---|-6------|
G|---3-3-3-5---|-3-3--5---|---3---3-5---|-5-3-5--|
D|-3-3---3-3---|-3----3---|-3-----3-3---|-3-3-3--|
A|-------------|----------|-------------|--------|
E|-------------|----------|-------------|--------|

Verse:
0:19
e|-----1-----1-1-1--1-1-1-|
B|---------------1--1-1-1-|
G|-1-3-------3-3----------|
D|---------3-----3--3-1-3-|x3
A|-------(1)--------------|
E|------(1)---------------|

0:33
e|-1--------------|
B|-------------6--|
D|-3--3--------5--|
G|-1--1--------3--|
A|-----------6----|
E|-------4-6------|

0:42
e|-----1-----1-1-1--1-1-1-|
B|---------------1--1-1-1-|
G|-1-3-------3-3----------|
D|---------3-----3--3-1-3-|x3
A|-------(1)--------------|
E|------(1)---------------|

00:56                  1:10
e|-1---1-----------|   |-----1---|
B|-----1--------6--|   |---------|
D|-3---3--------5--|   |---3-----|
G|-1---1--------3--|x3 |-3-------|
A|------------6----|   |---------|
E|--------4-6------|   |---------|

Chorus:
1:12               1:34
e|-------------|   |-1--|
B|---------4---|   |-x--|
G|---3-----3---|   |-x--|
D|-3-3---6-1---|x5 |-3--|
A|-3-1---6-----|   |-3--|
E|-1-----4-----|   |-1--|

Verse:
1:39
e|-----1-----1-1-1--1-1-1-|
B|---------------1--1-1-1-|
G|-1-3-------3-3----------|
D|---------3-----3--3-1-3-|x3
A|-------(1)--------------|
E|------(1)---------------|

During the verse Angus plays some riffs:
1:42
e|----------6---------------|----------------------------|
B|--------------------------|-6~~~p4h6p4h6p4h6p4h6p4h6\--|
G|--------------------------|----------------------------|
D|-8~p6-8~~\----------------|----------------------------|
A|-------------6b7-8-8*~~\--|----------------------------|
E|--------------------------|----------------------------|

e|-------------------------|----------------|--------------|
B|-11p10b12----------------|----------------|-10b12-8------|
G|----------8b9-10-10~~~\--|-4/8-10-10~~p8\-|---------10~\-|
D|-------------------------|----------------|--------------|
A|-------------------------|----------------|--------------|
E|-------------------------|----------------|--------------|

e|-------------------|---------------|-------------------|
B|------10b12r10~~\--|---------------|-12b13r12----------|
G|-8-10--------------|-8-10-12r10~~\-|-12b13r12p10~~~~~--|
D|-------------------|---------------|-------------------|
A|-------------------|---------------|-------------------|
E|-------------------|---------------|-------------------|
2:22
e|-------1~~-|
B|-----1-----|
G|-1-3-------|Angus
D|-----------|
A|-----------|
E|-----------|
             |
             |
e|-----------|
B|-----------|
G|-----------|Malcolm
D|-------3---|
A|-----6-----|
E|-4-6-------|

Chorus:
2:24
/                                                       \
e|--------------------------------------|---------------|
B|----------------------------4---------|-----------4---|
G|----------3-----------------3---------|----3------3---|
D|-3--------3-------6---------1---------|-3--3---6--1---|
A|-3--------1-------6-------------------|-3--1---6------|
E|-1----------------4-------------------|-1------4------|
 |                                                      |
 |                                                      |x4
e|--------------------------------------|---------------|
B|----------------------4---------------|---------------|
G|------------------1/5~~~5p3\1-3-1-----|---------------|
D|----------------------------------3-1-|---------------|
A|--------------------------------------|---------------|
E|--------------------------------------|---------------|
\                                                       /

3:00
e|-1-------|
B|-1-------|
G|---------|
D|-3-------|
A|-3-------|
E|-1-------|

Ok, this is probably the hardest part to play and figure out in the song.
So, take time in getting in right, cause it is really noisy in this part.
It's so hard to focus and figure out with guitar is which, but I'll tab it
the best I can.

3:09
e|-----1-----1-1-1--1-1-1-|
B|---------------1--1-1-1-|
G|-1-3-------3-3----------|
D|---------3-----3--3-1-3-|
A|-------(1)--------------|
E|------(1)---------------|

3:13
e|-----1---------1-----1-----1-|
B|---1-----1---1-----1-----1---|
G|-----------------------------|
D|-3-----1---0-----------1-----|x3
A|-----------------4-----------|
E|-----------------------------|

3:18
e|-------------------------------|
B|-------------------------------|
G|---------------10---8-7-6--8---|This part starts on the second time through
D|-3---1-0----1------------------|of the bar above.
A|---------4---------------------|
E|-------------------------------|

3:27
e|---------------------------------------------------|
B|------6-6------6-6------6------6-6------6-6------6-|
G|-8b10-----8b10-----8b10---8b10-----8b10-----8b10---|
D|---------------------------------------------------|x2
A|---------------------------------------------------|
E|---------------------------------------------------|

3:35
e|---------------------------------------------|
B|-9-6------6-6------6-6-9-6------6-6------6-6-|
G|-----8b10-----8b10---------8b10-----8b10-----|
D|---------------------------------------------|
A|---------------------------------------------|
E|---------------------------------------------|

3:40
e|-6/8-8-8-8--11-11-11-11-11-12b13-12b13-12b3-12b13~~~\-|
B|------------------------------------------------------|
G|------------------------------------------------------|
D|------------------------------------------------------|
A|-------\m/(^_^)\m/------------------------------------|
E|------------------------------------------------------|

3:44
/                                                           \
e|--------------------------------------|-------------------|
B|----------------------------4---------|-----------4-------|
G|----------3-----------------3---------|----3------3-------|
D|-3--------3-------6---------1---------|-3--3---6--1-------|
A|-3--------1-------6-------------------|-3--1---6----------|
E|-1----------------4-------------------|-1------4----------|
 |                                                          |
 |                                                          |x2
e|--------------------------------------|-------------------|
B|----------------------4---------------|-------------------|
G|------------------1/5~~~5p3\1-3-1-----|-------------------|
D|----------------------------------3-1-|-------------------|
A|--------------------------------------|-------------------|
E|--------------------------------------|-------------------|
\                                                           /

4:02
/                                                           \
e|--------------------------------------|-------------------|
B|----------------------------4---------|-----------4-------|
G|----------3-----------------3---------|----3------3-------|
D|-3--------3-------6---------1-x\\\\---|-3--3---6--1-x\\\\-|
A|-3--------1-------6-----------x\\\\---|-3--1---6----x\\\\-|
E|-1----------------4-----------x\\\\---|-1------4----x\\\\-|
 |                                                          |
 |                                                          |x2
e|--------------------------------------|-------------------|
B|----------------------4---------------|-------------------|
G|------------------1/5~~~5p3\1-3-1-----|-------------------|
D|----------------------------------3-1-|-------------------|
A|--------------------------------------|-------------------|
E|--------------------------------------|-------------------|
\                                                           /

4:20
/                                                           \
e|--------------------------------------|-1-----------------|
B|----------------------------4---------|-------------------|
G|----------3-----------------3---------|-------------------|
D|-3--------3-------6---------1-x\\\\---|-3-----------------|
A|-3--------1-------6-----------x\\\\---|-3-----------------|
E|-1----------------4-----------x\\\\---|-1-----------------|
 |                                                          |
 |                                                          |
e|--------------------------------------|-------------------|
B|----------------------4---------------|-------------------|
G|------------------1/5~~~5p3\1-3-1-----|-------------------|
D|----------------------------------3-1-|-3-----------------|
A|--------------------------------------|-3-----------------|
E|--------------------------------------|-1-----------------|
\                                                           /

4:33
And then fading out (If you turn it up loud)
e|-----1-----1-1-1--1-1-1-|
B|---------------1--1-1-1-|
G|-1-3-------3-3----------|
D|---------3-----3--3-1-3-|
A|-------(1)--------------|
E|------(1)---------------|

 Post a correction if you find any needed!


14.Rocking All The Way by AC/DC
from Black Ice

e----------------------|
B----------------------|
G----------------------|
D-3h5-5--3-5/8-5---5---|
A----------------8-----|
E----------------------|

e--------------------------------------------------------|
B--------------------------------------------------------|
G--------------------------------------------------------|
D-5-5-------------3-5/8-5---5-------------5-5------------|
A-5-5--3p1---3p1----------8----3p1---3p1--5-5-3p1---3p1--|
E-3-3------3-----------------------3------3-3-----3------|

0.16                  x2
e----------------------|
B----------------------|
G---3-0---0------------|
D-3-----3--------------|
A-----------3p1---3p1--|
E---------------3------|

VERSE       x4
e------------|
B------------|
G-5-5-5-3----|
D-5-5-5-3-3--|
A-3-3-3-1-3--|
E---------1--|

PRE CHORUS 0.40
e------------------|
B------------------|
G-7-7-7-7-7-7-7-7--|
D-7-7-7-7-7-7-7-7--|
A-5-5-5-5-5-5-5-5--|
E------------------|

CHORUS 0.47            x4
e-----------------------|
B-----------------------|
G---3-------------------|
D-3-3-5-3-5-------------|
A-3-1-5-3-5--3p1---3p1--|
E-1---3-1-3------3------|

Any corrections please comment
Thanks



15.Black Ice
Ac/Dc
Album: Black Ice

Intro/Vers:	                You can also play it like this, and when the heavy play
then add the bass note (A).

Riff 1
   Am	                  or
e|-------------------|		e|-------------------|
B|-------------------|		B|---1-----4p1---3-1-|
G|---5-----8p5---7-5-|		G|-2-2-2-2-2-2-2-2-2-|
D|-7-7-7-7-7-7-7-7-7-|		D|-2---2-2-----2---2-|
A|-7---7-7-----7-----|		A|(0)-(0)-----(0)-(0)|
E|-------------------|		E|-------------------|

Riff 2
  Am C  D    D  C  Am
e|---------|---------|
B|---------|---------|
G|---------|---------|
D|-7-10-12-|-12-10-7-|
A|-7-10-12-|-12-10-7-|
E|-5-8—-10-|-10-8—-5-|

Riff 3
  Bm			or	  Bm
e|--------------------|        e|----------------------|
B|--------------------|        B|---3-----6p3---5-3----|
G|---7-----10p7---9-7-|         G|-4-4-4-4-4-4-4-4-4---|
D|-9-9-9-9-9--9-9-9-9-|        D|-4---4-4-----4---4----|
A|-9---9-9------9-----|        A|----------------------|
E|--------------------|        E|----------------------|

End (Riff 4):
   Eb D  C  Am
e|------------|
B|------------|
G|------------|
D|-13-12-10-7-|
A|-13-12-10-7-|
E|-11-10-8—-5-|


“Order of Black Ice”

Intro/Vers:
Riff 1 x12
Pre Chorus:
Riff 2 x2
Chorus:
Riff 1 x4
Vers 2:
Riff 3 x8
Riff 1 x4
Pre Chorus:
Riff 2 x4 (mini solo)
Solo
Riff 1 x4
Vers 3
Riff 3 x4
Riff 1 x4
Outro
Riff 2 x4
Riff 1 x10
Riff 4 and then ripp it of on the chord Am.

When the half of the pre chorus has been played a mini solo starts:
e|-------------------------------------|
B|-10b-8/10-10-8/10-10-8/10-10b--------|
G|-----------------------------9-8-7-5-|
D|-------------------------------------|
A|-------------------------------------|
E|-------------------------------------|

During solo play:

Solo (riff 1)
e|-12b-15h12-12-11-12-11-12-11-12-12b-12\5-|-12-14-15-12-14—-12-----11-12-|
B|-----------------------------------------|---------------15—-12-15------|
G|-----------------------------------------|------------------------------|
D|-----------------------------------------|------------------------------|
A|-----------------------------------------|------------------------------|
E|-----------------------------------------|------------------------------|

11-12-11-12-----11-12-17-15—-15-17-|
-----------15-15-----------17------|
-----------------------------------|
-----------------------------------|
-----------------------------------|
-----------------------------------|

(Riff 3)
e|------------------------------8b-|
B|---------------------------------|
G|---------------------------------|
D|---------------------------------|
A|---------------------------------|
E|---------------------------------|
  Livin’ down Livin’ doooaaaoown.

--------------11b-----------------|-----------------|-5-5b-|
-----------------12-10-12-10--10--|-----------------|------|
----------------------------11--9-|-----------------|------|
----------------------------------|-----------------|------|
----------------------------------|-----------------|------|
----------------------------------|-----------------|------|
...take it all		  And I’m gonna rip it out.

(Riff 2)
e|---8-10-----|-10-8---|---8-10----|-5-5-5-|
B|-10---------|-----10-|-10--------|-------|
G|------------|--------|-----------|-------|
D|------------|--------|-----------|-------|
A|------------|--------|-----------|-------|
E|------------|--------|-----------|-------|
oooooooooooooh black ice     Black ice

-----8-10------|-10-8-----|----------8-10-|-5-5-5-|
---10----------|-----10---|-8-10-8-10-----|-------|
---------------|----------|---------------|-------|
---------------|----------|---------------|-------|
---------------|----------|---------------|-------|
---------------|----------|---------------|-------|
          Black ice  Burn light    Black iiiice

(Riff 1)
e|-11b-11\-12-17p15-15—-17-|---------10--10—11-12---------|
B|--------------------17---|-10-13-10--13--------10-10-10-|
G|-------------------------|------------------------------|
D|-------------------------|------------------------------|
A|-------------------------|------------------------------|
E|-------------------------|------------------------------|


-----------10--10—11-12
comments
print report bad tab
26 comments total. Showing first comments.
+1 reply
simmons100 wrote on October 23 2008, 07:11 pm

yay first coment

+3 reply
playinbass1432 wrote on October 23 2008, 10:17 pm

Not bad. That Skies on Fire tab is PERFECT.

;)

:p

+3 reply
gnolivos wrote on October 24 2008, 12:19 pm

I uploaded ascii version of Money Made tab... feel free to include t. It is accurate ;)

I want to post or [tab]
guest
You may want to rate the tab now too:
select rating
Please do not post tabs as comments. Select "correction" instead!