Oops, an error
Loading. Please wait.

Black Ice Tab

ver2
ver2

Album

Whole song

Interactive

More versions @911Tabs.com
61,663 views 75 this week
29 commentsread comments
1 2 3 4 5
excellent!
x 22
Autoscroll
+/-
esc
set tempo
stop
Contributor
Hey! There's an official Ultimate Guitar app which is ideal
for learning songs when you're away from computer. Get the app
WARNING: You are trying to view
                                    content from Ultimate-Guitar.com
                                    in an unauthorized application,
                                    which is prohibited.

                                    Please use an official Ultimate
                                    Guitar Tabs application for iPhone,
                                    iPad or Android to access legitimate
                                    chords, guitar, bass, and drum tabs
                                    from Ultimate-Guitar.com database.

                                    Type "ultimate guitar tabs" in Apple
                                    App Store's or Android Market's
                                    search to find the application.
        ,.             .s.                        .s.              .s.
     ,d$$$$b.        ,d$$$b.                 ,s$$$$$$$$s.        ,d$$$b.
   ,d$$$$$$$$b.   ,d$$$$$$$$b.      ssssss 4$$$$$$$$$$$$$b.   ,d$$$$$$$$b.
  $$$$$$`$$$$$$$ d$$$$$`$$$$$$b    d$$$$$'   $$$$$$`$$$$$$$b $$$$$$`$$$$$$b
  $$$$$$  $$$$$$ $$$$$$  "$$P"    $$$$$P     $$$$$$  "$$$$$$ $$$$$$  "$$P"
  $$$$$$  $$$$$$ $$$$$$          $$$$$P      $$$$$$   $$$$$$ $$$$$$
  $$$$$$ee$$$$$$ $$$$$$         $$$$$$$$$$"  $$$$$$   $$$$$$ $$$$$$
  $$$$$$$$$$$$$$ $$$$$$        d$$$$$$$$'    $$$$$$   $$$$$$ $$$$$$
  $$$$$$$$$$$$$$ $$$$$$  .s.      d$$$P      $$$$$$   $$$$$$ $$$$$$  .s.
  $$$$$$  $$$$$$ $$$$$$bd$$$$b.  d$$P'       $$$$$$.s$$$$$$$ $$$$$$bd$$$$b.
 ,d$$$$$bd$$$$$b."$$$$$$$$$$$P" d$$'       zd$$$$$$$$$$$$$"  "$$$$$$$$$$$P"
 "$$$$$$""$$$$$P"  "$$$$$$$$"  ;$'          "$$$$$$$$$$P"      "$$$$$$$$"
  "S$S"   "S$S"       "S$S"    '               """"""""           "S$S"


                              "Black Ice" (2008)
                    All songs transcribed by playinbass1432
                         Of www.ultimate-guitar.com

                          playinbass1432@hotmail.com


NOTE TO ULTIMATE-GUITAR EDITORS: DON'T TOUCH ANYTHING!!!!!!!!!!!!!!!!!!!!!!!!!
The first time I posted this tab the formatting was perfect the way I wanted
it and you guys dicked about with it. This led to some very messy spots. This
update, I've fixed these errors. Please refrain from touching anything. No
formatting corrections need to be made. I have removed all trailing spaces,
etc.

[0100].....Rock N Roll Train
[0200].....Skies On Fire
[0300].....Big Jack
[0400].....Anything Goes
[0500].....War Machine
[0600].....Smash N Grab
[0700].....Spoilin' For A Fight
[0800].....Wheels
[0900].....Decibel
[1000].....Stormy May Day
[1100].....She Likes Rock N Roll
[1200].....Money Made
[1300].....Rock N Roll Dream
[1400].....Rocking All the Way
[1500].....Black Ice

[1000] - Rock N Roll Train
Standard Tuning

Intro:

                                                         A D A D   D
E|-----------------|-----------------|-----------------|-----------------|
B|-----------------|-----------------|-----------------|---3---3---3-----|
G|-----------------|-----------------|-----------------|-2-2-2-2---2-----|
D|-----------------|-----------------|-----------------|-2-0-2-0---0-----|
A|-----------------|-----------------|-----------------|-0-0-0-0---0-----|
E|-----------------|-----------------|-----------------|-----------------|
 |
 | A D A D   D      D5 G5      D5        A5              A D A D   D
E|-----------------|-----------------|-----------------|-----------------|
B|---3---3---3-----|-3-3-3-3-3-3-3-3-|-3---------------|---3---3---3-----|
G|-2-2-2-2---2-----|-2-0-0-0-0-2-2-2-|-2-2-2-2---------|-2-2-2-2---2-----|
D|-2-0-2-0---0-----|-0-0-0-0-0-0-0-0-|-0-2-2-2---------|-2-0-2-0---0-----|
A|-0---0-----------|---x-x-x-x-------|---0-0-0---------|-0---0-----------|
E|-----------------|---3-3-3-3-------|-----------------|-----------------|

     G5      D         A5              A D A D   D         G5      D
E|---3-3-3-3-2-2-2-|-----------------|-----------------|---3-3-3-3-2-2-2-|
B|---3-3-3-3-3-3-3-|-3---------------|---3---3---3-----|---3-3-3-3-3-3-3-|
G|---0-0-0-0-2-2-2-|-2-2-2-2---------|-2-2-2-2-2-2-----|---0-0-0-0-2-2-2-|
D|---0-0-0-0-0-0-0-|-0-2-2-2---------|-2-0-2-0-0-0-----|---0-0-0-0-0-0-0-|
A|---x-x-x-x-------|-0-0-0-0---------|-0-0-0-0-0-0-----|---x-x-x-x-------|
E|---3-3-3-3-------|-----------------|-----------------|---3-3-3-3-------|
 |
 |D5 G5      D5        A5              A D A D   D      D5 G5      D5
E|-----------------|-----------------|-----------------|-----------------|
B|-3-3-3-3-3-3-3-3-|-3---------------|---3---3---3-----|-3-3-3-3-3-3-3-3-|
G|-2-0-0-0-0-2-2-2-|-2-2-2-2---------|-2-2-2-2---2-----|-2-0-0-0-0-2-2-2-|
D|-0-0-0-0-0-0-0-0-|-0-2-2-2---------|-2-0-2-0---0-----|-0-0-0-0-0-0-0-0-|
A|---x-x-x-x-------|---0-0-0---------|-0---0-----------|---x-x-x-x-------|
E|---3-3-3-3-------|-----------------|-----------------|---3-3-3-3-------|

   D A5              A D A D   D         G5      D       D A5
E|-----------------|-----------------|---3-3-3-3-2-2-2-|-----------------|
B|-3---------------|---3---3---3-----|---3-3-3-3-3-3-3-|-3---------------|
G|-2-2-2-2---------|-2-2-2-2---2-----|---0-0-0-0-2-2-2-|-2-2-2-2---------|
D|-0-2-2-2---------|-2-0-2-0---0-----|---0-0-0-0-0-0-0-|-0-2-2-2---------|
A|-0-0-0-0---------|-0-0-0-0---0-----|---x-x-x-x-------|-0-0-0-0---------|
E|-----------------|-----------------|---3-3-3-3-------|-----------------|
 |
 | A5                A D A D   D      D5 G5      D5        A5
E|-----------------|-----------------|-----------------|-----------------|
B|-3---------------|---3---3---3-----|-3-3-3-3-3-3-3-3-|-3---------------|
G|-2-2-2-2---------|-2-2-2-2---2-----|-2-0-0-0-0-2-2-2-|-2-2-2-2---------|
D|-0-2-2-2---------|-2-0-2-0---0-----|-0-0-0-0-0-0-0-0-|-0-2-2-2---------|
A|---0-0-0---------|-0---0-----------|---x-x-x-x-------|---0-0-0---------|
E|-----------------|-----------------|---3-3-3-3-------|-----------------|

Hold last A5 chord for one more bar...

Verse 1: (Angus only)

   A D A D                             A D A D   A5
E|-----------------|-----------------|-----------------|-----------------|
B|---3---3---3-----|-----------------|---3---3---------|-----------------|
G|-2-2-2-2---2-----|-----------------|-2-2-2-2---2-----|-----------------|
D|-2-4-2-4---4-----|-----------------|-2-4-2-4---2-----|-----------------|
A|-0-0-0-0---0-----|-----------------|-0-0-0-0---0-----|-----------------|
E|-----------------|-----------------|-----------------|-----------------|

   A D A D                             A D A D   A
E|-----------------|-----------------|-----------------|-----------------|
B|---3---3---3-----|-----------------|---3---3---2-----|-----------------|
G|-2-2-2-2---2-----|-----------------|-2-2-2-2---2-----|-----------------|
D|-2-4-2-4---4-----|-----------------|-2-4-2-4---2-----|-----------------|
A|-0-0-0-0---0-----|-----------------|-0-0-0-0---0-----|-----------------|
E|-----------------|-----------------|-----------------|-----------------|

Pre Chorus 1: (I've spent about three hours on this bit alone, haha. I'm
               5000% sure this is how they play it.)

   D A   C   G5      D5 G5 D5          D A5  C   G5      D5 G5 D5
E|-----------------|-----------------|-----------------|-----------------|
B|-----------------|-----------------|-----------------|-----------------|
G|-----------------|-----------------|-----------------|-----------------|
D|---------------5-|-7-7-5-7---------|---------------5-|-7-7-5-7---------|
A|-5-7-7-3-3-5-5-5-|-5-5-5-5---------|-5-7-7-3-3-5-5-5-|-5-5-5-5---------|
E|-5-5-5-3-3-3-3---|-----------------|-5-5-5-3-3-3-3---|-----------------|
 |                                                                      x 1.5
 | D A5  C5  G5      D5 G5 D5          D A5  C5  G5      D5 G5 D5
E|-----------------|-----------------|-----------------|-----------------|
B|-----------------|-----------------|-----------------|-----------------|
G|-7-9-9-5-5-------|-----------------|-7-9-9-5-5-------|-----------------|
D|-7-7-7-5-5-5-5-5-|-7-7-5-7---------|-7-7-7-5-5-5-5-5-|-7-7-5-7---------|
A|-----------5-5-5-|-5-5-5-5---------|-----------5-5-5-|-5-5-5-5---------|
E|-----------------|-----------------|-----------------|-----------------|

   D A   C   G5      D5 G5 D5
E|-----------------|-----------------|-----------------|
B|-----------------|-3-3-3-3---3-3-3-|-3-3-3-3-3-3-3-3-|
G|-----------------|-2-0-2-2---2-2-2-|-2-2-2-2-2-2-2-2-|
D|---------------5-|-0-0-0-0---0-0-0-|-0-0-0-0-0-0-0-0-|
A|-5-7-7-3-3-5-5-5-|-----------------|-----------------|
E|-5-5-5-3-3-3-3---|-----------------|-----------------|
 |
 | D A5  C5  G5      D5 G5 D5
E|-----------------|-----------------|-----------------|
B|-----------------|-3-3-3-3---3-3-3-|-3-3-3-3-3-3-3-3-|
G|-7-9-9-5-5-------|-2-2-0-2---2-2-2-|-2-2-2-2-2-2-2-2-|
D|-7-7-7-5-5-5-5-5-|-0-0-0-0---0-0-0-|-0-0-0-0-0-0-0-0-|
A|-----------5-5-5-|-----------------|-----------------|
E|-----------------|-----------------|-----------------|

Chorus 1:

   A D A D             G5      D                         A D A D   D
E|-----------------|---3-3-3-3-3-2-2-|-----------------|-----------------|
B|---3---3---3-----|---3-3-3-3-3-3-3-|-3---------------|---3---3---3-----|
G|-2-2-2-2---2-----|---0-0-0-0-2-2-2-|-2-2-2-2---------|-2-2-2-2---2-----|
D|-2-0-2-0---0-----|---0-0-0-0-0-0-0-|-0-2-2-2---------|-2-0-2-0---0-----|
A|-0-0-0-0---0-----|---x-x-x-x-0-0-0-|-0-0-0-0---------|-0-0-0-0---0-----|
E|-----------------|---3-3-3-3-------|-----------------|-----------------|
 |
 | A D A D   D      D5 G5      D5        A5              A D A D   D
E|-----------------|-----------------|-----------------|-----------------|
B|---3---3---3-----|-3-3-3-3-3-3-3-3-|-3---------------|---3---3---3-----|
G|-2-2-2-2---2-----|-2-0-0-0-0-2-2-2-|-2-2-2-2---------|-2-2-2-2---2---2-|
D|-2-0-2-0---0-----|-0-0-0-0-0-0-0-0-|-0-2-2-2---------|-2-0-2-0---0---0-|
A|-0---0-----------|---x-x-x-x-------|---0-0-0---------|-0---0-----------|
E|-----------------|---3-3-3-3-------|-----------------|-----------------|

     G5      D         A5              A D A D   D         G5      D
E|---3-3-3-3-2-2-2-|-----------------|-----------------|---3-3-3-3-2-2-2-|
B|---3-3-3-3-3-3-3-|-3---------------|---3---3---3-----|---3-3-3-3-3-3-3-|
G|---0-0-0-0-2-2-2-|-2-2-2-2---------|-2-2-2-2-2-2-----|---0-0-0-0-2-2-2-|
D|---0-0-0-0-0-0-0-|-0-2-2-2---------|-2-0-2-0-0-0-----|---0-0-0-0-0-0-0-|
A|---x-x-x-x-------|-0-0-0-0---------|-0-0-0-0-0-0-----|---x-x-x-x-------|
E|---3-3-3-3-------|-----------------|-----------------|---3-3-3-3-------|
 |
 |D5 G5      D5        A5              A D A D   D      D5 G5      D5
E|-----------------|-----------------|-----------------|-----------------|
B|-3-3-3-3-3-3-3-3-|-3---------------|---3---3---3-----|-3-3-3-3-3-3-3-3-|
G|-2-0-0-0-0-2-2-2-|-2-2-2-2---------|-2-2-2-2---2-----|-2-0-0-0-0-2-2-2-|
D|-0-0-0-0-0-0-0-0-|-0-2-2-2---------|-2-0-2-0---0-----|-0-0-0-0-0-0-0-0-|
A|---x-x-x-x-------|---0-0-0---------|-0---0-----------|---x-x-x-x-------|
E|---3-3-3-3-------|-----------------|-----------------|---3-3-3-3-------|

   D A5              A D A D   D         G5      D       D A5
E|-----------------|-----------------|---3-3-3-3-2-2-2-|-----------------|
B|-3---------------|---3---3---3-----|---3-3-3-3-3-3-3-|-3---------------|
G|-2-2-2-2---------|-2-2-2-2---2-----|---0-0-0-0-2-2-2-|-2-2-2-2---------|
D|-0-2-2-2---------|-2-0-2-0---0-----|---0-0-0-0-0-0-0-|-0-2-2-2---------|
A|-0-0-0-0---------|-0-0-0-0---0-----|---x-x-x-x-------|-0-0-0-0---------|
E|-----------------|-----------------|---3-3-3-3-------|-----------------|
 |
 | A5                A D A D   D      D5 G5      D5        A5
E|-----------------|-----------------|-----------------|-----------------|
B|-3---------------|---3---3---3-----|-3-3-3-3-3-3-3-3-|-3---------------|
G|-2-2-2-2---------|-2-2-2-2---2-----|-2-0-0-0-0-2-2-2-|-2-2-2-2---------|
D|-0-2-2-2---------|-2-0-2-0---0-----|-0-0-0-0-0-0-0-0-|-0-2-2-2---------|
A|---0-0-0---------|-0---0-----------|---x-x-x-x-------|---0-0-0---------|
E|-----------------|-----------------|---3-3-3-3-------|-----------------|

Hold A chord for one more bar

Verse 2: (Angus only on the first time)

   A D A D                             A D A D   A5
E|-----------------|-----------------|-----------------|-----------------|
B|---3---3---3-----|-----------------|---3---3---------|-----------------|
G|-2-2-2-2---2-----|-----------------|-2-2-2-2---2-----|-----------------|
D|-2-4-2-4---4-----|-----------------|-2-4-2-4---2-----|-----------------|
A|-0-0-0-0---0-----|-----------------|-0-0-0-0---0-----|-----------------|
E|-----------------|-----------------|-----------------|-----------------|

   A D A D                             A D A D   A5
E|-----------------|-----------------|-----------------|-----------------|
B|---3---3---3-----|-----------------|---3---3---------|-----------------|
G|-2-2-2-2---2-----|-----------------|-2-2-2-2---2-----|-----------------|
D|-2-0-2-0---0-----|-----------------|-2-0-2-0---2-----|-----------------|
A|-0-0-0-0---0-----|-----------------|-0-0-0-0---0-----|-----------------|
E|-----------------|-----------------|-----------------|-----------------|
 |
 | A D A D                             A D A D   A5
E|-----------------|-----------------|-----------------|-----------------|
B|---3---3---3-----|-----------------|---3---3---------|-----------------|
G|-2-2-2-2---2-----|-----------------|-2-2-2-2---2-----|-----------------|
D|-2-4-2-4---4-----|-----------------|-2-4-2-4---2-----|-----------------|
A|-0-0-0-0---0-----|-----------------|-0-0-0-0---0-----|-----------------|
E|-----------------|-----------------|-----------------|-----------------|

Pre Chorus 2:

   D A   C   G5      D5 G5 D5          D A5  C   G5      D5 G5 D5
E|-----------------|-----------------|-----------------|-----------------|
B|-----------------|-----------------|-----------------|-----------------|
G|-----------------|-----------------|-----------------|-----------------|
D|---------------5-|-7-7-5-7---------|---------------5-|-7-7-5-7---------|
A|-5-7-7-3-3-5-5-5-|-5-5-5-5---------|-5-7-7-3-3-5-5-5-|-5-5-5-5---------|
E|-5-5-5-3-3-3-3---|-----------------|-5-5-5-3-3-3-3---|-----------------|
 |                                                                      x 1.5
 | D A5  C5  G5      D5 G5 D5          D A5  C5  G5      D5 G5 D5
E|-----------------|-----------------|-----------------|-----------------|
B|-----------------|-----------------|-----------------|-----------------|
G|-7-9-9-5-5-------|-----------------|-7-9-9-5-5-------|-----------------|
D|-7-7-7-5-5-5-5-5-|-7-7-5-7---------|-7-7-7-5-5-5-5-5-|-7-7-5-7---------|
A|-----------5-5-5-|-5-5-5-5---------|-----------5-5-5-|-5-5-5-5---------|
E|-----------------|-----------------|-----------------|-----------------|

   D A   C   G5      D5 G5 D5
E|-----------------|-----------------|-----------------|
B|-----------------|-3-3-3-3---3-3-3-|-3-3-3-3-3-3-3-3-|
G|-----------------|-2-0-2-2---2-2-2-|-2-2-2-2-2-2-2-2-|
D|---------------5-|-0-0-0-0---0-0-0-|-0-0-0-0-0-0-0-0-|
A|-5-7-7-3-3-5-5-5-|-----------------|-----------------|
E|-5-5-5-3-3-3-3---|-----------------|-----------------|
 |
 | D A5  C5  G5      D5 G5 D5
E|-----------------|-----------------|-----------------|
B|-----------------|-3-3-3-3---3-3-3-|-3-3-3-3-3-3-3-3-|
G|-7-9-9-5-5-------|-2-2-0-2---2-2-2-|-2-2-2-2-2-2-2-2-|
D|-7-7-7-5-5-5-5-5-|-0-0-0-0---0-0-0-|-0-0-0-0-0-0-0-0-|
A|-----------5-5-5-|-----------------|-----------------|
E|-----------------|-----------------|-----------------|

Chorus 2:

   A D A D             G5      D                         A D A D   D
E|-----------------|---3-3-3-3-3-2-2-|-----------------|-----------------|
B|---3---3---3-----|---3-3-3-3-3-3-3-|-3---------------|---3---3---3-----|
G|-2-2-2-2---2-----|---0-0-0-0-2-2-2-|-2-2-2-2---------|-2-2-2-2---2-----|
D|-2-0-2-0---0-----|---0-0-0-0-0-0-0-|-0-2-2-2---------|-2-0-2-0---0-----|
A|-0-0-0-0---0-----|---x-x-x-x-0-0-0-|-0-0-0-0---------|-0-0-0-0---0-----|
E|-----------------|---3-3-3-3-------|-----------------|-----------------|
 |
 | A D A D   D      D5 G5      D5        A5              A D A D   D
E|-----------------|-----------------|-----------------|-----------------|
B|---3---3---3-----|-3-3-3-3-3-3-3-3-|-3---------------|---3---3---3-----|
G|-2-2-2-2---2-----|-2-0-0-0-0-2-2-2-|-2-2-2-2---------|-2-2-2-2---2---2-|
D|-2-0-2-0---0-----|-0-0-0-0-0-0-0-0-|-0-2-2-2---------|-2-0-2-0---0---0-|
A|-0---0-----------|---x-x-x-x-------|---0-0-0---------|-0---0-----------|
E|-----------------|---3-3-3-3-------|-----------------|-----------------|

     G5      D         A5              A D A D   D         G5      D
E|---3-3-3-3-2-2-2-|-----------------|-----------------|---3-3-3-3-2-2-2-|
B|---3-3-3-3-3-3-3-|-3---------------|---3---3---3-----|---3-3-3-3-3-3-3-|
G|---0-0-0-0-2-2-2-|-2-2-2-2---------|-2-2-2-2-2-2-----|---0-0-0-0-2-2-2-|
D|---0-0-0-0-0-0-0-|-0-2-2-2---------|-2-0-2-0-0-0-----|---0-0-0-0-0-0-0-|
A|---x-x-x-x-------|-0-0-0-0---------|-0-0-0-0-0-0-----|---x-x-x-x-------|
E|---3-3-3-3-------|-----------------|-----------------|---3-3-3-3-------|
 |
 |D5 G5      D5        A5              A D A D   D      D5 G5      D5
E|-----------------|-----------------|-----------------|-----------------|
B|-3-3-3-3-3-3-3-3-|-3---------------|---3---3---3-----|-3-3-3-3-3-3-3-3-|
G|-2-0-0-0-0-2-2-2-|-2-2-2-2---------|-2-2-2-2---2-----|-2-0-0-0-0-2-2-2-|
D|-0-0-0-0-0-0-0-0-|-0-2-2-2---------|-2-0-2-0---0-----|-0-0-0-0-0-0-0-0-|
A|---x-x-x-x-------|---0-0-0---------|-0---0-----------|---x-x-x-x-------|
E|---3-3-3-3-------|-----------------|-----------------|---3-3-3-3-------|

   D A5              A D A D   D         G5      D       D A5
E|-----------------|-----------------|---3-3-3-3-2-2-2-|-----------------|
B|-3---------------|---3---3---3-----|---3-3-3-3-3-3-3-|-3---------------|
G|-2-2-2-2---------|-2-2-2-2---2-----|---0-0-0-0-2-2-2-|-2-2-2-2---------|
D|-0-2-2-2---------|-2-0-2-0---0-----|---0-0-0-0-0-0-0-|-0-2-2-2---------|
A|-0-0-0-0---------|-0-0-0-0---0-----|---x-x-x-x-------|-0-0-0-0---------|
E|-----------------|-----------------|---3-3-3-3-------|-----------------|
 |
 | A5                A D A D   D      D5 G5      D5        A5
E|-----------------|-----------------|-----------------|-----------------|
B|-3---------------|---3---3---3-----|-3-3-3-3-3-3-3-3-|-3---------------|
G|-2-2-2-2---------|-2-2-2-2---2-----|-2-0-0-0-0-2-2-2-|-2-2-2-2---------|
D|-0-2-2-2---------|-2-0-2-0---0-----|-0-0-0-0-0-0-0-0-|-0-2-2-2---------|
A|---0-0-0---------|-0---0-----------|---x-x-x-x-------|---0-0-0---------|
E|-----------------|-----------------|---3-3-3-3-------|-----------------|

Guitar Solo 1:

Angus (Solo):


E|-----------------------------------------------------|
B|-----------------------------------------------------|
G|-x\------7b9~~~-5----5----------5--7b9~~~~b9~~~b9~~~~|
D|-x\---------------7----4-7~~~~--5--------------------|
A|-x\--------------------------------------------------|
E|-----------------------------------------------------|

E|---------------------------------------------------------------|
B|------------------------8---8-10-8-13~~~~---13b~~~13b~~~-------|
G|-7p5--------5b------8-9---9----------------------------14~~~~\-|
D|-----7~~~---5b-------------------------------------------------|
A|---------------------------------------------------------------|
E|---------------------------------------------------------------|

E|---------------------------------------------------------------|
B|---17~~~~~17~~~~~17~~~~~17~~~~~15pb17r15-----------------------|
G|---17b~~~~17b~~~~17b~~~~17b~~~~----------14-14~~~~~~~~~~\\\\\\-|
D|---------------------------------------------------------------|
A|---------------------------------------------------------------|
E|---------------------------------------------------------------|

E|-------------------------|
B|-13----------------------|
G|---14~~~~~~~~~~~~~~------|
D|-------------------------|
A|-------------------11\---|
E|-------------------------|

Angus and Malcolm (Rhythm):

   G5        D         A5
E|-3-3-3-3-3-2-2-2-|-----------------|
B|-3-3-3-3-3-3-3-3-|-3---------------|
G|-0-0-0-0-0-2-2-2-|-2-2-2-2---------|
D|-0-0-0-0-0-0-0-0-|-0-2-2-2---------|
A|-x-x-x-x-x-------|-0-0-0-0---------|
E|-3-3-3-3-3-------|-----------------|
 |                                   x4
 | G5         D5        A5
E|-----------------|-----------------|
B|-3-3-3-3-3-3-3-3-|-3---------------|
G|-0-0-0-0-0-2-2-2-|-2-2-2-2---------|
D|-0-0-0-0-0-0-0-0-|-0-2-2-2---------|
A|-x-x-x-x-x-------|---0-0-0---------|
E|-3-3-3-3-3-------|-----------------|

Hold last A chord for 4 bars.

Verse 3:

   A D A D                             A D A D   A
E|-----------------|-----------------|-----------------|-----------------|
B|---3---3---3-----|-----------------|---3---3---------|-----------------|
G|-2-2-2-2---2-----|-----------------|-2-2-2-2---2-----|-----------------|
D|-2-0-2-0---0-----|-----------------|-2-0-2-0---2-----|-----------------|
A|-0-0-0-0---0-----|-----------------|-0-0-0-0---0-----|-----------------|
E|-----------------|-----------------|-----------------|-----------------|
 |
 | A D A D                             A D A D   A
E|-----------------|-----------------|-----------------|-----------------|
B|---3---3---3-----|-----------------|---3---3---2-----|-----------------|
G|-2-2-2-2---2-----|-----------------|-2-2-2-2---2-----|-----------------|
D|-2-4-2-4---4-----|-----------------|-2-4-2-4---2-----|-----------------|
A|-0-0-0-0---0-----|-----------------|-0-0-0-0---0-----|-----------------|
E|-----------------|-----------------|-----------------|-----------------|

   A D A D                             A D A D   A
E|-----------------|-----------------|-----------------|-----------------|
B|---3---3---3-----|-----------------|---3---3---------|-----------------|
G|-2-2-2-2---2-----|-----------------|-2-2-2-2---2-----|-----------------|
D|-2-0-2-0---0-----|-----------------|-2-0-2-0---2-----|-----------------|
A|-0-0-0-0---0-----|-----------------|-0-0-0-0---0-----|-----------------|
E|-----------------|-----------------|-----------------|-----------------|
 |
 | A D A D                             A D A D   A
E|-----------------|-----------------|-----------------|-----------------|
B|---3---3---3-----|-----------------|---3---3---2-----|-----------------|
G|-2-2-2-2---2-----|-----------------|-2-2-2-2---2-----|-----------------|
D|-2-4-2-4---4-----|-----------------|-2-4-2-4---2-----|-----------------|
A|-0-0-0-0---0-----|-----------------|-0-0-0-0---0-----|-----------------|
E|-----------------|-----------------|-----------------|-----------------|

Guitar Solo 2:

Angus (Solo):

E|---------------------------|
B|-15b17----13---------------|
G|-------------14~~~~~12b----|
D|---------------------------|
A|---------------------------|
E|---------------------------|

E|--------5----------------------|
B|-----5-----5-8b10~~~~~~~~~~~~~~|
G|-7b9---------------------------|
D|-------------------------------|
A|-------------------------------|
E|-------------------------------|

E|---------------------------|
B|---------------------------|
G|-17~~~~~~~~~~~~~~~~~~~~\---|
D|---------------------------|
A|---------------------------|
E|---------------------------|

E|---------------------------|
B|-15pb17r15-13-15~~~~~~-13b-|
G|---------------------------|
D|---------------------------|
A|---------------------------|
E|---------------------------|

E|------5~~~~-----5-5~~~~----|
B|-8b10------8b10------------|
G|---------------------------|
D|---------------------------|
A|---------------------------|
E|---------------------------|

E|----------10-------------------------------|
B|-------10----13b15-13b15~~~~-15----18b20~~~|
G|-12b14--------------------------14---------|
D|-------------------------------------------|
A|-------------------------------------------|
E|-------------------------------------------|

E|-12-11-10----------------------------------|
B|----------13-10----10-13~~~10~~~~12b-------|
G|----------------12-------------------------|
D|-------------------------------------------|
A|-------------------------------------------|
E|-------------------------------------------|

E|---------------|
B|-10~~~~~~~12b--|
G|---------------|
D|---------------|
A|---------------|
E|---------------|

E|-15----20b22-20~~~~----19pb20r--------20b22-20---------------|
B|----15--------------22----------22~~~----------20-20b22~~~~~-|
G|-------------------------------------------------------------|
D|-------------------------------------------------------------|
A|-------------------------------------------------------------|
E|-------------------------------------------------------------|

Angus and Malcolm (Rhythm): (They both play the same thing at the
                             first part...)

   A G       D         A
E|-----------------|-----------------|
B|-----------------|-----------------|
G|-2-2-2-2-2-2-2-2-|-2-2-2-2-2-2-2-2-|
D|-2-5-5-5-5-4-4-4-|-4-2-2-2-2-2-2-2-| x4
A|-0-0-0-0-0-0-0-0-|-0-0-0-0-0-0-0-0-|
E|-----------------|-----------------|

   G5        D         A5
E|-3-3-3-3-3-2-2-2-|-----------------|
B|-3-3-3-3-3-3-3-3-|-3---------------|
G|-0-0-0-0-0-2-2-2-|-2-2-2-2---------|
D|-0-0-0-0-0-0-0-0-|-0-2-2-2---------|
A|-x-x-x-x-x-------|-0-0-0-0---------|
E|-3-3-3-3-3-------|-----------------|
 |                                   x4
 | G5         D5        A5
E|-----------------|-----------------|
B|-3-3-3-3-3-3-3-3-|-3---------------|
G|-0-0-0-0-0-2-2-2-|-2-2-2-2---------|
D|-0-0-0-0-0-0-0-0-|-0-2-2-2---------|
A|-x-x-x-x-x-------|---0-0-0---------|
E|-3-3-3-3-3-------|-----------------|

Chorus/Guitar Solo 3:

Angus (Solo):

E|--------------------------------|
B|-----------20b22~~~~~20b22~~~~~-|
G|-x\-----------------------------|
D|-x\-----------------------------|
A|-x\-----------------------------|
E|--------------------------------|

E|----------------------------------------------------|
B|----20----20-----20------------------------20b22~~~~|
G|-19b20----19pb20r19----17b~~------17-17-17----------|
D|---------------------------19~~~~-------------------|
A|----------------------------------------------------|
E|----------------------------------------------------|

E|-----------------------------------------------------|
B|-20b22~~~~~20-19-17--20-19-17----17------------------|
G|------------------------------19----19-17------------|
D|--------------------------------------------19-19~~~-|
A|-----------------------------------------------------|
E|-----------------------------------------------------|

E|--------------------------------------------------------------|
B|-18b19~~~~~~-17----------------------------20-----------------|
G|----------------19-17----17-19-17----17-19b20--19-17----------|
D|----------------------19----------19-----------------19~~~~~\-|
A|--------------------------------------------------------------|
E|--------------------------------------------------------------|

E|----------------------------------------------------|
B|----20-----20------20---20-20-20-20-20--------------|
G|-19b20--19b20---19b20---20-20-20-20-20-19pb21r19~~~~|
D|----------------------------------------------------|
A|----------------------------------------------------|
E|----------------------------------------------------|

E|------------------------------------------15------------------|
B|-20b22~~~~~~20-19-20-19-20-19-20p19-17-------19---------------|
G|---------------------------------------19-------17b-----------|
D|----------------------------------------------------19~~~~~~~~|
A|--------------------------------------------------------------|
E|--------------------------------------------------------------|

Angus and Malcolm (Rhythm):

   A D A D             G5      D                         A D A D   D
E|-----------------|---3-3-3-3-3-2-2-|-----------------|-----------------|
B|---3---3---3-----|---3-3-3-3-3-3-3-|-3---------------|---3---3---3-----|
G|-2-2-2-2---2-----|---0-0-0-0-2-2-2-|-2-2-2-2---------|-2-2-2-2---2-----|
D|-2-0-2-0---0-----|---0-0-0-0-0-0-0-|-0-2-2-2---------|-2-0-2-0---0-----|
A|-0-0-0-0---0-----|---x-x-x-x-0-0-0-|-0-0-0-0---------|-0-0-0-0---0-----|
E|-----------------|---3-3-3-3-------|-----------------|-----------------|
 |
 | A D A D   D      D5 G5      D5        A5              A D A D   D
E|-----------------|-----------------|-----------------|-----------------|
B|---3---3---3-----|-3-3-3-3-3-3-3-3-|-3---------------|---3---3---3-----|
G|-2-2-2-2---2-----|-2-0-0-0-0-2-2-2-|-2-2-2-2---------|-2-2-2-2---2-----|
D|-2-0-2-0---0-----|-0-0-0-0-0-0-0-0-|-0-2-2-2---------|-2-0-2-0---0-----|
A|-0---0-----------|---x-x-x-x-------|---0-0-0---------|-0---0-----------|
E|-----------------|---3-3-3-3-------|-----------------|-----------------|

     G5      D         A5
E|---3-3-3-3-2-2-2-|-----------------|
B|---3-3-3-3-3-3-3-|-3---------------|
G|---0-0-0-0-2-2-2-|-2-2-2-2---------|
D|---0-0-0-0-0-0-0-|-0-2-2-2---------|
A|---x-x-x-x-------|-0-0-0-0---------|
E|---3-3-3-3-------|-----------------|
 |                                    x7
 |D5 G5      D5        A5
E|-----------------|-----------------|
B|-3-3-3-3-3-3-3-3-|-3---------------|
G|-2-0-0-0-0-2-2-2-|-2-2-2-2---------|
D|-0-0-0-0-0-0-0-0-|-0-2-2-2---------|
A|---x-x-x-x-------|---0-0-0---------|
E|---3-3-3-3-------|-----------------|

E|-----------------|
B|-----------------|
G|---------------2-|
D|---------------2-|
A|---------------0-|
E|-----------------|
 |
E|-----------------|
B|-----------------|
G|---------------2-|
D|---------------2-|
A|---------------0-|
E|-----------------|


[0200] Skies On Fire
Tune Up 1/4 Step


Intro:

                                          G5             D5
E|-----------------|-----------------|----3----33--3---|-----------------|
B|-----------------|-----------------|-3333--3333--3---|-3---------------|
G|-----------------|-----------------|-2220--2200--0---|-2---------------|
D|-----------------|-----------------|-0000--0000--0---|-0---------------|
A|-----------------|-----------------|----x----xx--x---|-----------------|
E|-----------------|-----------------|----3----33--3---|-----------------|
 |
 |                                        G5             D
E|-----------------|-----------------|----3----33--3---|-----------------|
B|-----------------|-----------------|-3333--3333--3---|-3---------------|
G|-----------------|-----------------|-2220--2200--0---|-2---------------|
D|-----------------|-----------------|-0000--0000--0---|-0---------------|
A|-----------------|-----------------|----x----xx--x---|-0---------------|
E|-----------------|-----------------|----3----33--3---|-----------------|

Repeat last two bars 4 times.

Verse 1:

    A5 G5 F5   FD              C5 G5 D5
E|-----------------|       |-----------------|
B|-----------------|       |---------3-------|
G|-----------------|       |------0--2-------|
D|-------------37--|       |---5--0--0-------|
A|---7--5--3---35--|       |---3--x----------|
E|---5--3--1-------|       |------3----------|
 |                   x3    |
 |  A5 G5 F5               |   C5 G5 D5
E|-----------------|       |-----------------|
B|-----------------|       |---------3-------|
G|-----------------|       |---5-----2-------|
D|---7--5--3---33--|       |---5--5--0-------|
A|---7--5--3---3---|       |---3--5----------|
E|-----------------|       |------3----------|


    A5 G5 F5   FD              C5 G5 D5
E|-----------------|       |-----------------|
B|-----------------|       |---------3-------|
G|-----------------|       |------0--2-------|
D|-------------37--|       |---5--0--0-------|
A|---7--5--3---35--|       |---3--x----------|
E|---5--3--1-------|       |------3----------|
 |                   x3    |
 |  A5 G5 F5               |   C5 G5 D5
E|-----------------|       |-----------------|
B|-----------------|       |---------3-------|
G|-----------------|       |---5-----2-------|
D|---7--5--3---33--|       |---5--5--0-------|
A|---7--5--3---3---|       |---3--5----------|
E|-----------------|       |------3----------|

    C5 G5 D5
E|-----------------|
B|---------3-------|
G|------0--2-------|
D|---5--0--0-------|
A|---3--x----------|
E|------3----------|
 |                   x3
 |
E|-----------------|
B|---------3-------|
G|---5-----2-------|
D|---5--5--0-------|
A|---3--5----------|
E|------3----------|

Chorus 1:

      G5             D5                   G5             D5
E|----3----33--3---|-----------------|----3----33--3---|-----------------|
B|-3333--3333--3---|-3---------------|-3333--3333--3---|-3---------------|
G|-2220--2200--0---|-2---------------|-2220--2200--0---|-2---------------|
D|-0000--0000--0---|-0---------------|-0000--0000--0---|-0---------------|
A|----x----xx--x---|-----------------|----x----xx--x---|-----------------|
E|----3----33--3---|-----------------|----3----33--3---|-----------------|
 |
 |    G5             D                    G5             D
E|----3----33--3---|-----------------|----3----33--3---|-----------------|
B|-3333--3333--3---|-3---------------|-3333--3333--3---|-3---------------|
G|-2220--2200--0---|-2---------------|-2220--2200--0---|-2---------------|
D|-0000--0000--0---|-0---------------|-0000--0000--0---|-0---------------|
A|----x----xx--x---|-0---------------|----x----xx--x---|-0---------------|
E|----3----33--3---|-----------------|----3----33--3---|-----------------|


      G5             D5                   G5             D5
E|----3----33--3---|-----------------|----3----33--3---|-----------------|
B|-3333--3333--3---|-3---------------|-3333--3333--3---|-3---------------|
G|-2220--2200--0---|-2---------------|-2220--2200--0---|-2---------------|
D|-0000--0000--0---|-0---------------|-0000--0000--0---|-0---------------|
A|----x----xx--x---|-----------------|----x----xx--x---|-----------------|
E|----3----33--3---|-----------------|----3----33--3---|-----------------|
 |
 |    G5             D                    G5             D
E|----3----33--3---|-----------------|----3----33--3---|-----------------|
B|-3333--3333--3---|-3---------------|-3333--3333--3---|-3---------------|
G|-2220--2200--0---|-2---------------|-2220--2200--0---|-2---------------|
D|-0000--0000--0---|-0---------------|-0000--0000--0---|-0---------------|
A|----x----xx--x---|-0---------------|----x----xx--x---|-0---------------|
E|----3----33--3---|-----------------|----3----33--3---|-----------------|

Verse 2:

    A5 G5 F5   FD              C5 G5 D5
E|-----------------|       |-----------------|
B|-----------------|       |---------3-------|
G|-----------------|       |------0--2-------|
D|-------------37--|       |---5--0--0-------|
A|---7--5--3---35--|       |---3--x----------|
E|---5--3--1-------|       |------3----------|
 |                   x7    |                   x4
 |  A5 G5 F5               |   C5 G5 D5
E|-----------------|       |-----------------|
B|-----------------|       |---------3-------|
G|-----------------|       |---5-----2-------|
D|---7--5--3---33--|       |---5--5--0-------|
A|---7--5--3---3---|       |---3--5----------|
E|-----------------|       |------3----------|

Chorus 2:

      G5             D5                   G5             D5
E|----3----33--3---|-----------------|----3----33--3---|-----------------|
B|-3333--3333--3---|-3---------------|-3333--3333--3---|-3---------------|
G|-2220--2200--0---|-2---------------|-2220--2200--0---|-2---------------|
D|-0000--0000--0---|-0---------------|-0000--0000--0---|-0---------------|
A|----x----xx--x---|-----------------|----x----xx--x---|-----------------|
E|----3----33--3---|-----------------|----3----33--3---|-----------------|
 |
 |    G5             D                    G5             D
E|----3----33--3---|-----------------|----3----33--3---|-----------------|
B|-3333--3333--3---|-3---------------|-3333--3333--3---|-3---------------|
G|-2220--2200--0---|-2---------------|-2220--2200--0---|-2---------------|
D|-0000--0000--0---|-0---------------|-0000--0000--0---|-0---------------|
A|----x----xx--x---|-0---------------|----x----xx--x---|-0---------------|
E|----3----33--3---|-----------------|----3----33--3---|-----------------|


      G5             D5                   G5             D5
E|----3----33--3---|-----------------|----3----33--3---|-----------------|
B|-3333--3333--3---|-3---------------|-3333--3333--3---|-3---------------|
G|-2220--2200--0---|-2---------------|-2220--2200--0---|-2---------------|
D|-0000--0000--0---|-0---------------|-0000--0000--0---|-0---------------|
A|----x----xx--x---|-----------------|----x----xx--x---|-----------------|
E|----3----33--3---|-----------------|----3----33--3---|-----------------|
 |
 |    G5             D                    G5             D
E|----3----33--3---|-----------------|----3----33--3---|-----------------|
B|-3333--3333--3---|-3---------------|-3333--3333--3---|-3---------------|
G|-2220--2200--0---|-2---------------|-2220--2200--0---|-2---------------|
D|-0000--0000--0---|-0---------------|-0000--0000--0---|-0---------------|
A|----x----xx--x---|-0---------------|----x----xx--x---|-0---------------|
E|----3----33--3---|-----------------|----3----33--3---|-----------------|

Hold D chord for one more bar

Guitar Solo 1:

Angus (Solo):

                                                 P.H.
E|---------------------------|------------------------|
B|-13b15~~~~~~~13b15~~~~~~\--|------------------------|
G|------------------------\--|-10b--------------------|
D|------------------------\--|-------12-10-12~~~~10b--|
A|------------------------\--|------------------------|
E|---------------------------|------------------------|

E|-------------10----------------10-13---|-------------------------------|
B|----------10----13-10-------10---------|----13-15-13b15-15-13b15~~~~~\-|
G|-12b14----------------12b14------------|-/14---------------------------|
D|---------------------------------------|-------------------------------|
A|---------------------------------------|-------------------------------|
E|---------------------------------------|-------------------------------|

                                       P.H.----------------|
E|---------------------------------------------------------|
B|------------10-------------------------------------------|
G|-12b14r12~~~---12pb14-----10-12----10b~~~~---------------|
D|--------------------------------12--------12(10)\/10////-|
A|---------------------------------------------------------|
E|---------------------------------------------------------|

E|-------------------|-----10-13-13b-10~~~~-10-13b~10~-|
B|-------------------|-/13-----------------------------|
G|-5-5-5~~~-5-7~~~~\-|---------------------------------|
D|--------7----------|---------------------------------|
A|-------------------|---------------------------------|
E|-------------------|---------------------------------|

E|---------------------------------------|
B|-20b22~~~~~20b22~~~~~18b---------------|
G|---------------------------19~~~~~~~\\-|
D|---------------------------------------|
A|---------------------------------------|
E|---------------------------------------|

E|----17---17---17-------|
B|----18b--18b--18b------|
G|-----------------------|
D|-----------------------|
A|-----------------------|
E|-----------------------|

E|-20b22~~~~~20b22~~~~~20b22~~~~~~22----20--------------------------|
B|-----------------------------------22----20-22-18b~~~-------------|
G|-------------------------------------------------------19-19~~~~\-|
D|------------------------------------------------------------------|
A|------------------------------------------------------------------|
E|------------------------------------------------------------------|

E|----------------|
B|-13b15~~~~~~~~~~|
G|----------------|
D|----------------|
A|----------------|
E|----------------|


Angus and Malcolm (Rhythm):

    A5 G5 F5   FD              C5 G5 D5
E|-----------------|       |-----------------|
B|-----------------|       |---------3-------|
G|-----------------|       |------0--2-------|
D|-------------37--|       |---5--0--0-------|
A|---7--5--3---35--|       |---3--x----------|
E|---5--3--1-------|       |------3----------|
 |                   x7    |                   x4
 |  A5 G5 F5               |   C5 G5 D5
E|-----------------|       |-----------------|
B|-----------------|       |---------3-------|
G|-----------------|       |---5-----2-------|
D|---7--5--3---33--|       |---5--5--0-------|
A|---7--5--3---3---|       |---3--5----------|
E|-----------------|       |------3----------|

Then play the last two bars of the intro once, before blasting back
into the chorus.

Chorus/Guitar Solo 2:

Angus (Solo):

2:50

E|-------14-15-15b17-------14-15-14-----------------12-----|
B|-15~~~~---------------------------15-15~~~~~12h15---15~~~|
G|---------------------------------------------------------|
D|---------------------------------------------------------|
A|---------------------------------------------------------|
E|---------------------------------------------------------|

   P.H.
E|-13~~~~~-----------------------|
B|---------12b13r10-----15~~~~~\-|
G|-------------------------------|
D|-------------------------------|
A|-------------------------------|
E|-------------------------------|

E|-------15-16-17-16-15-13-15-13~~~~~----------|
B|-15-19-----------------------------15-13-15--|
G|---------------------------------------------|
D|---------------------------------------------|
A|---------------------------------------------|
E|---------------------------------------------|

E|-13b-13b~~~~13b-13b-13b------|
B|-----------------------------|
G|-----------------------------|
D|-----------------------------|
A|-----------------------------|
E|-----------------------------|

E|-------14-15~~~~-------15-15~~~~-|
B|-15-17-----------15-17-----------|
G|---------------------------------|
D|---------------------------------| x3
A|---------------------------------|
E|---------------------------------|

E|-13b15~~~~~-13----15-13----------13-----10~~~~~~~\-|
B|---------------15-------15-13-15----13-------------|
G|---------------------------------------------------|
D|---------------------------------------------------|
A|---------------------------------------------------|
E|---------------------------------------------------|

Angus and Malcolm (Rhythm):

Repeat Chorus underneath solo. End on D5

E|-----|
B|-3---|
G|-2---|
D|-0---|
A|-----|
E|-----|


[0300] Big Jack
Standard Tuning

Intro:

   B5  E5  B5  E         E5  B5
E|-------------0---|-----------------|-----------------|
B|-------------0---|-----------------|-----------------| *Listen closely for
G|-------------x---|---------4-------|-----------------|  the B and E
D|-4---2---4---2---|-----2---4-------|-----------------|  strings. They're
A|-2---2---2---2---|-----2---2-------|-----------------|  there.
E|-----0-------0---|-----0-----------|-----------------|
 |
 | B5  E5  B5  E5        E5  B5
E|-----------------|-----------------|-----------------|
B|-----------------|-----------------|-----------------|
G|-4-------4-------|---------4-------|-----------------|
D|-4---2---4---2---|-----2---4-------|-----------------|
A|-2---2---2---2---|-----2---2-------|-----------------|
E|-----0-------0---|-----0-----------|-----------------|

Verse 1:

     B5                            B5    E5
E|-----------------|-----------------|-----------------|-----------------|
B|-----------------|-----------------|-----------------|-----------------|
G|-----------------|---------------4-|-----------------|-----------------|
D|-2h4-2-0---4-----|---------------4-|---2-------------|-2h4-2h4-2h4-----|
A|-2-2-----4-2-----|---------------2-|---2-------------|-2-2-2-2-2-2-----|
E|-----------------|-----------------|---0-------------|-----------------|
 |
 | E                               B5    E5
E|-----------------|-----------------|-----------------|-----------------|
B|-----------------|-----------------|-----------------|-----------------|
G|-----------------|---------------4-|-----------------|-----------------|
D|-2h4-2-0---------|---------------4-|---2-------------|-2h4-2h4-2h4-----|
A|-2-2-----4-2-----|---------------2-|---2-------------|-2-2-2-2-2-2-----|
E|-----------------|-----------------|---0-------------|-----------------|

     B5                            B5    E5
E|-----------------|-----------------|-----------------|-----------------|
B|-----------------|-----------------|-----------------|-----------------|
G|-----------------|---------------4-|-----------------|-----------------|
D|-2h4-2-0---4-----|---------------4-|---2-------------|-2h4-2h4-2h4-----|
A|-2-2-----4-2-----|---------------2-|---2-------------|-2-2-2-2-2-2-----|
E|-----------------|-----------------|---0-------------|-----------------|
 |
 | E                               B5    E5
E|-----------------|-----------------|-----------------|-----------------|
B|-----------------|-----------------|-----------------|-----------------|
G|-----------------|---------------4-|-----------------|-----------------|
D|-2h4-2-0---------|---------------4-|---2-------------|-2h4-2h4-2h4-----|
A|-2-2-----4-2-----|---------------2-|---2-------------|-2-2-2-2-2-2-----|
E|-----------------|-----------------|---0-------------|-----------------|

     B5                            B5    E5
E|-----------------|-----------------|-----------------|-----------------|
B|-----------------|-----------------|-----------------|-----------------|
G|-----------------|---------------4-|-----------------|-----------------|
D|-2h4-2-0---4-----|---------------4-|---2-------------|-2h4-2h4-2h4-----|
A|-2-2-----4-2-----|---------------2-|---2-------------|-2-2-2-2-2-2-----|
E|-----------------|-----------------|---0-------------|-----------------|
 |
 | E                               B5    E5
E|-----------------|-----------------|-----------------|-----------------|
B|-----------------|-----------------|-----------------|-----------------|
G|-----------------|---------------4-|-----------------|-----------------|
D|-2h4-2-0---------|---------------4-|---2-------------|-2h4-2h4-2h4-----|
A|-2-2-----4-2-----|---------------2-|---2-------------|-2-2-2-2-2-2-----|
E|-----------------|-----------------|---0-------------|-----------------|

     B5                            B5    E5
E|-----------------|-----------------|-----------------|-----------------|
B|-----------------|-----------------|-----------------|-----------------|
G|-----------------|---------------4-|-----------------|---------------4-|
D|-2h4-2-0---4-----|---------------4-|---2-------------|-2h4-2h4-2h4---4-|
A|-2-2-----4-2-----|---------------2-|---2-------------|-2-2-2-2-2-2---2-|
E|-----------------|-----------------|---0-------------|-----------------|
 |
 | E                               B5    E5
E|-----------------|-----------------|-----------------|-----------------|
B|-----------------|-----------------|-----------------|-----------------|
G|-----------------|---------------4-|-----------------|---------------4-|
D|-2h4-2-0---------|---------------4-|---2-------------|-2h4-2h4-2h4---4-|
A|-2-2-----4-2-----|---------------2-|---2-------------|-2-2-2-2-2-2---2-|
E|-----------------|-----------------|---0-------------|-----------------|


Pre Chorus 1:

     B5
E|-----------------|-----------------|-----------------|-----------------|
B|-----------------|-----------------|-----------------|-----------------|
G|---4-4-4-4-4-4-4-|---4-----------4-|---4-4-4-4-4-4-4-|---4-----------4-|
D|---4-2-4-2-x-x-4-|---4-----------4-|---4-2-4-2-x-x-4-|---4-----------4-|
A|---2-2-2-x-5-4-2-|---2-----------2-|---2-2-2-x-5-4-2-|---2-----------2-|
E|-----------------|-----------------|-----------------|-----------------|
 |
 |     E         B5                B5      E         B5                B5
E|-----------------|-----------------|-----------------|-----------------|
B|-----------------|-----------------|-----------------|-----------------|
G|---------------4-|---4-----------4-|---------------4-|---4-----------4-|
D|---4-2h4-2-0---4-|---4-----------4-|---4-2h4-2-0---4-|---4-----------4-|
A|---2-2-2-----4-2-|---2-----------2-|---2-2-2-----4-2-|---2-----------2-|
E|-----------------|-----------------|-----------------|-----------------|

     B5
E|-----------------|-----------------|-----------------|
B|-----------------|-----------------|---------------3-|
G|---4-4-4-4-4-4-4-|---4-----------4-|---4-4-4-4-4-4-2-|
D|---4-2-4-2-x-x-4-|---4-----------4-|---4-2-4-2-x-x-0-|
A|---2-2-2-x-5-4-2-|---2-----------2-|---2-2-2-2-5-4---|
E|-----------------|-----------------|-----------------|
 |
 |     E         B5                B5      E F#
E|-----------------|-----------------|-----------------|
B|-----------------|-----------------|---------------10|
G|---------------4-|---4-----------4-|---------------11|
D|---4-2h4-2-0---4-|---4-----------4-|---4-2-4-2-0-----|
A|---2-2-2-----4-2-|---2-----------2-|---2-2-2-----4---|
E|-----------------|-----------------|-----------------|

Chorus 1:

Malcolm:

      D5                                 G5                D5    D5
E|-----------------|-----------------|-----------------|-----------------|
B|---3-3-3-3-3-3-3-|-3-3-3-3-3-3-3-3-|-----------------|---3-----3-------|
G|---2-2-2-2-2-2-2-|-2-2-2-2-2-2-2-2-|---0-----0-------|---2-----2-----2-|
D|---0-0-0-0-0-0-0-|-0-0-0-0-0-0-0-0-|---0-----0-------|---0---0-0-----2-|
A|-----------------|-----------------|---x---x-x-------|-------0-------0-|
E|-----------------|-----------------|---3---3-3-------|-----------------|

     A D   G   D A     A
E|-----------------|-----------------|
B|-----------------|-----------------| Repeat last 4 bars 3 times.
G|---2-2---2---2-2-|---2-------2-----|
D|---2-4---5---4-2-|---2-----0-2-----|
A|---0-0---0---0-0-|---0-----0-0-----|
E|-----------------|-----------------|

     G5                D5              A   D   G   D     A5    E5
E|-----------------|-----------------|-----------------|-----------------|
B|-----------------|---3-----3-------|-----------------|-----------------|
G|---0-----0-------|---2-----2-----0h|-2-2-2---2---2---|-----------------|
D|---0-----0-------|---0---0-0-----0h|-2-2-4---5---4---|-2-----2---------|
A|---x---x-x-------|-------0-------0-|-0-0-0---0---0---|-0-----2---------|
E|---3---3-3-------|-----------------|-----------------|-------0---------|


Angus does some top-string riffing here. It's all double-digits so I will
make it seperate from Malcolm's part. Note that I'm still using bars, just
spreading the notes out so they all fit.

E|-------------------------|----------------------------|
B|-10-10-10-10-10-10-10-10-|h13-13-13-13-13-13-13-13-12-|
G|-11-11-11-11-11-11-11-11-|-14-14-14-14-14-14-14-14-13-|
D|-------------------------|----------------------------|
A|-------------------------|----------------------------|
E|-------------------------|----------------------------|

E|-------------------------|----------------------------|
B|----13----12-13----------|----------------------------|
G|----12----12-12-------11-|----12-----11--12-----------|
D|-----------------------0-|-----0-----0----0-----------|
A|-------------------------|--------------------------0-|
E|-------------------------|----------------------------|

E|-------------------------|----------------------------|
B|-------------------------|-------------------------12-|
G|-------------------------|-------------------------12-|
D|-11-12-11-12-11----------|-11-12-11-12-11-------------|
A|--0--0--0--0--0-12-----0-|--0--0--0--0--0-12----------|
E|-------------------------|----------------------------|

E|-------------------------|----------------------------|
B|----13----12-13----------|----------------------------|
G|----12----12-12-------11-|----12-----11--12-----------|
D|-----------------------0-|-----0-----0----0-----------|
A|-------------------------|--------------------------0-|
E|-------------------------|----------------------------|

E|-------------------------|----------------------------|
B|-------------------------|-------------------------12-|
G|-------------------------|-------------------------12-|
D|-11-12-11-12-11----------|-11-12-11-12-11-------------|
A|--0--0--0--0--0-12-----0-|--0--0--0--0--0-12----------|
E|-------------------------|----------------------------|

E|-------------------------|----------------------------|
B|----13----12-13----------|----------------------------|
G|----12----12-12-------11-|----12-----11--12-----------|
D|-----------------------0-|-----0-----0----0-----------|
A|-------------------------|--------------------------0-|
E|-------------------------|----------------------------|

E|-------------------------|----------------------------|
B|-------------------------|-------------------------12-|
G|-------------------------|-------------------------12-|
D|-11-12-11-12-11----------|-11-12-11-12-11-------------|
A|--0--0--0--0--0-12-----0-|--0--0--0--0--0-12----------|
E|-------------------------|----------------------------|

E|-------------------------|----------------------------|
B|----13----12-13----------|----------------------------|
G|----12----12-12-------11-|----12-----11--12-----------|
D|-----------------------0-|-----0-----0----0-----------|
A|-------------------------|--------------------------0-|
E|-------------------------|----------------------------|

E|-------------------------|----------------------------|
B|-------------------------|----------------------------|
G|-------------------------|--2-------------------------|
D|-11-12-11-12-11----------|--2--------2----------------|
A|--0--0--0--0--0-12-----0-|--0--------2----------------|
E|-------------------------|-----------0----------------|

Verse 2:

     B5                            B5    E5
E|-----------------|-----------------|-----------------|-----------------|
B|-----------------|-----------------|-----------------|-----------------|
G|-----------------|---------------4-|-----------------|-----------------|
D|-2h4-2-0---4-----|---------------4-|---2-------------|-2h4-2h4-2h4-----|
A|-2-2-----4-2-----|---------------2-|---2-------------|-2-2-2-2-2-2-----|
E|-----------------|-----------------|---0-------------|-----------------|
 |
 | E                               B5    E5
E|-----------------|-----------------|-----------------|-----------------|
B|-----------------|-----------------|-----------------|-----------------|
G|-----------------|---------------4-|-----------------|-----------------|
D|-2h4-2-0---------|---------------4-|---2-------------|-2h4-2h4-2h4-----|
A|-2-2-----4-2-----|---------------2-|---2-------------|-2-2-2-2-2-2-----|
E|-----------------|-----------------|---0-------------|-----------------|

     B5                            B5    E5
E|-----------------|-----------------|-----------------|-----------------|
B|-----------------|-----------------|-----------------|-----------------|
G|-----------------|---------------4-|-----------------|-----------------|
D|-2h4-2-0---4-----|---------------4-|---2-------------|-2h4-2h4-2h4-----|
A|-2-2-----4-2-----|---------------2-|---2-------------|-2-2-2-2-2-2-----|
E|-----------------|-----------------|---0-------------|-----------------|
 |
 | E                               B5    E5
E|-----------------|-----------------|-----------------|-----------------|
B|-----------------|-----------------|-----------------|-----------------|
G|-----------------|---------------4-|-----------------|-----------------|
D|-2h4-2-0---------|---------------4-|---2-------------|-2h4-2h4-2h4-----|
A|-2-2-----4-2-----|---------------2-|---2-------------|-2-2-2-2-2-2-----|
E|-----------------|-----------------|---0-------------|-----------------|

     B5                            B5    E5
E|-----------------|-----------------|-----------------|-----------------|
B|-----------------|-----------------|-----------------|-----------------|
G|-----------------|---------------4-|-----------------|-----------------|
D|-2h4-2-0---4-----|---------------4-|---2-------------|-2h4-2h4-2h4-----|
A|-2-2-----4-2-----|---------------2-|---2-------------|-2-2-2-2-2-2-----|
E|-----------------|-----------------|---0-------------|-----------------|
 |
 | E                               B5    E5
E|-----------------|-----------------|-----------------|-----------------|
B|-----------------|-----------------|-----------------|-----------------|
G|-----------------|---------------4-|-----------------|-----------------|
D|-2h4-2-0---------|---------------4-|---2-------------|-2h4-2h4-2h4-----|
A|-2-2-----4-2-----|---------------2-|---2-------------|-2-2-2-2-2-2-----|
E|-----------------|-----------------|---0-------------|-----------------|

     B5                            B5    E5
E|-----------------|-----------------|-----------------|-----------------|
B|-----------------|-----------------|-----------------|-----------------|
G|-----------------|---------------4-|-----------------|---------------4-|
D|-2h4-2-0---4-----|---------------4-|---2-------------|-2h4-2h4-2h4---4-|
A|-2-2-----4-2-----|---------------2-|---2-------------|-2-2-2-2-2-2---2-|
E|-----------------|-----------------|---0-------------|-----------------|
 |
 | E                               B5    E5
E|-----------------|-----------------|-----------------|-----------------|
B|-----------------|-----------------|-----------------|-----------------|
G|-----------------|---------------4-|-----------------|---------------4-|
D|-2h4-2-0---------|---------------4-|---2-------------|-2h4-2h4-2h4---4-|
A|-2-2-----4-2-----|---------------2-|---2-------------|-2-2-2-2-2-2---2-|
E|-----------------|-----------------|---0-------------|-----------------|

Pre Chorus 2:

     B5
E|-----------------|-----------------|-----------------|-----------------|
B|-----------------|-----------------|-----------------|-----------------|
G|---4-4-4-4-4-4-4-|---4-----------4-|---4-4-4-4-4-4-4-|---4-----------4-|
D|---4-2-4-2-x-x-4-|---4-----------4-|---4-2-4-2-x-x-4-|---4-----------4-|
A|---2-2-2-x-5-4-2-|---2-----------2-|---2-2-2-x-5-4-2-|---2-----------2-|
E|-----------------|-----------------|-----------------|-----------------|
 |
 |     E         B5                B5      E         B5                B5
E|-----------------|-----------------|-----------------|-----------------|
B|-----------------|-----------------|-----------------|-----------------|
G|---------------4-|---4-----------4-|---------------4-|---4-----------4-|
D|---4-2h4-2-0---4-|---4-----------4-|---4-2h4-2-0---4-|---4-----------4-|
A|---2-2-2-----4-2-|---2-----------2-|---2-2-2-----4-2-|---2-----------2-|
E|-----------------|-----------------|-----------------|-----------------|

     B5
E|-----------------|-----------------|-----------------|
B|-----------------|-----------------|---------------3-|
G|---4-4-4-4-4-4-4-|---4-----------4-|---4-4-4-4-4-4-2-|
D|---4-2-4-2-x-x-4-|---4-----------4-|---4-2-4-2-x-x-0-|
A|---2-2-2-x-5-4-2-|---2-----------2-|---2-2-2-2-5-4---|
E|-----------------|-----------------|-----------------|
 |
 |     E         B5                B5      E F#
E|-----------------|-----------------|-----------------|
B|-----------------|-----------------|---------------10|
G|---------------4-|---4-----------4-|---------------11|
D|---4-2h4-2-0---4-|---4-----------4-|---4-2-4-2-0-----|
A|---2-2-2-----4-2-|---2-----------2-|---2-2-2-----4---|
E|-----------------|-----------------|-----------------|

Chorus 2:

Malcolm:

      D5                                 G5                D5    D5
E|-----------------|-----------------|-----------------|-----------------|
B|---3-3-3-3-3-3-3-|-3-3-3-3-3-3-3-3-|-----------------|---3-----3-------|
G|---2-2-2-2-2-2-2-|-2-2-2-2-2-2-2-2-|---0-----0-------|---2-----2-----2-|
D|---0-0-0-0-0-0-0-|-0-0-0-0-0-0-0-0-|---0-----0-------|---0---0-0-----2-|
A|-----------------|-----------------|---x---x-x-------|-------0-------0-|
E|-----------------|-----------------|---3---3-3-------|-----------------|

     A D   G   D A     A
E|-----------------|-----------------|
B|-----------------|-----------------| Repeat last 4 bars 3 times.
G|---2-2---2---2-2-|---2-------2-----|
D|---2-4---5---4-2-|---2-----0-2-----|
A|---0-0---0---0-0-|---0-----0-0-----|
E|-----------------|-----------------|

     G5                D5              A   D   G   D     A5    E5
E|-----------------|-----------------|-----------------|-----------------|
B|-----------------|---3-----3-------|-----------------|-----------------|
G|---0-----0-------|---2-----2-----0h|-2-2-2---2---2---|-----------------|
D|---0-----0-------|---0---0-0-----0h|-2-2-4---5---4---|-2-----2---------|
A|---x---x-x-------|-------0-------0-|-0-0-0---0---0---|-0-----2---------|
E|---3---3-3-------|-----------------|-----------------|-------0---------|

Angus:

E|-------------------------|----------------------------|
B|-10-10-10-10-10-10-10-10-|h13-13-13-13-13-13-13-13-12-|
G|-11-11-11-11-11-11-11-11-|-14-14-14-14-14-14-14-14-13-|
D|-------------------------|----------------------------|
A|-------------------------|----------------------------|
E|-------------------------|----------------------------|

E|-------------------------|----------------------------|
B|----13----12-13----------|----------------------------|
G|----12----12-12-------11-|----12-----11--12-----------|
D|-----------------------0-|-----0-----0----0-----------|
A|-------------------------|--------------------------0-|
E|-------------------------|----------------------------|

E|-------------------------|----------------------------|
B|-------------------------|-------------------------12-|
G|-------------------------|-------------------------12-|
D|-11-12-11-12-11----------|-11-12-11-12-11-------------|
A|--0--0--0--0--0-12-----0-|--0--0--0--0--0-12----------|
E|-------------------------|----------------------------|

E|-------------------------|----------------------------|
B|----13----12-13----------|----------------------------|
G|----12----12-12-------11-|----12-----11--12-----------|
D|-----------------------0-|-----0-----0----0-----------|
A|-------------------------|--------------------------0-|
E|-------------------------|----------------------------|

E|-------------------------|----------------------------|
B|-------------------------|-------------------------12-|
G|-------------------------|-------------------------12-|
D|-11-12-11-12-11----------|-11-12-11-12-11-------------|
A|--0--0--0--0--0-12-----0-|--0--0--0--0--0-12----------|
E|-------------------------|----------------------------|

E|-------------------------|----------------------------|
B|----13----12-13----------|----------------------------|
G|----12----12-12-------11-|----12-----11--12-----------|
D|-----------------------0-|-----0-----0----0-----------|
A|-------------------------|--------------------------0-|
E|-------------------------|----------------------------|

E|-------------------------|----------------------------|
B|-------------------------|-------------------------12-|
G|-------------------------|-------------------------12-|
D|-11-12-11-12-11----------|-11-12-11-12-11-------------|
A|--0--0--0--0--0-12-----0-|--0--0--0--0--0-12----------|
E|-------------------------|----------------------------|

E|-------------------------|----------------------------|
B|----13----12-13----------|----------------------------|
G|----12----12-12-------11-|----12-----11--12-----------|
D|-----------------------0-|-----0-----0----0-----------|
A|-------------------------|--------------------------0-|
E|-------------------------|----------------------------|

E|-------------------------|----------------------------|
B|-------------------------|----------------------------|
G|-------------------------|--2-------------------------|
D|-11-12-11-12-11----------|--2--------2----------------|
A|--0--0--0--0--0-12-----0-|--0--------2----------------|
E|-------------------------|-----------0----------------|

Then Angus and Malcolm both play this bit:

     B5
E|-----------------|-----------------|
B|-----------------|-----------------|
G|-----------------|-----------------|
D|-2-4-2-0---------|-----------------|
A|-2-2-----4-2-----|-----------------|
E|-----------------|-----------------|

     B5
E|-----------------|
B|-----------------|
G|---------------4-|
D|-2-4-2-0-------4-|
A|-2-2-----4-2---2-|
E|-----------------|

Guitar Solo:

Angus (Solo):


E|--------7-7-7-7-----7---------7---|
B|--------7-7-7-7-------7-10----7---|
G|-------------------------9--------|
D|-9~~~~~---------------------------|
A|----------------------------------|
E|----------------------------------|

E|------------------------------|--------------------|
B|-7-----7-7---7-------9--------|----7-----7-7-7-----|
G|-7b----------7b--------7b-----|-9b---7b------------|
D|-------9-9-------9--------9---|----------9-9-9-----|
A|------------------------------|--------------------|
E|------------------------------|--------------------|

E|--------------------------------|-----------------------|
B|-/12-12-12---\------12~~~~10-12-|-12-10-10-10---7-------|
G|-/11-11-11---\--/13-------------|-11-11-11-11-9-7b------|
D|--------------------------------|------------------9----|
A|--------------------------------|-----------------------|
E|--------------------------------|-----------------------|

E|----------------------7-------|
B|------------------------------|
G|-7b----/9b11-9b11--------9~~~-|
D|----9-------------------------|
A|------------------------------|
E|------------------------------|

E|----------------------|--------------------7----------------|
B|-----12-12-10-12-12-\-|-----12\----12\-----7-10-7-----------|
G|-/13-11-11-11-11-11-\-|-/13-----/13----13---------9-7b------|
D|----------------------|--------------------------------9----|
A|----------------------|-------------------------------------|
E|----------------------|-------------------------------------|


          Hold Bend
E|-----------12-12-----------------------------|
B|-15b17~~~~-15-15-15--------------------------|
G|--------------------16-14----14-13----13---\-|
D|--------------------------14-------14--------|
A|---------------------------------------------|
E|---------------------------------------------|

E|-------------------------------------------|
B|/12-12-12-12-12-12-/15-15-15-15-15-15-15-/-|
G|/13-13-13-13-13-13-/14-14-14-14-14-14-14-/-|
D|-------------------------------------------|
A|-------------------------------------------|
E|-------------------------------------------|

Angus and Malcolm (Rhythm):

                     B5            D5        E5
E|-----------------|-----------------|-----------------|
B|-----------------|---------------3-|-----------------|
G|-----------------|-4-------------2-|---2-2-----------|
D|-----------------|-4-------------0-|---0-0-2---2-2---|
A|-----------------|-2---------------|-------2---2-2---|
E|-----------------|-----------------|-------0---0-0---|
 |                                                          x4
 |                   B5            D         E5        (Last 2 bars)
E|-----------------|-----------------|-----------------|
B|-----------------|---------------3-|-----------------|
G|-----------------|-4-------------2-|-----------------|
D|-----------------|-4-------------0-|-------2---2-2---|
A|-----------------|-2-------------0-|-------2---2-2---|
E|-----------------|-----------------|-------0---0-0---|

   E5                D5    E5                D5
E|-----------------|-----------------|-----------------|
B|-----------------|-3---------------|-------3---3-3-3-|
G|-----------------|-2---------------|-------2---2-2-2-|
D|-2-2-2-2-2-2-2-2-|-0-----2---2-2-2-|-2-2-2-0---0-0-0-|
A|-2-2-2-2-2-2-2-2-|-------2---2-2-2-|-2-2-2-----------|
E|-0-0-0-0-0-0-0-0-|-------0---0-0-0-|-0-0-0-----------|
 |
 | E5                D5    E5                D5
E|-----------------|-----------------|-----------------|
B|-----------------|-3---------------|-------3---3---12|
G|-----------------|-2---------------|-------2---2---12|
D|-2-2-2-2-2-2-2-2-|-0-----2---2-2-2-|-2-2-2-0---0-----|
A|-2-2-2-2-2-2-2-2-|-------2---2-2-2-|-2-2-2-----------|
E|-0-0-0-0-0-0-0-0-|-------0---0-0-0-|-0-0-0-----------|

Chorus 3/Outro:

Malcolm:

     G5                            A
E|-----------------|-----------------|-----------------|-----------------|
B|-----------------|---3-----3-------|-----------------|-----------------|
G|---0-----0-------|---2-----2-----2-|---2-2---2---2-2-|---2-------2-----|
D|---0-----0-------|---0---0-0-----2-|---2-4---5---4-2-|---2-----0-2-----|
A|---x---x-x-------|-------0-------0-|---0-0---0---0-0-|---0-----0-0-----| x3
E|---3---3-3-------|-----------------|-----------------|-----------------|

     G5                D5              A   D   G   D     A5    E5
E|-----------------|-----------------|-----------------|-----------------|
B|-----------------|---3-----3-------|-----------------|-----------------|
G|---0-----0-------|---2-----2-----0h|-2-2-2---2---2---|-2---------------|
D|---0-----0-------|---0---0-0-----0h|-2-2-4---5---4---|-2-----2---------|
A|---x---x-x-------|-------0-------0-|-0-0-0---0---0---|-0-----2---------|
E|---3---3-3-------|-----------------|-----------------|-------0---------|

   G5                D5                A5          E5    B5
E|-3---------------|-----------------|-----------------|-----------------|
B|-3---------------|-3---------------|-----------------|-----------------|
G|-0---------------|-2---------------|-2---------------|-4---------------|
D|-0---------------|-0---------------|-2-----------2---|-4---------------|
A|-x---------------|-----------------|-0-----------2---|-2---------------|
E|-3---------------|-----------------|-------------0---|-----------------|

Angus:

E|-------------------------|----------------------------|
B|----13----12-13----------|----------------------------|
G|----12----12-12-------11-|----12-----11--12-----------|
D|-----------------------0-|-----0-----0----0-----------|
A|-------------------------|--------------------------0-|
E|-------------------------|----------------------------|

E|-------------------------|----------------------------|
B|-------------------------|-------------------------12-|
G|-------------------------|-------------------------12-|
D|-11-12-11-12-11-------11-|----12-11-12-11-------------|
A|--0--0--0--0--0-12-----0-|-----0--0--0--0-12----------|
E|-------------------------|----------------------------|

E|-------------------------|----------------------------|
B|----13----12-13----------|----------------------------|
G|----12----12-12-------11-|----12-----11--12-----------|
D|-----------------------0-|-----0-----0----0-----------|
A|-------------------------|--------------------------0-|
E|-------------------------|----------------------------|

E|-------------------------|----------------------------|
B|-------------------------|-------------------------12-|
G|-------------------------|-------------------------12-|
D|-11-12-11-12-11-------11-|----12-11-12-11-------------|
A|--0--0--0--0--0-12-----0-|-----0--0--0--0-12----------|
E|-------------------------|----------------------------|

E|-------------------------|----------------------------|
B|----13----12-13----------|----------------------------|
G|----12----12-12-------11-|----12-----11--12-----------|
D|-----------------------0-|-----0-----0----0-----------|
A|-------------------------|--------------------------0-|
E|-------------------------|----------------------------|

E|-------------------------|----------------------------|
B|-------------------------|-------------------------12-|
G|-------------------------|-------------------------12-|
D|-11-12-11-12-11-------11-|----12-11-12-11-------------|
A|--0--0--0--0--0-12-----0-|-----0--0--0--0-12----------|
E|-------------------------|----------------------------|

E|-------------------------|----------------------------|
B|----13----12-13----------|----------------------------|
G|----12----12-12-------11-|----12-----11--12-----------|
D|-----------------------0-|-----0-----0----0-----------|
A|-------------------------|--------------------------0-|
E|-------------------------|----------------------------|

E|-------------------------|----------------------------|
B|----13----12-13----------|----------------------------|
G|----12----12-12-------11-|----12-----11--12-----------|
D|-----------------------0-|-----0-----0----0-----------|
A|-------------------------|--------------------------0-|
E|-------------------------|----------------------------|

E|-------------------------|----------------------------|
B|-------------------------|----------------------------|
G|-------------------------|-2--------------------------|
D|-11-12-11-12-11----------|-2--------2-----------------|
A|--0--0--0--0--0-12-----0-|-0--------2-----------------|
E|-------------------------|----------0-----------------|

E|-------------------|
B|-12-13-12-10-------|
G|-12-12-12-11-12-11-|
D|--------------0--0-|
A|-------------------|
E|-------------------|

E|-----------------|-----------------|
B|-----------------|-----------------|
G|-2---------------|-4---------------|
D|-2------------2--|-4---------------|
A|-0------------2--|-2---------------|
E|--------------0--|-----------------|

E|-----------------|
B|-----------------|
G|---------------4-|
D|---------------4-|
A|---------------2-|
E|-----------------|


[0400] Anything Goes
Standard Tuning


Intro:


Angus and Malcolm (Rhythm):

         P.M.------------------------|       P.M.------------------------|
   D5                                  D5
E|-----------------|-----------------|-----------------|-----------------|
B|-----------------|-----------------|-----------------|-----------------|
G|-7-7-7-----------|-----------------|-7-7-7-----------|-----------------|
D|-7-7-7-7-7-7-7-7-|-7-7-7-7-7-7-7-7-|-7-7-7-7-7-7-7-7-|-7-7-7-7-7-7-7-7-|
A|-5-5-5-5-5-5-5-5-|-5-5-5-5-5-5-5-5-|-5-5-5-5-5-5-5-5-|-5-5-5-5-5-5-5-5-|
E|-----------------|-----------------|-----------------|-----------------|
 |
 |                   P.M.------------|                   P.M.------------|
 | D5    A   G   D5                    D5    A   G   D5
E|-----------------|-----------------|-----------------|-----------------|
B|-----------------|-----------------|-----------------|-----------------|
G|-7-777-6---4---2-|-----------------|-7-777-6---4---2-|-----------------|
D|-7-777-7---5---0-|-0-0-0-0-0-0-0-0-|-7-777-7---5---0-|-0-0-0-0-0-0-0-0-|
A|-----------------|-----------------|-----------------|-----------------|
E|-----------------|-----------------|-----------------|-----------------|

         P.M.------------------------|       P.M.------------------------|
   D5                                  D5
E|-----------------|-----------------|-----------------|-----------------|
B|-----------------|-----------------|-----------------|-----------------|
G|-7-7-7-----------|-----------------|-7-7-7-----------|-----------------|
D|-7-7-7-7-7-7-7-7-|-7-7-7-7-7-7-7-7-|-7-7-7-7-7-7-7-7-|-7-7-7-7-7-7-7-7-|
A|-5-5-5-5-5-5-5-5-|-5-5-5-5-5-5-5-5-|-5-5-5-5-5-5-5-5-|-5-5-5-5-5-5-5-5-|
E|-----------------|-----------------|-----------------|-----------------|
 |
 |                   P.M.------------|                   P.M.------------|
 | D5    A   G   D5                    D5    A   G   D5
E|-----------------|-----------------|-----------------|-----------------|
B|-----------------|-----------------|-----------------|-----------------|
G|-7-777-6---4---2-|-----------------|-7-777-6---4---2-|-----------------|
D|-7-777-7---5---0-|-0-0-0-0-0-0-0-0-|-7-777-7---5---0-|-0-0-0-0-0-0-0-0-|
A|-----------------|-----------------|-----------------|-----------------|
E|-----------------|-----------------|-----------------|-----------------|


Angus (Multiple overdubs):

   F.P.----------------------------------------------|
E|-------------------------|--------------------------|
B|-15-15-15-15-15-15-15-15-|-15----17----15----17-----|
G|-14-14-14-14-14-14-14-14-|-14-14-14-14-14-14-14-14--| Guitar 3
D|-------------------------|--------------------------| Left Channel
A|-------------------------|--------------------------|
E|-------------------------|--------------------------|

   F.P.---------------------------------------------|
E|-------------------------|-------------------------|
B|-15-15-15-15-15-15-15-15-|-15----17----15----17----|
G|-14-14-14-14-14-14-14-14-|-14-14-14-14-14-14-14-14-|
D|-------------------------|-------------------------|
A|-------------------------|-------------------------|
E|-------------------------|-------------------------|

   F.P.---------------------------------------------|
E|-------------------------|-------------------------|
B|-15-15-15-15-15-15-15-15-|-15-15-15-15-15-15-15-15-|
G|-14-14-14-14-14-14-14-14-|-14-14-14-14-14-14-14-14-|
D|-------------------------|-------------------------|
A|-------------------------|-------------------------|
E|-------------------------|-------------------------|
 |
 |    (15)     (15)  (15)
E|-------------------------|----10-------------------|
B|-13b~~~---13b~~~13b---13-|-13b15~~~~---------------|
G|-------------------------|-------------------------| Guitar 4
D|-------------------------|-------------------------| Right Channel
A|-------------------------|-------------------------|
E|-------------------------|-------------------------|
 |
 |                           F.P.-------------------|
E|-------------------------|-15----14----10----12----|
B|-------------------------|-15-15-15-15-15-15-15-15-|
G|-------------------------|-------------------------| Guitar 5
D|-------------------------|-------------------------| Left Channel
A|-------------------------|-------------------------|
E|-------------------------|-------------------------|
 |
 |
E|-------------------------|----15----14----10-------|
B|-------------------------|-15-15-15-15-15-15-15-15-|
G|-------------------------|-------------------------|
D|-------------------------|-------------------------| Guitar 6
A|-------------------------|-------------------------| Left Channel
E|-------------------------|-------------------------| Response to Guitar 5

   F.P.---------------------------------------------|
E|-------------------------|-------------------------|
B|-15-15-15-15-15-15-15-15-|-15----17----15----17----|
G|-14-14-14-14-14-14-14-14-|-14-14-14-14-14-14-14-14-|
D|-------------------------|-------------------------|
A|-------------------------|-------------------------|
E|-------------------------|-------------------------|
 |
 |    (15)     (15)  (15)
E|-------------------------|----10-------------------|
B|-13b~~~---13b~~~13b---13-|-13b15~~~~---------------|
G|-------------------------|-------------------------|
D|-------------------------|-------------------------|
A|-------------------------|-------------------------|
E|-------------------------|-------------------------|

Verse 1:

         P.M.------------------------|       P.M.------------------------|
   D5                                  D5
E|-----------------|-----------------|-----------------|-----------------|
B|-----------------|-----------------|-----------------|-----------------|
G|-7-7-7-----------|-----------------|-7-7-7-----------|-----------------|
D|-7-7-7-7-7-7-7-7-|-7-7-7-7-7-7-7-7-|-7-7-7-7-7-7-7-7-|-7-7-7-7-7-7-7-7-|
A|-5-5-5-5-5-5-5-5-|-5-5-5-5-5-5-5-5-|-5-5-5-5-5-5-5-5-|-5-5-5-5-5-5-5-5-|
E|-----------------|-----------------|-----------------|-----------------|
 |
 |                   P.M.------------|                   P.M.------------|
 | D5    A   G   A5                    D5    A   G   A5
E|-----------------|-----------------|-----------------|-----------------|
B|-----------------|-----------------|-----------------|-----------------|
G|-7-7-7-6---4---2-|-----2---2---2---|-7-7-7-6---4---2-|-----2---2---2---|
D|-7-7-7-7---5---0-|-0-0-0-0-0-0-0-0-|-7-7-7-7---5---0-|-0-0-0-0-0-0-0-0-|
A|-5-5-5-----------|-----------------|-5-5-5-----------|-----------------|
E|-----------------|-----------------|-----------------|-----------------|

         P.M.------------------------|       P.M.------------------------|
   D5                                  D5
E|-----------------|-----------------|-----------------|-----------------|
B|-----------------|-----------------|-----------------|-----------------|
G|-7-7-7-----------|-----------------|-7-7-7-----------|-----------------|
D|-7-7-7-7-7-7-7-7-|-7-7-7-7-7-7-7-7-|-7-7-7-7-7-7-7-7-|-7-7-7-7-7-7-7-7-|
A|-5-5-5-5-5-5-5-5-|-5-5-5-5-5-5-5-5-|-5-5-5-5-5-5-5-5-|-5-5-5-5-5-5-5-5-|
E|-----------------|-----------------|-----------------|-----------------|
 |
 |                   P.M.------------|
 | D5    A   G   D5                    D5    A   G   D5
E|-----------------|-----------------|-----------------|-----------------|
B|-----------------|-----------------|-----------------|-----------------|
G|-7-7-7-6---4---2-|-----2---2---2---|-7-7-7-6---4---2-|-----2---2-2-2-2-|
D|-7-7-7-7---5---0-|-0-0-0-0-0-0-0-0-|-7-7-7-7---5---0-|-0-0-0-0-0-0-0-0-|
A|-5-5-5-----------|-----------------|-5-5-5-----------|-----------------|
E|-----------------|-----------------|-----------------|-----------------|

Pre Chorus 1:

   G5
E|-3---------------|-----------------|-3---------------|-3---------------|
B|-3---------------|-----------------|-3---------------|-3---------------|
G|-0---------------|-----------------|-0---------------|-0---------------|
D|-0---------------|-----------------|-0---------------|-0---------------|
A|-x---------------|-----------------|-x---------------|-x---------------|
E|-3---------------|-----------------|-3---------------|-3---------------|
 |
 | G5
E|-----------------|-----------------|-----------------|-----------------|
B|-----------------|-----------------|-----------------|-----------------|
G|-0---------------|-----------------|-0---------------|-0---------------|
D|-0---------------|-----------------|-0---------------|-0---------------|
A|-x---------------|-----------------|-x---------------|-x---------------|
E|-3---------------|-----------------|-3---------------|-3---------------|

Chorus 1:

Angus and Malcolm (Rhythm):

                P.M.-----------------|              P.M.-----------------|
   D5                                  D5
E|-----------------|-----------------|-----------------|-----------------|
B|-----------------|-----------------|-----------------|-----------------|
G|-7-7-7-6---4-----|-----------------|-7-7-7-6---4-----|-----------------|
D|-7-7-7-7---5-7-7-|-7-7-7-7-7-7-7-7-|-7-7-7-7---5-7-7-|-7-7-7-7-7-7-7-7-|
A|-------------5-5-|-5-5-5-5-5-5-5-5-|-------------5-5-|-5-5-5-5-5-5-5-5-|
E|-----------------|-----------------|-----------------|-----------------|
 |
 |                   P.M.------------|
 | D5    A   G   D5                    D5    A   G   D5
E|-----------------|-----------------|-----------------|-----------------|
B|-----------------|-----------------|-----------------|-----------------|
G|-7-7-7-6---4---2-|-----2---2---2---|-7-7-7-6---4---2-|-----2---2-2-2-2-|
D|-7-7-7-7---5---0-|-0-0-0-0-0-0-0-0-|-7-7-7-7---5---0-|-0-0-0-0-0-0-0-0-|
A|-5-5-5-----------|-----------------|-5-5-5-----------|-----------------|
E|-----------------|-----------------|-----------------|-----------------|

                P.M.-----------------|       G5  D5  G   D
   D5                                  D5
E|-----------------|-----------------|-------3---------|-----------------|
B|-----------------|-----------------|-3-3-3-3---3---3-|-3---------------|
G|-7-7-7-6---4-----|-----------------|-2-2-2-0---2---0-|-2---------------|
D|-7-7-7-7---5-7-7-|-7-7-7-7-7-7-7-7-|-0-0-0-0---0---0-|-0---------------|
A|-------------5-5-|-5-5-5-5-5-5-5-5-|-------x---------|-----------------|
E|-----------------|-----------------|-------3---------|-----------------|
 |
 |                   P.M.------------|
 | D5    A   G   D5                    D5    A   G       D5
E|-----------------|-----------------|-----------------|-----------------|
B|-----------------|-----------------|---------------3-|-3---------------|
G|-7-7-7-6---4---2-|-----2---2---2---|-7-7-7-6---4---2-|-2---------------|
D|-7-7-7-7---5---0-|-0-0-0-0-0-0-0-0-|-7-7-7-7---5---0-|-0---------------|
A|-5-5-5-----------|-----------------|-5-5-5-----------|-----------------|
E|-----------------|-----------------|-----------------|-----------------|

Angus (Overdub):

      (15)     (15)  (15)
E|-------------------------|----10-------------------|
B|-13b~~~---13b~~~13b---13-|-13b15~~~~---------------|
G|-------------------------|-------------------------| x3
D|-------------------------|-------------------------|
A|-------------------------|-------------------------|
E|-------------------------|-------------------------|

Verse 2:


         P.M.------------------------|       P.M.------------------------|
   D5                                  D5
E|-----------------|-----------------|-----------------|-----------------|
B|-----------------|-----------------|-----------------|-----------------|
G|-7-7-7-----------|-----------------|-7-7-7-----------|-----------------|
D|-7-7-7-7-7-7-7-7-|-7-7-7-7-7-7-7-7-|-7-7-7-7-7-7-7-7-|-7-7-7-7-7-7-7-7-|
A|-5-5-5-5-5-5-5-5-|-5-5-5-5-5-5-5-5-|-5-5-5-5-5-5-5-5-|-5-5-5-5-5-5-5-5-|
E|-----------------|-----------------|-----------------|-----------------|
 |
 |                   P.M.------------|                   P.M.------------|
 | D5    A   G   A5                    D5    A   G   A5
E|-----------------|-----------------|-----------------|-----------------|
B|-----------------|-----------------|-----------------|-----------------|
G|-7-7-7-6---4---2-|-----2---2---2---|-7-7-7-6---4---2-|-----2---2---2---|
D|-7-7-7-7---5---0-|-0-0-0-0-0-0-0-0-|-7-7-7-7---5---0-|-0-0-0-0-0-0-0-0-|
A|-5-5-5-----------|-----------------|-5-5-5-----------|-----------------|
E|-----------------|-----------------|-----------------|-----------------|

         P.M.------------------------|       P.M.------------------------|
   D5                                  D5
E|-----------------|-----------------|-----------------|-----------------|
B|-----------------|-----------------|-----------------|-----------------|
G|-7-7-7-----------|-----------------|-7-7-7-----------|-----------------|
D|-7-7-7-7-7-7-7-7-|-7-7-7-7-7-7-7-7-|-7-7-7-7-7-7-7-7-|-7-7-7-7-7-7-7-7-|
A|-5-5-5-5-5-5-5-5-|-5-5-5-5-5-5-5-5-|-5-5-5-5-5-5-5-5-|-5-5-5-5-5-5-5-5-|
E|-----------------|-----------------|-----------------|-----------------|
 |
 |                   P.M.------------|
 | D5    A   G   D5                    D5    A   G   D5
E|-----------------|-----------------|-----------------|-----------------|
B|-----------------|-----------------|-----------------|-----------------|
G|-7-7-7-6---4---2-|-----2---2---2---|-7-7-7-6---4---2-|-----2---2-2-2-2-|
D|-7-7-7-7---5---0-|-0-0-0-0-0-0-0-0-|-7-7-7-7---5---0-|-0-0-0-0-0-0-0-0-|
A|-5-5-5-----------|-----------------|-5-5-5-----------|-----------------|
E|-----------------|-----------------|-----------------|-----------------|


Pre Chorus 2:

   G5
E|-3---------------|-----------------|-3---------------|-3---------------|
B|-3---------------|-----------------|-3---------------|-3---------------|
G|-0---------------|-----------------|-0---------------|-0---------------|
D|-0---------------|-----------------|-0---------------|-0---------------|
A|-x---------------|-----------------|-x---------------|-x---------------|
E|-3---------------|-----------------|-3---------------|-3---------------|
 |
 | G5
E|-----------------|-----------------|-----------------|-----------------|
B|-----------------|-----------------|-----------------|-----------------|
G|-0---------------|-----------------|-0---------------|-0---------------|
D|-0---------------|-----------------|-0---------------|-0---------------|
A|-x---------------|-----------------|-x---------------|-x---------------|
E|-3---------------|-----------------|-3---------------|-3---------------|


Chorus 2:

Angus and Malcolm (Rhythm):

                P.M.-----------------|              P.M.-----------------|
   D5                                  D5
E|-----------------|-----------------|-----------------|-----------------|
B|-----------------|-----------------|-----------------|-----------------|
G|-7-7-7-6---4-----|-----------------|-7-7-7-6---4-----|-----------------|
D|-7-7-7-7---5-7-7-|-7-7-7-7-7-7-7-7-|-7-7-7-7---5-7-7-|-7-7-7-7-7-7-7-7-|
A|-------------5-5-|-5-5-5-5-5-5-5-5-|-------------5-5-|-5-5-5-5-5-5-5-5-|
E|-----------------|-----------------|-----------------|-----------------|
 |
 |                   P.M.------------|
 | D5    A   G   A5                    D5    A   G   A5
E|-----------------|-----------------|-----------------|-----------------|
B|-----------------|-----------------|-----------------|-----------------|
G|-7-7-7-6---4---2-|-----2---2---2---|-7-7-7-6---4---2-|-----2---2-2-2-2-|
D|-7-7-7-7---5---2-|-0-0-0-0-0-0-0-0-|-7-7-7-7---5---2-|-0-0-0-0-0-2-2-2-|
A|-5-5-5-----------|-----------------|-5-5-5-----------|-----------------|
E|-----------------|-----------------|-----------------|-----------------|


                P.M.-----------------|              P.M.-----------------|
   D5                                  D5
E|-----------------|-----------------|-----------------|-----------------|
B|-----------------|-----------------|-----------------|-----------------|
G|-7-7-7-6---4-----|-----------------|-7-7-7-6---4-----|-----------------|
D|-7-7-7-7---5-7-7-|-7-7-7-7-7-7-7-7-|-7-7-7-7---5-7-7-|-7-7-7-7-7-7-7-7-|
A|-------------5-5-|-5-5-5-5-5-5-5-5-|-------------5-5-|-5-5-5-5-5-5-5-5-|
E|-----------------|-----------------|-----------------|-----------------|
 |
 |                   P.M.------------|
 | D5    A   G   A5                    D5    A   G   A5
E|-----------------|-----------------|-----------------|-----------------|
B|-----------------|-----------------|-----------------|-----------------|
G|-7-7-7-6---4---2-|-----2---2---2---|-7-7-7-6---4---2-|-----2---2-2-2-2-|
D|-7-7-7-7---5---2-|-0-0-0-0-0-0-0-0-|-7-7-7-7---5---2-|-0-0-0-0-0-2-2-2-|
A|-5-5-5-----------|-----------------|-5-5-5-----------|-----------------|
E|-----------------|-----------------|-----------------|-----------------|

Angus (Overdub):

Right Channel

      (15)     (15)  (15)
E|-------------------------|----10-------------------|
B|-13b~~~---13b~~~13b---13-|-13b15~~~~---------------|
G|-------------------------|-------------------------|
D|-------------------------|-------------------------| Guitar 4
A|-------------------------|-------------------------| Right Channel
E|-------------------------|-------------------------|

Bridge:

Angus and Malcolm (Rhythm):

   A5                                  B5
E|-----------------|-----------------|-----------------|-----------------|
B|-----------------|-----------------|-----------------|-----------------|
G|-2---------------|-----------------|-4---------------|-----------------|
D|-2---------------|-----------------|-4---------------|-----------------|
A|-0---------------|-----------------|-2---------------|-----------------|
E|-----------------|-----------------|-----------------|-----------------|
 |
 | A5                                  B5
E|-----------------|-----------------|-----------------|-----------------|
B|-----------------|-----------------|-----------------|-----------------|
G|-2---2---2---2---|-2---2---2---2---|-4---4---4---4---|-4---4---4---4---|
D|-2---2---2---2---|-2---2---2---2---|-4---4---4---4---|-4---4---4---4---|
A|-0---0---0---0---|-0---0---0---0---|-2---2---2---2---|-2---2---2---2---|
E|-----------------|-----------------|-----------------|-----------------|

   A5                                  A5
E|-----------------|-----------------|-----------------|-----------------|
B|-----------------|-----------------|-----------------|-----------------|
G|-2---------------|-----------------|-2---------------|-----------------|
D|-2---------------|-----------------|-2---------------|-----------------|
A|-0---------------|-----------------|-0---------------|-----------------|
E|-----------------|-----------------|-----------------|-----------------|
 |
 | A5                                  A5
E|-----------------|-----------------|-----------------|-----------------|
B|-----------------|-----------------|-----------------|-----------------|
G|-2---2---2---2---|-2---2---2---2---|-2-------2-------|-2---2---2-2-2-2-|
D|-2---2---2---2---|-2---2---2---2---|-2-------2-------|-2---2---2-2-2-2-|
A|-0---0---0---0---|-0---0---0---0---|-0-------0-------|-0---0---0-0-0-0-|
E|-----------------|-----------------|-----------------|-----------------|

Angus (Overdub):

   F.P.---------------------------------------------|
E|-12-12-10-12-12-12-10-12-|-12-12-12-12-12-12-10-12-|
B|-10-10-10-10-10-10-10-10-|-10-10-10-10-10-10-10-10-|
G|-------------------------|-------------------------|
D|-------------------------|-------------------------| Guitar 3
A|-------------------------|-------------------------| Left Channel
E|-------------------------|-------------------------|

   F.P.---------------------------------------------|
E|-14-14-12-14-14-14-12-14-|-14-14-14-14-14-14-12-14-|
B|-10-10-10-10-10-10-10-10-|-10-10-10-10-10-10-10-10-|
G|-------------------------|-------------------------|
D|-------------------------|-------------------------|
A|-------------------------|-------------------------|
E|-------------------------|-------------------------|

   F.P.---------------------------------------------|
E|-12-12-10-12-12-12-10-12-|-12-12-10-12-12-12-10-12-|
B|-10-10-10-10-10-10-10-10-|-10-10-10-10-10-10-10-10-|
G|-------------------------|-------------------------|
D|-------------------------|-------------------------|
A|-------------------------|-------------------------|
E|-------------------------|-------------------------|

   F.P.---------------------------------------------|
E|-12-12-12-12-12-12-12-12-|-15-15-15-15-15-15-15-15-|
B|-10-10-10-10-10-10-10-10-|-10-10-10-10-10-10-10-10-|
G|-------------------------|-------------------------|
D|-------------------------|-------------------------|
A|-------------------------|-------------------------|
E|-------------------------|-------------------------|




Guitar Solo:

Angus (Solo):

E|---------------------------------|-------------------------------|
B|-----15-15-15\--------15-15-15\--|---------------13b15~~~~15~~~~-|
G|-----14-14-14\--------14-14-14\--|-/14-14---\--------------------|
D|-/16--------------/16------------|-/16-16---\--------------------|
A|---------------------------------|-------------------------------|
E|---------------------------------|-------------------------------|

                                     T.P.----------------------------|
E|---------------------------------|---------------------------------|
B|-----15-15-15\--------15-15-15\--|-13------------------------------|
G|-----14-14-14\--------14-14-14\--|-14------------------------------|
D|-/16--------------/16------------|---------------------------------|
A|---------------------------------|---------------------------------|
E|---------------------------------|---------------------------------|

      T.P.-------------------------------------|
E|-10-10----12-13---12-13-12-13----12-13-------|
B|-10-10----10-10---10-10-10-10----10-10-------|
G|---------------------------------------------|
D|---------------------------------------------|
A|---------------------------------------------|
E|---------------------------------------------|

   T.P.---------------------------|
E|--------------------------------|
B|/15---12--/15---12--/17---\-----|
G|/14---14--/14---14--/16---\-----|
D|--------------------------------|
A|--------------------------------|
E|--------------------------------|


E|----------10-------10----------|----------10-10-10-10-10--|
B|-------10-10-13b15-10-12-10----|-------10-10-10-10-10-10--|
G|-12b14----------------12-10b---|-12b14--------------------|
D|----------------------------12-|--------------------------|
A|-------------------------------|--------------------------|
E|-------------------------------|--------------------------|


E|----------------------------------------------10-10-|
B|----------10-10-------10-------10-------------------|
G|-12b14----------12b14----12b14----12b14-12b14-------|
D|----------------------------------------------------|
A|----------------------------------------------------|
E|----------------------------------------------------|


E|-------10----------|
B|-13b15-10-12-10----|
G|----------12-10----|
D|----------------12-|
A|-------------------|
E|-------------------|


Angus and Malcolm (Rhythm):


         P.M.------------------------|       P.M.------------------------|
   D5                                  D5
E|-----------------|-----------------|-----------------|-----------------|
B|-----------------|-----------------|-----------------|-----------------|
G|-7-7-7-----------|-----------------|-7-7-7-----------|-----------------|
D|-7-7-7-7-7-7-7-7-|-7-7-7-7-7-7-7-7-|-7-7-7-7-7-7-7-7-|-7-7-7-7-7-7-7-7-|
A|-5-5-5-5-5-5-5-5-|-5-5-5-5-5-5-5-5-|-5-5-5-5-5-5-5-5-|-5-5-5-5-5-5-5-5-|
E|-----------------|-----------------|-----------------|-----------------|
 |
 |                   P.M.------------|                   P.M.------------|
 | D5    A   G   A5                    D5    A   G   A5
E|-----------------|-----------------|-----------------|-----------------|
B|-----------------|-----------------|-----------------|-----------------|
G|-7-7-7-6---4---2-|-----2---2---2---|-7-7-7-6---4---2-|-----2---2---2---|
D|-7-7-7-7---5---0-|-0-0-0-0-0-0-0-0-|-7-7-7-7---5---0-|-0-0-0-0-0-0-0-0-|
A|-5-5-5-----------|-----------------|-5-5-5-----------|-----------------|
E|-----------------|-----------------|-----------------|-----------------|

   G5
E|-3---------------|-----------------|
B|-3---------------|-----------------|
G|-0-----0-----0---|---0-----0---0---|
D|-0---0-0---0-0---|---0---0-0---0---|
A|-x---x-x---x-x---|---x---x-x---x---|
E|-3---3-3---3-3---|---3---3-3---3---|
 |                                     x2
 | G5
E|-----------------|-----------------|
B|-----------------|-----------------|
G|-0-----0-----0---|---0-----0---0---|
D|-0-----0-----0---|---0-----0---0---|
A|-x-----x-----x---|---x-----x---x---|
E|-3-----3-----3---|---3-----3---3---|

         P.M.------------------------|       P.M.------------------------|
   D5                                  D5
E|-----------------|-----------------|-----------------|-----------------|
B|-----------------|-----------------|-----------------|-----------------|
G|-7-7-7-----------|-----------------|-7-7-7-----------|-----------------|
D|-7-7-7-7-7-7-7-7-|-7-7-7-7-7-7-7-7-|-7-7-7-7-7-7-7-7-|-7-7-7-7-7-7-7-7-|
A|-5-5-5-5-5-5-5-5-|-5-5-5-5-5-5-5-5-|-5-5-5-5-5-5-5-5-|-5-5-5-5-5-5-5-5-|
E|-----------------|-----------------|-----------------|-----------------|
 |
 |                   P.M.------------|
 | D5    A   G   D5                    D5    A   G   D5
E|-----------------|-----------------|-----------------|-----------------|
B|-----------------|-----------------|-----------------|-----------------|
G|-7-7-7-6---4---2-|-----2---2---2---|-7-7-7-6---4---2-|-----2---2-2-2-2-|
D|-7-7-7-7---5---0-|-0-0-0-0-0-0-0-0-|-7-7-7-7---5---0-|-0-0-0-0-0-0-0-0-|
A|-5-5-5-----------|-----------------|-5-5-5-----------|-----------------|
E|-----------------|-----------------|-----------------|-----------------|

Bridge:

Angus and Malcolm (Rhythm):

   A5                                  B5
E|-----------------|-----------------|-----------------|-----------------|
B|-----------------|-----------------|-----------------|-----------------|
G|-2---------------|-----------------|-4---------------|-----------------|
D|-2---------------|-----------------|-4---------------|-----------------|
A|-0---------------|-----------------|-2---------------|-----------------|
E|-----------------|-----------------|-----------------|-----------------|
 |
 | A5                                  B5
E|-----------------|-----------------|-----------------|-----------------|
B|-----------------|-----------------|-----------------|-----------------|
G|-2---2---2---2---|-2---2---2---2---|-4---4---4---4---|-4---4---4---4---|
D|-2---2---2---2---|-2---2---2---2---|-4---4---4---4---|-4---4---4---4---|
A|-0---0---0---0---|-0---0---0---0---|-2---2---2---2---|-2---2---2---2---|
E|-----------------|-----------------|-----------------|-----------------|

   A5                                  A5
E|-----------------|-----------------|-----------------|-----------------|
B|-----------------|-----------------|-----------------|-----------------|
G|-2---------------|-----------------|-2---------------|-----------------|
D|-2---------------|-----------------|-2---------------|-----------------|
A|-0---------------|-----------------|-0---------------|-----------------|
E|-----------------|-----------------|-----------------|-----------------|
 |
 | A5                                  A5
E|-----------------|-----------------|-----------------|-----------------|
B|-----------------|-----------------|-----------------|-----------------|
G|-2---2---2---2---|-2---2---2---2---|-2-------2-------|-2---2---2-2-2-2-|
D|-2---2---2---2---|-2---2---2---2---|-2-------2-------|-2---2---2-2-2-2-|
A|-0---0---0---0---|-0---0---0---0---|-0-------0-------|-0---0---0-0-0-0-|
E|-----------------|-----------------|-----------------|-----------------|

   D5
E|-----------------|-----------------|-----------------|-----------------|
B|-3---------------|-----------------|-----------------|-----------------|
G|-2---------------|-----------------|-----------------|-----------------|
D|-0---------------|-----------------|-----------------|-----------------|
A|-----------------|-----------------|-----------------|-----------------|
E|-----------------|-----------------|-----------------|-----------------|
 |
 | D5
E|-----------------|-----------------|-----------------|-----------------|
B|-3---------------|-----------------|-----------------|-----------------|
G|-2---------------|-----------------|-----------------|-----------------|
D|-0---------------|-----------------|-----------------|-----------------|
A|-----------------|-----------------|-----------------|-----------------|
E|-----------------|-----------------|-----------------|-----------------|


E|-----------------|-----------------|-----------------|-----------------|
B|-----------------|-----------------|-----------------|-----------------|
G|-----------------|-----------------|-----------------|-----------------|
D|-----------------|-----------------|-----------------|-----------------|
A|-----------------|-----------------|-----------------|-----------------|
E|-----------------|-----------------|-----------------|-----------------|
 |
 | D5    A   G   D5                    D5    A   G   D5
E|-----------------|-----------------|-----------------|-----------------|
B|-----------------|-----------------|-----------------|-----------------|
G|-7-7-7-6---4---2-|-2---------------|-7-7-7-6---4---2-|-2---------------|
D|-7-7-7-7---5---0-|-0---------------|-7-7-7-7---5---0-|-0---------------|
A|-5-5-5-----------|-----------------|-5-5-5-----------|-----------------|
E|-----------------|-----------------|-----------------|-----------------|


E|-----------------|-----------------|-----------------|-----------------|
B|-----------------|-----------------|-----------------|-----------------|
G|-----------------|-----------------|-----------------|-----------------|
D|-----------------|-----------------|-----------------|-----------------|
A|-----------------|-----------------|-----------------|-----------------|
E|-----------------|-----------------|-----------------|-----------------|
 |
 | D5    A   G   D5                    D5    A   G   D5
E|-----------------|-----------------|-----------------|-----------------|
B|-----------------|-----------------|-----------------|-----------------|
G|-7-7-7-6---4---2-|-2---------------|-7-7-7-6---4---2-|-2---------------|
D|-7-7-7-7---5---0-|-0---------------|-7-7-7-7---5---0-|-0---------------|
A|-5-5-5-----------|-----------------|-5-5-5-----------|-----------------|
E|-----------------|-----------------|-----------------|-----------------|

Bridge:

Angus (Overdubs):

   F.P.---------------------------------------------|
E|-12-12-10-12-12-12-10-12-|-12-12-12-12-12-12-10-12-|
B|-10-10-10-10-10-10-10-10-|-10-10-10-10-10-10-10-10-|
G|-------------------------|-------------------------|
D|-------------------------|-------------------------| Guitar 3
A|-------------------------|-------------------------| Left Channel
E|-------------------------|-------------------------|

   F.P.---------------------------------------------|
E|-14-14-12-14-14-14-12-14-|-14-14-12-14-14-14-12-14-|
B|-10-10-10-10-10-10-10-10-|-10-10-10-10-10-10-10-10-|
G|-------------------------|-------------------------|
D|-------------------------|-------------------------|
A|-------------------------|-------------------------|
E|-------------------------|-------------------------|

   F.P.---------------------------------------------|
E|-12-12-10-12-12-12-10-12-|-12-12-10-12-12-12-10-12-|
B|-10-10-10-10-10-10-10-10-|-10-10-10-10-10-10-10-10-|
G|-------------------------|-------------------------|
D|-------------------------|-------------------------|
A|-------------------------|-------------------------|
E|-------------------------|-------------------------|

   F.P.---------------------------------------------|
E|-12-12-12-12-12-12-12-12-|-15-15-15-15-15-15-15-15-|
B|-10-10-10-10-10-10-10-10-|-10-10-10-10-10-10-10-10-|
G|-------------------------|-------------------------|
D|-------------------------|-------------------------|
A|-------------------------|-------------------------|
E|-------------------------|-------------------------|


   F.P.---------------------------------------------|
E|-14-14-14-14-14-14-14-12-|-12-12-12-10-10-10-10-10-|
B|-10-10-10-10-10-10-10-10-|-10-10-10-10-10-10-10-10-|
G|-------------------------|-------------------------|
D|-------------------------|-------------------------|
A|-------------------------|-------------------------|
E|-------------------------|-------------------------|

   F.P.---------------------------------------------|
E|-12-12-10-10-10-10-10-10-|-10-10-12-12-10-10-12-12-|
B|-10-10-10-10-10-10-10-10-|-10-10-10-10-10-10-10-10-|
G|-------------------------|-------------------------|
D|-------------------------|-------------------------|
A|-------------------------|-------------------------|
E|-------------------------|-------------------------|

   F.P.---------------------------------------------|
E|-10-10-12-12-12-12-12-12-|-15-15-15-15-15-15-12-14-|
B|-10-10-10-10-10-10-10-10-|-10-10-10-10-10-10-10-10-|
G|-------------------------|-------------------------|
D|-------------------------|-------------------------|
A|-------------------------|-------------------------|
E|-------------------------|-------------------------|

   F.P.---------------------------------------------|
E|-10-10-10-10-10-10-10-10-|-10-10-12-12-10-10-12-12-|
B|-10-10-10-10-10-10-10-10-|-10-10-10-10-10-10-10-10-|
G|-------------------------|-------------------------|
D|-------------------------|-------------------------|
A|-------------------------|-------------------------|
E|-------------------------|-------------------------|

   F.P.---------------------------------------------|
E|-10-10-12-12-12-12-12-12-|-15-15-15-15-15-15-12-14-|
B|-10-10-10-10-10-10-10-10-|-10-10-10-10-10-10-10-10-|
G|-------------------------|-------------------------|
D|-------------------------|-------------------------|
A|-------------------------|-------------------------|
E|-------------------------|-------------------------|

   F.P.---------------------------------------------|
E|-10-10-10-10-10-10-10-10-|-10-10-12-12-10-10-12-12-|
B|-10-10-10-10-10-10-10-10-|-10-10-10-10-10-10-10-10-|
G|-------------------------|-------------------------|
D|-------------------------|-------------------------|
A|-------------------------|-------------------------|
E|-------------------------|-------------------------|
 |
 |    (15)     (15)  (15)
E|-------------------------|----10-------------------|
B|-13b~~~---13b~~~13b---13-|-13b15~~~~---------------|
G|-------------------------|-------------------------|
D|-------------------------|-------------------------| Guitar 4
A|-------------------------|-------------------------| Right Channel
E|-------------------------|-------------------------|

Outro/Chorus:

                P.M.-----------------|              P.M.-----------------|
   D5                                  D5
E|-----------------|-----------------|-----------------|-----------------|
B|-----------------|-----------------|-----------------|-----------------|
G|-7-7-7-6---4-----|-----------------|-7-7-7-6---4-----|-----------------|
D|-7-7-7-7---5-7-7-|-7-7-7-7-7-7-7-7-|-7-7-7-7---5-7-7-|-7-7-7-7-7-7-7-7-|
A|-------------5-5-|-5-5-5-5-5-5-5-5-|-------------5-5-|-5-5-5-5-5-5-5-5-|
E|-----------------|-----------------|-----------------|-----------------|
 |
 |                   P.M.------------|
 | D5    A   G   A5                    D5    A   G   A5
E|-----------------|-----------------|-----------------|-----------------|
B|-----------------|-----------------|-----------------|-----------------|
G|-7-7-7-6---4---2-|-----2---2---2---|-7-7-7-6---4---2-|-----2---2-2-2-2-|
D|-7-7-7-7---5---2-|-0-0-0-0-0-0-0-0-|-7-7-7-7---5---2-|-0-0-0-0-0-2-2-2-|
A|-5-5-5-----------|-----------------|-5-5-5-----------|-----------------|
E|-----------------|-----------------|-----------------|-----------------|


                P.M.-----------------|              P.M.-----------------|
   D5                                  D5
E|-----------------|-----------------|-----------------|-----------------|
B|-----------------|-----------------|-----------------|-----------------|
G|-7-7-7-6---4-----|-----------------|-7-7-7-6---4-----|-----------------|
D|-7-7-7-7---5-7-7-|-7-7-7-7-7-7-7-7-|-7-7-7-7---5-7-7-|-7-7-7-7-7-7-7-7-|
A|-------------5-5-|-5-5-5-5-5-5-5-5-|-------------5-5-|-5-5-5-5-5-5-5-5-|
E|-----------------|-----------------|-----------------|-----------------|
 |
 |                   P.M.------------|
 | D5    A   G   A5                    D5    A   G   A5
E|-----------------|-----------------|-----------------|-----------------|
B|-----------------|-----------------|-----------------|-----------------|
G|-7-7-7-6---4---2-|-----2---2---2---|-7-7-7-6---4---2-|-----2---2-2-2-2-|
D|-7-7-7-7---5---2-|-0-0-0-0-0-0-0-0-|-7-7-7-7---5---2-|-0-0-0-0-0-2-2-2-|
A|-5-5-5-----------|-----------------|-5-5-5-----------|-----------------|
E|-----------------|-----------------|-----------------|-----------------|


   D5    A   G       D5
E|-----------------|-----------------|-----------------|-----------------|
B|---------------3-|-3---------------|-----------------|-----------------|
G|-7-7-7-6---4---0-|-2---------------|-----------------|-----------------|
D|-7-7-7-7---5---0-|-0---------------|-----------------|-----------------|
A|-5-5-5-----------|-----------------|-----------------|-----------------|
E|-----------------|-----------------|-----------------|-----------------|
 |
 | D5    A   G       D5
E|-----------------|-----------------|-----------------|-----------------|
B|---------------3-|-3---------------|-----------------|-----------------|
G|-7-7-7-6---4---0-|-2---------------|-----------------|-----------------|
D|-7-7-7-7---5---0-|-0---------------|-----------------|-----------------|
A|-5-5-5-----------|-----------------|-----------------|-----------------|
E|-----------------|-----------------|-----------------|-----------------|

Angus (Overdubs):

   F.P.---------------------------------------------|
E|-12-12-12-12-10-10-10-10-|-10-10-12-12-10-10-12-10-|
B|-10-10-10-10-10-10-10-10-|-10-10-10-10-10-10-10-10-|
G|-------------------------|-------------------------|
D|-------------------------|-------------------------| Guitar 3
A|-------------------------|-------------------------| Right Channel
E|-------------------------|-------------------------|
 |
 |    (15)     (15)  (15)
E|-------------------------|----10-------------------|
B|-13b~~~---13b~~~13b---13-|-13b15~~~~---------------|
G|-------------------------|-------------------------|
D|-------------------------|-------------------------| Guitar 4
A|-------------------------|-------------------------| Right Channel
E|-------------------------|-------------------------|

   F.P.---------------------------------------------|
E|-14-14-14-14-14-14-14-14-|-17-17-17-15-15-12-14-14-|
B|-10-10-10-10-10-10-10-10-|-15-15-15-15-15-15-15-10-|
G|-------------------------|-------------------------|
D|-------------------------|-------------------------|
A|-------------------------|-------------------------|
E|-------------------------|-------------------------|
 |
 |    (15)     (15)  (15)
E|-------------------------|----10-------------------|
B|-13b~~~---13b~~~13b---13-|-13b15~~~~---------------|
G|-------------------------|-------------------------|
D|-------------------------|-------------------------|
A|-------------------------|-------------------------|
E|-------------------------|-------------------------|

   F.P.---------------------------------------------|
E|-10-10-10-10-10-10-10-10-|-10-10-12-12-10-10-12-10-|
B|-10-10-10-10-10-10-10-10-|-10-10-10-10-10-10-10-10-|
G|-------------------------|-------------------------|
D|-------------------------|-------------------------|
A|-------------------------|-------------------------|
E|-------------------------|-------------------------|
 |
 |    (15)     (15)  (15)
E|-------------------------|----10-------------------|
B|-13b~~~---13b~~~13b---13-|-13b15~~~~---------------|
G|-------------------------|-------------------------|
D|-------------------------|-------------------------|
A|-------------------------|-------------------------|
E|-------------------------|-------------------------|

   F.P.---------------------------------------------|
E|-14-14-14-14-14-14-14-14-|-14-14-12-12-10-10-12-12-|
B|-10-10-10-10-10-10-10-10-|-10-10-10-10-10-10-10-10-|
G|-------------------------|-------------------------|
D|-------------------------|-------------------------|
A|-------------------------|-------------------------|
E|-------------------------|-------------------------|
 |
 |    (15)     (15)  (15)
E|-------------------------|----10-------------------|
B|-13b~~~---13b~~~13b---13-|-13b15~~~~---------------|
G|-------------------------|-------------------------|
D|-------------------------|-------------------------|
A|-------------------------|-------------------------|
E|-------------------------|-------------------------|



[0500] War Machine
Standard Tuning


Intro: (After 3 bars of drums + bass)


               G     D       A5        D5      A5
E|-------------3---|-2---------------|-----------------|-----------------|
B|-------------3---|-3---------------|-3---------------|-----------------|
G|-------------0---|-2-------2-------|-2-------2-------|-----------------|
D|-------------0---|-0-------2-------|-0-------2-------|-----------------|
A|-----------------|---------0-------|---------0-------|-----------------|
E|-----------------|-----------------|-----------------|-----------------|
 |
 |             G     D       A5        D       A5
E|-------------3---|-2---------------|-----------------|-----------------|
B|-------------3---|-3---------------|-3---------------|-----------------|
G|-------------0---|-2-------2-------|-2-------2-------|-----------------|
D|-------------0---|-0-------2-------|-0-------2-------|-------2---------|
A|-----------------|---------0-------|---------0-------|-------0-2-------|
E|-----------------|-----------------|-----------------|-3-0-0---0-------|
 |
 | Overdub, Guitar 3, Center
E|-----------------|-----------------|-----------------|-3-0-0-5-0-------|
B|-----------------|-----------------|-----------------|-------5---------|
G|-----------------|-----------------|-----------------|-----------------|
D|-----------------|-----------------|-----------------|-----------------|
A|-----------------|-----------------|-----------------|-----------------|
E|-----------------|-----------------|-----------------|-----------------|


               G     D       A5        D5      A5
E|-------------3---|-2---------------|-----------------|-----------------|
B|-------------3---|-3---------------|-3---------------|-----------------|
G|-------------0---|-2-------2-------|-2-------2-------|-----------------|
D|-------------0---|-0-------2-------|-0-------2-------|-----------------|
A|-----------------|---------0-------|---------0-------|-----------------|
E|-----------------|-----------------|-----------------|-----------------|
 |
 |             G     D       A5        D       A5
E|-------------3---|-2---------------|-----------------|-----------------|
B|-------------3---|-3---------------|-3---------------|-----------------|
G|-------------0---|-2-------2-------|-2-------2-------|-----------------|
D|-------2-----0---|-0-------2-------|-0-------2-------|-------2---------|
A|-------0-2-------|---------0-------|---------0-------|-------0-2-------|
E|-3-0-0---0-------|-----------------|-----------------|-3-0-0---0-------|
 |
 |
E|-3-0-0-5-0-------|-----------------|-----------------|-3-0-0-5-0-------|
B|-------5---------|-----------------|-----------------|-------5---------|
G|-----------------|-----------------|-----------------|-----------------|
D|-----------------|-----------------|-----------------|-----------------|
A|-----------------|-----------------|-----------------|-----------------|
E|-----------------|-----------------|-----------------|-----------------|

               G     D       A5        D       A5
E|-------------3---|-2---------------|-----------------|-----------------|
B|-------------3---|-3---------------|-3---------------|-----------------|
G|-------------0---|-2-------2-------|-2-------2-------|-----------------|
D|-------------0---|-0-------2-------|-0-------2-------|-------2---------|
A|-----------------|---------0-------|-0-------0-------|-2-2-2-0-2-------|
E|-----------------|-----------------|-----------------|-3-0-0---0-------|
 |
 |             G     D       A5        D       A5
E|-------------3---|-2---------------|-----------------|-----------------|
B|-------------3---|-3---------------|-3---------------|-----------------|
G|-------------0---|-2-------2-------|-2-------2-------|-----------------|
D|-------2-----0---|-0-------2-------|-0-------2-------|-------2---------|
A|-------0-2-------|---------0-------|---------0-------|-------0-2-------|
E|-3-0-0---0-------|-----------------|-----------------|-3-0-0---0-------|
 |
 |
E|-3-0-0-5-0-------|-----------------|-----------------|-3-0-0-5-0-------|
B|-------5---------|-----------------|-----------------|-------5---------|
G|-----------------|-----------------|-----------------|-----------------|
D|-----------------|-----------------|-----------------|-----------------|
A|-----------------|-----------------|-----------------|-----------------|
E|-----------------|-----------------|-----------------|-----------------|

               G     D       A5        D       A5
E|-------------3---|-2---------------|-----------------|-----------------|
B|-------------3---|-3---------------|-3---------------|-----------------|
G|-------------0---|-2-------2-------|-2-------2-------|-----------------|
D|-------2-----0---|-0-------2-------|-0-------2-------|-------2---------|
A|-2-2-2-0-2-------|---------0-------|-0-------0-------|-2-2-2-0-2-------|
E|-3-0-0---0-------|-----------------|-----------------|-3-0-0---0-------|
 |
 |             G     D       A5        D       A5
E|-------------3---|-2---------------|-----------------|-----------------|
B|-------------3---|-3---------------|-3---------------|-----------------|
G|-------------0---|-2-------2-------|-2-------2-------|-----------------|
D|-------2-----0---|-0-------2-------|-0-------2-------|-------2---------|
A|-------0-2-------|---------0-------|---------0-------|-------0-2-------|
E|-3-0-0---0-------|-----------------|-----------------|-3-0-0---0-------|
 |
 |
E|-3-0-0-5-0-------|-3-0-0-5-0-0-0-0-|-3-0-0-5-0-0-0-0-|-3-0-0-5-0-0-0-0-|
B|-------5---------|-------5---------|-------5---------|-------5---------|
G|-----------------|-----------------|-----------------|-----------------|
D|-----------------|-----------------|-----------------|-----------------|
A|-----------------|-----------------|-----------------|-----------------|
E|-----------------|-----------------|-----------------|-----------------|

Repeat last bar 3 times, then

                     D5                A5
E|-----------------|-----------------|-----------------|-----------------|
B|-----------------|-3-3-3-3-3-3-----|-----------------|-----------------|
G|-----------------|-2-2-2-2-2-2-----|-2-2-2-2-2-2-2-2-|-----------------|
D|-------2---------|-0-0-0-0-0-0-----|-2-2-2-2-2-2-2-2-|-------2---------|
A|-2-2-2-0-2-------|-----------------|-0-0-0-0-0-0-0-0-|-2-2-2-0-2-------|
E|-3-0-0---0---3b--|-------------3b--|-----------------|-3-0-0---0-------|
 |
 |                   D5                A5
E|-----------------|-----------------|-----------------|-----------------|
B|-----------------|-3-3-3-3-3-3-----|-----------------|-----------------|
G|-----------------|-2-2-2-2-2-2-----|-2-2-2-2-2-2-2-2-|-----------------|
D|-------2---------|-0-0-0-0-0-0-----|-2-2-2-2-2-2-2-2-|-------2---------|
A|-------0-2-------|-----------------|-0-0-0-0-0-0-0-0-|-2-2-2-0-2-------|
E|-3-0-0---0---3b--|-------------3b--|-----------------|-3-0-0---0-------|
 |
 |
E|-3-0-0-5-0-0-0-0-|-----------------|-----------------|-3-0-0-5-0-0-0-0-|
B|-------5---------|-----------------|-----------------|-------5---------|
G|-----------------|-----------------|-----------------|-----------------|
D|-----------------|-----------------|-----------------|-----------------|
A|-----------------|-----------------|-----------------|-----------------|
E|-----------------|-----------------|-----------------|-----------------|


Repeat last bar 4 times


Verse 1:

   G     A E
E|-----------------|         |-----------------|
B|-----------------|         |-----------------|
G|-----------------|         |-----------------|
D|-------2---------|         |-------2---------|
A|-2-----0---------|         |-2-----0---------|
E|-3-0-0---------0-|         |-3-0-0---0-0-0-0-|
 |                           |
 | G E  A             < x6   |
E|-----------------|         |-----------------|
B|-----------------|         |-----------------|
G|-----------------|         |-----------------|
D|-------2---------|         |-------2-----5---|
A|-------0---------|         |---2-2-0-----5---|
E|-3-0-0---0-0-0-0-|         |-3-0-0---0-0-3-0-|

Pre Chorus 1:

   D5      A5        D5      A5        D5      A5        D5
E|-----------------|-----------------|-----------------|-----------------|
B|-3-3-3-3---------|-3-3-3-3---------|-3-3-3-3---------|-3-3-3-3-3-3-3-3-|
G|-2-2-2-2-2-2-2-2-|-2-2-2-2-2-2-2-2-|-2-2-2-2-2-2-2-2-|-2-2-2-2-2-2-2-2-|
D|-0-0-0-0-2-2-2-2-|-0-0-0-0-2-2-2-2-|-0-0-0-0-2-2-2-2-|-0-0-0-0-0-0-0-0-|
A|---------0-0-0-0-|---------0-0-0-0-|---------0-0-0-0-|-----------------|
E|-----------------|-----------------|-----------------|-----------------|
 |
 | D5      A5        D5      A5        D5      A5        D5
E|-----------------|-----------------|-----------------|-----------------|
B|-3-3-3-----------|-3-3-3-----------|-3-3-3-----------|-3-3-3-3-3-3-----|
G|-2-2-2---2-2-2-2-|-2-2-2---2-2-2-2-|-2-2-2---2-2-2-2-|-2-2-2-2-2-2-----|
D|-0-0-0---2-2-2-2-|-0-0-0---2-2-2-2-|-0-0-0---2-2-2-2-|-0-0-0-0-0-0-----|
A|---------0-0-0-0-|---------0-0-0-0-|---------0-0-0-0-|-----------------|
E|-------3---------|-------3---------|-------3---------|-------------3b--|

   A5
E|-----------------|
B|-----------------|
G|-2-2-2-2-2-2-2-2-|
D|-2-2-2-2-2-2-2-2-|
A|-0-0-0-0-0-0-0-0-|
E|-----------------|
 |
 | A5
E|-----------------|
B|-----------------|
G|-2-2-2-2-2-2-2-2-|
D|-2-2-2-2-2-2-2-2-|
A|-0-0-0-0-0-0-0-0-|
E|-----------------|

Chorus 1:

   G    A E
E|-----------------|
B|-----------------|
G|-----------------|
D|-------2---------|
A|-2-2-2-0-2-2-2-2-|
E|-3-0-0---0-0-0-0-|
 |
 | G    A E
E|-----------------|
B|-----------------|
G|-----------------|     x4
D|-------2-2-------|
A|-2-2-2-0-2-------|
E|-3-0-0---0-------|
 |
 |
E|-3-0-0-5-0-0-0-0-|
B|-------5---------|
G|-----------------|
D|-----------------|
A|-----------------|
E|-----------------|

Verse 2:

   G     A E
E|-----------------|         |-----------------|
B|-----------------|         |-----------------|
G|-----------------|         |-----------------|
D|-------2---------|         |-------2---------|
A|-2-----0---------|         |-2-----0---------|
E|-3-0-0---------0-|         |-3-0-0---0-0-0-0-|
 |                           |
 | G E  A             < x6   |
E|-----------------|         |-----------------|
B|-----------------|         |-----------------|
G|-----------------|         |-----------------|
D|-------2---------|         |-------2---------|
A|-------0---------|         |---2-2-0---------|
E|-3-0-0---0-0-0-0-|         |-3-0-0---0-0-3-0-|

Pre Chorus 2:

   D5      A5        D5      A5        D5      A5        D5
E|-----------------|-----------------|-----------------|-----------------|
B|-3-3-3-3---------|-3-3-3-3---------|-3-3-3-3---------|-3-3-3-3-3-3-3-3-|
G|-2-2-2-2-2-2-2-2-|-2-2-2-2-2-2-2-2-|-2-2-2-2-2-2-2-2-|-2-2-2-2-2-2-2-2-|
D|-0-0-0-0-2-2-2-2-|-0-0-0-0-2-2-2-2-|-0-0-0-0-2-2-2-2-|-0-0-0-0-0-0-0-0-|
A|---------0-0-0-0-|---------0-0-0-0-|---------0-0-0-0-|-----------------|
E|-----------------|-----------------|-----------------|-----------------|
 |
 | D5      A5        D5      A5        D5      A5        D5
E|-----------------|-----------------|-----------------|-----------------|
B|-3-3-3-----------|-3-3-3-----------|-3-3-3-----------|-3-3-3-3-3-3-----|
G|-2-2-2---2-2-2-2-|-2-2-2---2-2-2-2-|-2-2-2---2-2-2-2-|-2-2-2-2-2-2-----|
D|-0-0-0---2-2-2-2-|-0-0-0---2-2-2-2-|-0-0-0---2-2-2-2-|-0-0-0-0-0-0-----|
A|---------0-0-0-0-|---------0-0-0-0-|---------0-0-0-0-|-----------------|
E|-------3---------|-------3---------|-------3---------|-------------3b--|

   A5
E|-----------------|
B|-----------------|
G|-2-2-2-2-2-2-2-2-|
D|-2-2-2-2-2-2-2-2-|
A|-0-0-0-0-0-0-0-0-|
E|-----------------|
 |
 | A5
E|-----------------|
B|-----------------|
G|-2-2-2-2-2-2-2-2-|
D|-2-2-2-2-2-2-2-2-|
A|-0-0-0-0-0-0-0-0-|
E|-----------------|

Chorus 2:

   G    A E
E|-----------------|
B|-----------------|
G|-----------------|
D|-------2---------|
A|-2-2-2-0-2-2-2-2-|
E|-3-0-0---0-0-0-0-|
 |
 | G    A E
E|-----------------|
B|-----------------|
G|-----------------|     x4
D|-------2-2-------|
A|-2-2-2-0-2-------|
E|-3-0-0---0-------|
 |
 |
E|-3-0-0-5-0-0-0-0-|
B|-------5---------|
G|-----------------|
D|-----------------|
A|-----------------|
E|-----------------|

Bridge A:


Angus (Overdub):

                         Crescendo <<<<<<<<<<<<<<<<<<<<<<<<<<<<<<<<<<<<<<
E|-----------------|-----------------|-----------------|-----------------|
B|-----------------|-----------------|-----------------|-----------------|
G|-----------------|--------------13-|~~~~~~~~~~~~~~~~~|~~~~~~~~~~~~~~~~~|
D|-----------------|--------------14-|~~~~~~~~~~~~~~~~~|~~~~~~~~~~~~~~~~~|
A|-----------------|-----------------|-----------------|-----------------|
E|-----------------|-----------------|-----------------|-----------------|


Angus and Malcolm (Rhythm):

E|-----------------|-----------------|-----------------|
B|-----------------|-----------------|-----------------|
G|-----------------|-----------------|-----------------|
D|-----------------|-----------------|-----------------|
A|-----------------|-----------------|-----------------|
E|-----------------|-----------------|-----------------|
 |
 | P.M.--------------------------------------------------|
E|-----------------|-----------------|-------------------|
B|-----------------|-----------------|-------------------|
G|-----------------|-----------------|-------------------|
D|-----------------|-----------------|-------------------|
A|-----------------|-----------------|-------------------|
E|-0-0-0-0-0-0-0-0-|-0-0-0-0-0-0-0-0-|-0-0-0-0-0-0-0-0---|

Bridge B:

Angus (Overdub):


E|-----------|
B|-----------|
G|-3p2p0-----|
D|-----------|
A|-----------|
E|-----------|

        P.H.
E|-----------|
B|-----------|
G|-7-7-9-9~~~|
D|-----------|
A|-----------|
E|-----------|

                                   P.H.
E|----------------------------------------------|
B|----------------------10b12r10--8-------------|
G|-7-7-7-7-7-7-7-7-9~~~~------------9~~~~~~~~~~~|
D|----------------------------------------------|
A|----------------------------------------------|
E|----------------------------------------------|

Angus and Malcolm (Rhythm):

               G     D       A5        D5      A5
E|-------------3---|-2---------------|-----------------|-----------------|
B|-------------3---|-3---------------|-3---------------|-----------------|
G|-------------0---|-2-------2-------|-2-------2-------|-----------------|
D|-------------0---|-0-------2-------|-0-------2-------|-----------------|
A|-----------------|---------0-------|---------0-------|-----------------|
E|-----------------|-----------------|-----------------|-----------------|
 |
 | P.M.------| G     D       A5        D       A5
E|-------------3---|-2---------------|-----------------|-------------------|
B|-------------3---|-3---------------|-3---------------|-------------------|
G|-------------0---|-2-------2-------|-2-------2-------|-------------------|
D|-------------0---|-0-------2-------|-0-------2-------|-------2-----------|
A|-----------------|---------0-------|---------0-------|-------0-2---------|
E|-0-0-0-0-0-0-----|-----------------|-----------------|-3-0-0---0---------|


               G     D       A5        D5      A5
E|-------------3---|-2---------------|-----------------|-----------------|
B|-------------3---|-3---------------|-3---------------|-----------------|
G|-------------0---|-2-------2-------|-2-------2-------|-----------------|
D|-------------0---|-0-------2-------|-0-------2-------|-----------------|
A|-----------------|---------0-------|---------0-------|-----------------|
E|-----------------|-----------------|-----------------|-----------------|
 |
 |             G     D       A5        D       A5
E|-------------3---|-2---------------|-----------------|-----------------|
B|-------------3---|-3---------------|-3---------------|-----------------|
G|-------------0---|-2-------2-------|-2-------2-------|-----------------|
D|-------2-----0---|-0-------2-------|-0-------2-------|-------2---------|
A|-------0-2-------|---------0-------|---------0-------|-------0-2-------|
E|-3-0-0---0-------|-----------------|-----------------|-3-0-0---0-------|


               G     D       A5        D5      A5
E|-------------3---|-2---------------|-----------------|-----------------|
B|-------------3---|-3---------------|-3---------------|-----------------|
G|-------------0---|-2-------2-------|-2-------2-------|-----------------|
D|-------------0---|-0-------2-------|-0-------2-------|-------2---------|
A|-----------------|---------0-------|---------0-------|-2-2-2-0-2-------|
E|-----------------|-----------------|-----------------|-3-0-0---0-------|
 |
 |             G     D       A5        D       A5
E|-------------3---|-2---------------|-----------------|-----------------|
B|-------------3---|-3---------------|-3---------------|-----------------|
G|-------------0---|-2-------2-------|-2-------2-------|-----------------|
D|-------2-----0---|-0-------2-------|-0-------2-------|-------2---------|
A|-------0-2-------|---------0-------|---------0-------|-------0-2-------|
E|-3-0-0---0-------|-----------------|-----------------|-3-0-0---0-------|


E|-----------------|
B|-----------------|
G|-----------------|
D|-------2---------|
A|-------0-2-------|
E|-3-0-0---0-------|
 |
 |
E|-----------------|
B|-----------------|
G|-----------------|
D|-------2---------|
A|-------0-2-------|
E|-3-0-0---0-0-3---|

Pre Chorus 3:

Angus (Overdub):


E|-----------------|-----------------|
B|-(9)~~~~~~~~~~~~~|~~~~~~~~~~~~~~~~~|
G|-(9)~~~~~~~~~~~~~|~~~~~~~~~~~~~~~~~|
D|-----------------|-----------------|
A|-----------------|-----------------|
E|-----------------|-----------------|

Angus and Malcolm (Rhythm):

   D5      A5        D5      A5        D5      A5        D5
E|-----------------|-----------------|-----------------|-----------------|
B|-3-3-3-3---------|-3-3-3-3---------|-3-3-3-3---------|-3-3-3-3-3-3-3-3-|
G|-2-2-2-2-2-2-2-2-|-2-2-2-2-2-2-2-2-|-2-2-2-2-2-2-2-2-|-2-2-2-2-2-2-2-2-|
D|-0-0-0-0-2-2-2-2-|-0-0-0-0-2-2-2-2-|-0-0-0-0-2-2-2-2-|-0-0-0-0-0-0-0-0-|
A|---------0-0-0-0-|---------0-0-0-0-|---------0-0-0-0-|-----------------|
E|-----------------|-----------------|-----------------|-----------------|
 |
 | D5      A5        D5      A5        D5      A5        D5
E|-----------------|-----------------|-----------------|-----------------|
B|-3-3-3-----------|-3-3-3-----------|-3-3-3-----------|-3-3-3-3-3-3-3-3-|
G|-2-2-2---2-2-2-2-|-2-2-2---2-2-2-2-|-2-2-2---2-2-2-2-|-2-2-2-2-2-2-2-2-|
D|-0-0-0---2-2-2-2-|-0-0-0---2-2-2-2-|-0-0-0---2-2-2-2-|-0-0-0-0-0-0-0-0-|
A|---------0-0-0-0-|---------0-0-0-0-|---------0-0-0-0-|-----------------|
E|-------3---------|-------3---------|-------3---------|-----------------|

   A5
E|-----------------|
B|-----------------|
G|-2-2-2-2-2-2-2-2-|
D|-2-2-2-2-2-2-2-2-|
A|-0-0-0-0-0-0-0-0-|
E|-----------------|
 |
 | A5
E|-----------------|
B|-----------------|
G|-2-2-2-2-2-2-2-2-|
D|-2-2-2-2-2-2-2-2-|
A|-0-0-0-0-0-0-0-0-|
E|-----------------|

Chorus 3:

Angus (Overdub):

E|--------------------|
B|--------------------|
G|-12-------12--------|
D|----14-14----14~~~~-|
A|--------------------|
E|--------------------|

E|---------------------------------------------------|
B|---------------------------------------------------|
G|-12-------12--------14b16r14-----14b16r14-12-------|
D|----14-14----14~~~~----------14--------------14~~~~|
A|---------------------------------------------------|
E|---------------------------------------------------|

Angus and Malcolm (Rhythm):

   G    A E
E|-----------------|
B|-----------------|
G|-----------------|
D|-------2---------|
A|-2-2-2-0-2-2-2-2-|
E|-3-0-0---0-0-0-0-|
 |
 | G    A E
E|-----------------|
B|-----------------|
G|-----------------|     x4
D|-------2-2-------|
A|-2-2-2-0-2-------|
E|-3-0-0---0-------|
 |
 |
E|-3-0-0-5-0-0-0-0-|
B|-------5---------|
G|-----------------|
D|-----------------|
A|-----------------|
E|-----------------|

Guitar Solo/Chorus 4/Outro:

Angus (Overdub:


E|-------------------12-------------12-------------------------|
B|-15b17~~~~15b17~~~~-----12-15--------12-15-12----------------|
G|------------------------------14--------------12-14----------|
D|----------------------------------------------------14~~~~\\-|
A|-------------------------------------------------------------|
E|-------------------------------------------------------------|


E|---------------------------------------------------------------|
B|----15------15------------15-----------------------------------|
G|-14b16---14b16---------17b19--16b18---14---12b-----------------|
D|-----------------------------------------------14~~~~~~~~~12\--|
A|---------------------------------------------------------------|
E|---------------------------------------------------------------|


E|----------------------------|
B|-12~~~~~~~------------------|
G|-12~~~~~~~14~~~~~~----------|
D|------------------14~~~~~~\-|
A|----------------------------|
E|----------------------------|

             T.P.---|                             Hold bend
E|-----------------------------------------------------|
B|-------------------------------15------------15-15~\-|
G|-12---------12---14---12-14b16----14b16---14b16-14~\-|
D|----14-14~~~-----------------------------------------|
A|-----------------------------------------------------|
E|-----------------------------------------------------|


E|--------------------------------------------------|
B|-13b15~~~-15----15b17~~~------15-12---------------|
G|---------------------------14-------12b-----------|
D|---------------------------------------14-14~~~~~-|
A|--------------------------------------------------|
E|--------------------------------------------------|


E|---------12-----------------------------------------------|
B|-17~~~~~~---12-15----15-12--------------------------------|
G|------------------14-------15-14-12----12-14-12b~~~-------|
D|------------------------------------14-------------14~~~\-|
A|----------------------------------------------------------|
E|----------------------------------------------------------|


E|--------------------------------------------------|
B|--------------------17-17-17-17-17-17-17-17-17--\-|
G|-7~~~~~\---7~~~~~~\-16-16-16-16-16-16-16-16-16--\-|
D|---------9----------------------------------------|
A|--------------------------------------------------|
E|--------------------------------------------------|

Angus and Malcolm (Rhythm):

   D5      A5        D5      A5        D5      A5        D5
E|-----------------|-----------------|-----------------|-----------------|
B|-3-3-3-3---------|-3-3-3-3---------|-3-3-3-3---------|-3-3-3-3-3-3-3-3-|
G|-2-2-2-2-2-2-2-2-|-2-2-2-2-2-2-2-2-|-2-2-2-2-2-2-2-2-|-2-2-2-2-2-2-2-2-|
D|-0-0-0-0-2-2-2-2-|-0-0-0-0-2-2-2-2-|-0-0-0-0-2-2-2-2-|-0-0-0-0-0-0-0-0-|
A|---------0-0-0-0-|---------0-0-0-0-|---------0-0-0-0-|-----------------|
E|-----------------|-----------------|-----------------|-----------------|
 |
 | D5      A5        D5      A5        D5      A5        D5
E|-----------------|-----------------|-----------------|-----------------|
B|-3-3-3-----------|-3-3-3-----------|-3-3-3-----------|-3-3-3-3-3-3-3-3-|
G|-2-2-2---2-2-2-2-|-2-2-2---2-2-2-2-|-2-2-2---2-2-2-2-|-2-2-2-2-2-2-2-2-|
D|-0-0-0---2-2-2-2-|-0-0-0---2-2-2-2-|-0-0-0---2-2-2-2-|-0-0-0-0-0-0-0-0-|
A|---------0-0-0-0-|---------0-0-0-0-|---------0-0-0-0-|-----------------|
E|-------3---------|-------3---------|-------3---------|-----------------|

   A5
E|-----------------|
B|-----------------|
G|-2-2-2-2-2-2-2-2-|
D|-2-2-2-2-2-2-2-2-|
A|-0-0-0-0-0-0-0-0-|
E|-----------------|
 |
 | A5
E|-----------------|
B|-----------------|
G|-2-2-2-2-2-2-2-2-|
D|-2-2-2-2-2-2-2-2-|
A|-0-0-0-0-0-0-0-0-|
E|-----------------|

 G    A E
E|-----------------|
B|-----------------|
G|-----------------|
D|-------2---------|
A|-2-2-2-0-2-2-2-2-|
E|-3-0-0---0-0-0-0-|
 |
 | G    A E               <--Repeat til end
E|-----------------|
B|-----------------|
G|-----------------|
D|-------2-2-------|
A|-2-2-2-0-2-------|
E|-3-0-0---0-------|



[0600] Smash N Grab
Standard Tuning

Intro:

   A5 G5 A5                            A5 G5 D5
E|-----------------|-----------------|-----------------|-----------------|
B|-----------------|-----------------|-------3---------|-----------------|
G|-2-2-0-2---------|-----------------|-2-2-0-2---------|-----------------|
D|-2-2-0-2---------|-----------------|-2-2-0-0---------|-----------------|
A|-0-0-x-0---------|-----------------|-0-0-x-----------|-----------------|
E|-----3-----------|-----------------|-----3-----------|-----------------|
 |
 | A5 G5 A5                            A5 G5 D5
E|-----------------|-----------------|-----------------|-----------------|
B|-----------------|-----------------|-------3---------|-----------------|
G|-2-2-0-2---------|-----------------|-2-2-0-2---------|-----------------|
D|-2-2-0-2---------|-----------------|-2-2-0-0---------|-----------------|
A|-0-0---0---------|-----------------|-0-0-------------|-----------------|
E|-----3-----------|-----------------|-----3-----------|-----------------|
 |
 | Guitar 3 (Angus, Overdub, Center)
E|-----------------|-----------------|-----------------|-----------------|
B|----12-~~~-------|-----------------|----12-~~~-------|-----------------|
G|-14b16~~~~~7~~~~~|-5~~~~~~~~~~~~~~~|-14b16~~~~~7~~~~~|-5~~~~~~~~~~~~~~~|
D|-----------------|-----------------|-----------------|-----------------|
A|-----------------|-----------------|-----------------|-----------------|
E|-----------------|-----------------|-----------------|-----------------|

Verse 1:

   D5        G5 D    A5
E|-----------3-----|-----------------|
B|-3-3-3-3---3--3--|-----------------|
G|-2-2-2-2---0--2--|-2---------------|
D|-0-0-0-0---0--0--|-2---------------|
A|-----------x--0--|-0---------------|
E|-----------3-----|-----------------|
 |                                        x4
 | D5        G5 D    A5
E|-----------3--2--|-----------------|
B|-3-3-3-3---3--3--|-----------------|
G|-2-2-2-2---0--2--|-2---------------|
D|-0-0-0-0---0--0--|-2---------------|
A|-----------x-----|-0---------------|
E|-----------3-----|-----------------|

Bridge:

   A5 G5 A5                            A5 G5 D5
E|-----------------|-----------------|-----------------|-----------------|
B|-----------------|-----------------|-------3---------|-----------------|
G|-2-2-0-2---------|-----------------|-2-2-0-2---------|-----------------|
D|-2-2-0-2---------|-----------------|-2-2-0-0---------|-----------------|
A|-0-0-x-0---------|-----------------|-0-0-x-----------|-----------------|
E|-----3-----------|-----------------|-----3-----------|-----------------|
 |
 | A5 G5 A5                            A5 G5 D5
E|-----------------|-----------------|-----------------|-----------------|
B|-----------------|-----------------|-------3---------|-----------------|
G|-2-2-0-2---------|-----------------|-2-2-0-2---------|-----------------|
D|-2-2-0-2---------|-----------------|-2-2-0-0---------|-----------------|
A|-0-0---0---------|-----------------|-0-0-------------|-----------------|
E|-----3-----------|-----------------|-----3-----------|-----------------|
 |
 |
E|-----------------|-----------------|-----------------|-----------------|
B|----12-~~~-------|-----------------|-----------------|-----------------|
G|-14b16~~~~~7~~~~~|-5~~~~~~~~~~~~~~~|-----------------|-----------------|
D|-----------------|-----------------|-----------------|-----------------|
A|-----------------|-----------------|-----------------|-----------------|
E|-----------------|-----------------|-----------------|-----------------|

   A5 G5 A5                            A5 G5 D5
E|-----------------|-----------------|-----------------|-----------------|
B|-----------------|-----------------|-------3---------|-----------------|
G|-2-2-0-2---------|-----------------|-2-2-0-2---------|-----------------|
D|-2-2-0-2---------|-----------------|-2-2-0-0---------|-----------------|
A|-0-0-x-0---------|-----------------|-0-0-x-----------|-----------------|
E|-----3-----------|-----------------|-----3-----------|-----------------|
 |
 | A5 G5 A5                            A5 G5 D5
E|-----------------|-----------------|-----------------|-----------------|
B|-----------------|-----------------|-------3---------|-----------------|
G|-2-2-0-2---------|-----------------|-2-2-0-2---------|-----------------|
D|-2-2-0-2---------|-----------------|-2-2-0-0---------|-----------------|
A|-0-0---0---------|-----------------|-0-0-------------|-----------------|
E|-----3-----------|-----------------|-----3-----------|-----------------|
 |
 |
E|-----------------|-----------------|-----------------|-----------------|
B|----12-~~~-------|-----------------|-----------------|-----------------|
G|-14b16~~~~~7~~~~~|-5~~~~~~~~~~~~~~~|-----------------|-----------------|
D|-----------------|-----------------|-----------------|-----------------|
A|-----------------|-----------------|-----------------|-----------------|
E|-----------------|-----------------|-----------------|-----------------|

Verse 2:

   D5        G5 D    A5
E|-----------3-----|-----------------|
B|-3-3-3-3---3--3--|-----------------|
G|-2-2-2-2---0--2--|-2---------------|
D|-0-0-0-0---0--0--|-2---------------|
A|-----------x--0--|-0---------------|
E|-----------3-----|-----------------|
 |                                        x4
 | D5        G5 D    A5
E|-----------3--2--|-----------------|
B|-3-3-3-3---3--3--|-----------------|
G|-2-2-2-2---0--2--|-2---------------|
D|-0-0-0-0---0--0--|-2---------------|
A|-----------x-----|-0---------------|
E|-----------3-----|-----------------|

Pre Chorus 1:

Angus (Overdub):

E|--------------------------|
B|--------------------------|
G|--9--7---5-7---5-----5-7--| x4
D|-----------------7--x-----|
A|--------------------------|
E|--------------------------|


Angus and Malcolm (Rhythm):


   C5                F5                D5
E|-----------------|-----------------|-----------------|-----------------|
B|-1-1-1-1-1-1-1-1-|-----------------|-3-3-3-3-3-3-3-3-|-3-3-3-3-3-3-3-3-|
G|-0-0-0-0-0-0-0-0-|-----------------|-2-2-2-2-2-2-2-2-|-2-2-2-2-2-2-2-2-|
D|-x-x-x-x-x-x-x-x-|-3-3-3-3-3-3-3-3-|-0-0-0-0-0-0-0-0-|-0-0-0-0-0-0-0-0-|
A|-3-3-3-3-3-3-3-3-|-3-3-3-3-3-3-3-3-|-----------------|-----------------|
E|-----------------|-1-1-1-1-1-1-1-1-|-----------------|-----------------|
 |
 | C5                F5                D5
E|-----------------|-----------------|-----------------|-----------------|
B|-----------------|-----------------|-3-3-3-3-3-3-3-3-|-3-3-3-3-3-3-3-3-|
G|-5-5-5-5-5-5-5-5-|-----------------|-2-2-2-2-2-2-2-2-|-2-2-2-2-2-2-2-2-|
D|-5-5-5-5-5-5-5-5-|-3-3-3-3-3-3-3-3-|-0-0-0-0-0-0-0-0-|-0-0-0-0-0-0-0-0-|
A|-3-3-3-3-3-3-3-3-|-3-3-3-3-3-3-3-3-|-----------------|-----------------|
E|-----------------|-1-1-1-1-1-1-1-1-|-----------------|-----------------|


Chorus 1:

   A5            G5      D             A5            G5        D
E|---------------3-|-----2-----------|---------------3-|---3-3-2---2-2-2-|
B|---------------3-|-----3-----3-3-3-|-----------3---3-|---3-3-3---3-3-3-|
G|-2-------2-----0-|-----2-----2-2-2-|-2---2-----2---0-|---0-0-2---2-2-2-|
D|-2-----2-0-----0-|-----0-----0-0-0-|-2---2---0-0---0-|---0-0-0---0-0-0-|
A|-0-----0-0-----x-|-----------------|-0---0---0-0---x-|---x-x-0---------|
E|---------------3-|-----------------|---------------3-|---3-3-----------|
 |                                                                      x 1.5
 | A5            G5      D             A5            G5        D5
E|---------------3-|-----------------|---------------3-|---3-3-----------|
B|---------------3-|-----3-----3-3-3-|-----------3---3-|---3-3-3---3-3-3-|
G|-2-------2-----0-|-----2-----2-2-2-|-2---2---0-2---0-|---0-0-2---2-2-2-|
D|-2-------0-----0-|-----0-----0-0-0-|-2---2---0-0---0-|---0-0-0---0-0-0-|
A|-0-------------x-|-----0-----------|-0---0---0-----x-|---x-x-----------|
E|---------------3-|-----------------|---------------3-|---3-3-----------|

Pre Verse:

Angus (Overdub):

E|--------------------------|
B|--------------------------|
G|--9--7---5-7---5------5---| x2
D|-----------------7--x-----|
A|--------------------------|
E|--------------------------|

Angus and Malcolm (Rhythm):

   C5
E|-----------------|-----------------|
B|-1-1-1-1-1-1-1-1-|-1-1-1-1-1-1-1-1-|
G|-0-0-0-0-0-0-0-0-|-0-0-0-0-0-0-0-0-|
D|-x-x-x-x-x-x-x-x-|-x-x-x-x-x-x-x-x-|
A|-3-3-3-3-3-3-3-3-|-3-3-3-3-3-3-3-3-|
E|-----------------|-----------------|
 |
 | C5
E|-----------------|-----------------|
B|-----------------|-----------------|
G|-5-5-5-5-5-5-5-5-|-5-5-5-5-5-5-5-5-|
D|-5-5-5-5-5-5-5-5-|-5-5-5-5-5-5-5-5-|
A|-3-3-3-3-3-3-3-3-|-3-3-3-3-3-3-3-3-|
E|-----------------|-----------------|


Verse 3:

   D5        G5 D    A5
E|-----------3-----|-----------------|
B|-3-3-3-3---3--3--|-----------------|
G|-2-2-2-2---0--2--|-2---------------|
D|-0-0-0-0---0--0--|-2---------------|
A|-----------x--0--|-0---------------|
E|-----------3-----|-----------------|
 |                                        x4
 | D5        G5 D    A5
E|-----------3--2--|-----------------|
B|-3-3-3-3---3--3--|-----------------|
G|-2-2-2-2---0--2--|-2---------------|
D|-0-0-0-0---0--0--|-2---------------|
A|-----------x-----|-0---------------|
E|-----------3-----|-----------------|

Pre Chorus 2:

Angus (Overdub):

E|--------------------------|
B|--------------------------|
G|--9--7---5-7---5-----5----| x4
D|-----------------7--x-----|
A|--------------------------|
E|--------------------------|

Angus and Malcolm (Rhythm):

   C5                F5                D5
E|-----------------|-----------------|-----------------|-----------------|
B|-1-1-1-1-1-1-1-1-|-----------------|-3-3-3-3-3-3-3-3-|-3-3-3-3-3-3-3-3-|
G|-0-0-0-0-0-0-0-0-|-----------------|-2-2-2-2-2-2-2-2-|-2-2-2-2-2-2-2-2-|
D|-x-x-x-x-x-x-x-x-|-3-3-3-3-3-3-3-3-|-0-0-0-0-0-0-0-0-|-0-0-0-0-0-0-0-0-|
A|-3-3-3-3-3-3-3-3-|-3-3-3-3-3-3-3-3-|-----------------|-----------------|
E|-----------------|-1-1-1-1-1-1-1-1-|-----------------|-----------------|
 |
 | C5                F5                D5
E|-----------------|-----------------|-----------------|-----------------|
B|-----------------|-----------------|-3-3-3-3-3-3-3-3-|-3-3-3-3-3-3-3-3-|
G|-5-5-5-5-5-5-5-5-|-----------------|-2-2-2-2-2-2-2-2-|-2-2-2-2-2-2-2-2-|
D|-5-5-5-5-5-5-5-5-|-3-3-3-3-3-3-3-3-|-0-0-0-0-0-0-0-0-|-0-0-0-0-0-0-0-0-|
A|-3-3-3-3-3-3-3-3-|-3-3-3-3-3-3-3-3-|-----------------|-----------------|
E|-----------------|-1-1-1-1-1-1-1-1-|-----------------|-----------------|

Chorus 2:

   A5            G5      D             A5            G5        D
E|---------------3-|-----2-----------|---------------3-|---3-3-2---2-2-2-|
B|---------------3-|-----3-----3-3-3-|-----------3---3-|---3-3-3---3-3-3-|
G|-2-------2-----0-|-----2-----2-2-2-|-2---2-----2---0-|---0-0-2---2-2-2-|
D|-2-----2-0-----0-|-----0-----0-0-0-|-2---2---0-0---0-|---0-0-0---0-0-0-|
A|-0-----0-0-----x-|-----------------|-0---0---0-0---x-|---x-x-0---------|
E|---------------3-|-----------------|---------------3-|---3-3-----------|
 |                                                                      x 1.5
 | A5            G5      D             A5            G5        D5
E|---------------3-|-----------------|---------------3-|---3-3-----------|
B|---------------3-|-----3-----3-3-3-|-----------3---3-|---3-3-3---3-3-3-|
G|-2-------2-----0-|-----2-----2-2-2-|-2---2---0-2---0-|---0-0-2---2-2-2-|
D|-2-------0-----0-|-----0-----0-0-0-|-2---2---0-0---0-|---0-0-0---0-0-0-|
A|-0-------------x-|-----0-----------|-0---0---0-----x-|---x-x-----------|
E|---------------3-|-----------------|---------------3-|---3-3-----------|

Post Chorus:

Pre Verse:

Angus (Overdub):

E|--------------------------|
B|--------------------------|
G|--9--7---5-7---5------5---| x2
D|-----------------7--x-----|
A|--------------------------|
E|--------------------------|

Angus and Malcolm (Rhythm):

   C5
E|-----------------|-----------------|
B|-1-1-1-1-1-1-1-1-|-1-1-1-1-1-1-1-1-|
G|-0-0-0-0-0-0-0-0-|-0-0-0-0-0-0-0-0-|
D|-x-x-x-x-x-x-x-x-|-x-x-x-x-x-x-x-x-|
A|-3-3-3-3-3-3-3-3-|-3-3-3-3-3-3-3-3-|
E|-----------------|-----------------|
 |
 | C5
E|-----------------|-----------------|
B|-----------------|-----------------|
G|-5-5-5-5-5-5-5-5-|-5-5-5-5-5-5-5-5-|
D|-5-5-5-5-5-5-5-5-|-5-5-5-5-5-5-5-5-|
A|-3-3-3-3-3-3-3-3-|-3-3-3-3-3-3-3-3-|
E|-----------------|-----------------|

Bridge:

  A5 G5 A5                            A5 G5 D5
E|-----------------|-----------------|-----------------|-----------------|
B|-----------------|-----------------|-------3---------|-----------------|
G|-2-2-0-2---------|-----------------|-2-2-0-2---------|-----------------|
D|-2-2-0-2---------|-----------------|-2-2-0-0---------|-----------------|
A|-0-0-x-0---------|-----------------|-0-0-x-----------|-----------------|
E|-----3-----------|-----------------|-----3-----------|-----------------|
 |
 | A5 G5 A5                            A5 G5 D5
E|-----------------|-----------------|-----------------|-----------------|
B|-----------------|-----------------|-------3---------|-----------------|
G|-2-2-0-2---------|-----------------|-2-2-0-2---------|-----------------|
D|-2-2-0-2---------|-----------------|-2-2-0-0---------|-----------------|
A|-0-0---0---------|-----------------|-0-0-------------|-----------------|
E|-----3-----------|-----------------|-----3-----------|-----------------|
 |
 |
E|-----------------|-----------------|-----------------|-----------------|
B|----12-~~~-------|-----------------|-----------------|-----------------|
G|-14b16~~~~~7~~~~~|-5~~~~~~~~~~~~~~~|-----------------|-----------------|
D|-----------------|-----------------|-----------------|-----------------|
A|-----------------|-----------------|-----------------|-----------------|
E|-----------------|-----------------|-----------------|-----------------|

   A5 G5 A5                            A5 G5 D5
E|-----------------|-----------------|-----------------|-----------------|
B|-----------------|-----------------|-------3---------|-----------------|
G|-2-2-0-2---------|-----------------|-2-2-0-2---------|-----------------|
D|-2-2-0-2---------|-----------------|-2-2-0-0---------|-----------------|
A|-0-0-x-0---------|-----------------|-0-0-x-----------|-----------------|
E|-----3-----------|-----------------|-----3-----------|-----------------|
 |
 | A5 G5 A5                            A5 G5 D5
E|-----------------|-----------------|-----------------|-----------------|
B|-----------------|-----------------|-------3---------|-----------------|
G|-2-2-0-2---------|-----------------|-2-2-0-2---------|-----------------|
D|-2-2-0-2---------|-----------------|-2-2-0-0---------|-----------------|
A|-0-0---0---------|-----------------|-0-0-------------|-----------------|
E|-----3-----------|-----------------|-----3-----------|-----------------|
 |
 |
E|-----------------|-----------------|-----------------|-----------------|
B|----12-~~~-------|-----------------|-----------------|-----------------|
G|-14b16~~~~~7~~~~~|-5~~~~~~~~~~~~~~~|-----------------|-----------------|
D|-----------------|-----------------|-----------------|-----------------|
A|-----------------|-----------------|-----------------|-----------------|
E|-----------------|-----------------|-----------------|-----------------|

Guitar Solo A:

Angus (He has two guitars going off here, top one is the right channel,
       bottom one is the left.)


E|--------------------------------------------------------|
B|--------------------------------------------------------|
G|-x\\\---------------------------------------------------|
D|-x\\\---------------------------------------------------|
A|-x\\\---------------------------------------------------|
E|--------------------------------------------------------|
 |
 |
E|--------------------------------------------------------|
B|-5~~-----7------------------15pb17r15----13-15----------|
G|-5~~-----7b-----7p5----------------------------14~~~~---|
D|--------------------7~~~~~------------------------------|
A|--------------------------------------------------------|
E|--------------------------------------------------------|


E|-----------12-11-10----10-------------------------------|
B|-18b20--------------13----13-15----15b17-15b17~~~~---17-|
G|--------------------------------14----------------------|
D|--------------------------------------------------------|
A|--------------------------------------------------------|
E|--------------------------------------------------------|
 |
 |
E|--------------------------------------------------------|
B|--------------------------------------------------------|
G|--------------------------------------------------------|
D|--------------------------------------------------------|
A|--------------------------------------------------------|
E|--------------------------------------------------------|


E|--------15--------15----15------15-15-----------|-------------|
B|-15b17-----15b17-----15b17---15b17-15pb17r15-13-|-------------|
G|------------------------------------------------|----14~~~~~~-|
D|------------------------------------------------|-------------|
A|------------------------------------------------|-------------|
E|------------------------------------------------|-------------|
 |
 |
E|------------------------------------------------|-------------|
B|------------------------------------------------|-20b22~~~~~~-|
G|------------------------------------------------|-------------|
D|------------------------------------------------|-------------|
A|------------------------------------------------|-------------|
E|------------------------------------------------|-------------|


Main Solo (It's just the right channel now):


E|---------------------------|
B|-15-17-15-17-15-17--17~~~\-|
G|---------------------------|
D|---------------------------|
A|---------------------------|
E|---------------------------|

E|------------------12-11-10-----------------------------------------|
B|---18b20~~~~~~~~-----------13-10-----15----13b15--13~~~~-----------|
G|-x----20-------------------------12-----14-------------14-12-14~~~~|
D|-x-----------------------------------------------------------------|
A|-------------------------------------------------------------------|
E|-------------------------------------------------------------------|

E|-----------------------------------------------------------|
B|-15pb17r15------15p13--------------------------------------|
G|----------------------14~~~11-14---------------------------|
D|-------------------------------------7-5-------------------|
A|-----------------------------------------7-5---------------|
E|---------------------------------------------8-5-5/--16--\-|

       P.H.
E|---------------------------------------15-17------------17--------------|
B|-------------------------------15b17---------17---20b22----20-20b22~~~~\|
G|-----5-----5-------7~~~-9~~~--------------------------------------------|
D|-x-x-----x---7---x------------------------------------------------------|
A|------------------------------------------------------------------------|
E|------------------------------------------------------------------------|


Angus and Malcolm (Rhythm):


   C5                F5                D5
E|-----------------|-----------------|-----------------|-----------------|
B|-1-1-1-1-1-1-1-1-|-----------------|-3-3-3-3-3-3-3-3-|-3-3-3-3-3-3---3-|
G|-0-0-0-0-0-0-0-0-|-----------------|-2-2-2-2-2-2-2-2-|-0-0-0-0-0-0---0-|
D|-x-x-x-x-x-x-x-x-|-3-3-3-3-3-3-3-3-|-0-0-0-0-0-0-0-0-|-0-0-0-0-0-0---0-|
A|-3-3-3-3-3-3-3-3-|-3-3-3-3-3-3-3-3-|-----------------|-x-x-x-x-x-x---x-|
E|-----------------|-1-1-1-1-1-1-1-1-|-----------------|-3-3-3-3-3-3---3-|
 |
 | C5                F5                D5
E|-----------------|-----------------|-----------------|-----------------|
B|-----------------|-----------------|-3-3-3-3-3-3-3-3-|-----------------|
G|-5-5-5-5-5-5-5-5-|-----------------|-2-2-2-2-2-2-2-2-|-0-0-0-0-0-0---0-|
D|-5-5-5-5-5-5-5-5-|-3-3-3-3-3-3-3-3-|-0-0-0-0-0-0-0-0-|-0-0-0-0-0-0---0-|
A|-3-3-3-3-3-3-3-3-|-3-3-3-3-3-3-3-3-|-----------------|-x-x-x-x-x-x---x-|
E|-----------------|-1-1-1-1-1-1-1-1-|-----------------|-3-3-3-3-3-3---3-|

   A5            G5      D             A5            G5        D
E|---------------3-|-----2-----------|---------------3-|---3-3-2---2-2-2-|
B|---------------3-|-----3-----3-3-3-|-----------3---3-|---3-3-3---3-3-3-|
G|-2-------2-----0-|-----2-----2-2-2-|-2---2-----2---0-|---0-0-2---2-2-2-|
D|-2-----2-0-----0-|-----0-----0-0-0-|-2---2---0-0---0-|---0-0-0---0-0-0-|
A|-0-----0-0-----x-|-----------------|-0---0---0-0---x-|---x-x-0---------|
E|---------------3-|-----------------|---------------3-|---3-3-----------|
 |                                                                    x 1.5
 | A5            G5      D             A5            G5        D5
E|---------------3-|-----------------|---------------3-|---3-3-----------|
B|---------------3-|-----3-----3-3-3-|-----------3---3-|---3-3-3---3-3-3-|
G|-2-------2-----0-|-----2-----2-2-2-|-2---2---0-2---0-|---0-0-2---2-2-2-|
D|-2-------0-----0-|-----0-----0-0-0-|-2---2---0-0---0-|---0-0-0---0-0-0-|
A|-0-------------x-|-----0-----------|-0---0---0-----x-|---x-x-----------|
E|---------------3-|-----------------|---------------3-|---3-3-----------|

   C5
E|-----------------|-----------------|
B|-1-1-1-1-1-1-1-1-|-1-1-1-1-1-1-1-1-|
G|-0-0-0-0-0-0-0-0-|-0-0-0-0-0-0-0-0-|
D|-x-x-x-x-x-x-x-x-|-x-x-x-x-x-x-x-x-|
A|-3-3-3-3-3-3-3-3-|-3-3-3-3-3-3-3-3-|
E|-----------------|-----------------|
 |
 | C5
E|-----------------|-----------------|
B|-----------------|-----------------|
G|-5-5-5-5-5-5-5-5-|-5-5-5-5-5-5-5-5-|
D|-5-5-5-5-5-5-5-5-|-5-5-5-5-5-5-5-5-|
A|-3-3-3-3-3-3-3-3-|-3-3-3-3-3-3-3-3-|
E|-----------------|-----------------|

                   /       x3        \
E|-----------------|-----------------|
B|-----------------|-----------------|
G|-2---------------|-----------------|
D|-2---------------|-----------------|
A|-0---------------|-----------------|
E|-----------------|-----------------|
 |
E|-----------------|-----------------|
B|-----------------|-----------------|
G|-2---------------|-----------------|
D|-2---------------|-----------------|
A|-0---------------|-----------------|
E|-----------------|-----------------|


Chorus/Outro/2nd Solo:


Angus (Overdub):

 3:41               P.H.
E|-------------------------|
B|---------13b--13b--------|
G|-12-14------------14~~~~~|
D|-------------------------|
A|-------------------------|
E|-------------------------|

E|----17-----------------------|
B|-20-----20-20b22--20-20b22---|
G|-----------------------------|
D|-----------------------------|
A|-----------------------------|
E|-----------------------------|

E|-------------------------------------------------|
B|-15-13----13------------------15b17--15~~~~13----|
G|-------14----14-14--12-14--14-----------------14-|
D|-------------------------------------------------|
A|-------------------------------------------------|
E|-------------------------------------------------|

E|------------------------|
B|----------15~~~~~~~~~~~~|
G|-14-14-14---------------|
D|------------------------|
A|------------------------|
E|------------------------|

Angus and Malcolm )Rhythm):

  A5 G5 A5                            A5 G5 D5
E|-----------------|-----------------|-----------------|-----------------|
B|-----------------|-----------------|-------3---------|-----------------|
G|-2-2-0-2---------|-----------------|-2-2-0-2---------|-----------------|
D|-2-2-0-2---------|-----------------|-2-2-0-0---------|-----------------|
A|-0-0-x-0---------|-----------------|-0-0-x-----------|-----------------|
E|-----3-----------|-----------------|-----3-----------|-----------------|
 |
 | A5 G5 A5                            A5 G5 D5
E|-----------------|-----------------|-----------------|-----------------|
B|-----------------|-----------------|-------3---------|-----------------|
G|-2-2-0-2---------|-----------------|-2-2-0-2---------|-----------------|
D|-2-2-0-2---------|-----------------|-2-2-0-0---------|-----------------|
A|-0-0---0---------|-----------------|-0-0-------------|-----------------|
E|-----3-----------|-----------------|-----3-----------|-----------------|
 |
 |
E|-----------------|-----------------|-----------------|-----------------|
B|----12-~~~-------|-----------------|-----------------|-----------------|
G|-14b16~~~~~7~~~~~|-5~~~~~~~~~~~~~~~|-----------------|-----------------|
D|-----------------|-----------------|-----------------|-----------------|
A|-----------------|-----------------|-----------------|-----------------|
E|-----------------|-----------------|-----------------|-----------------|

   A5 G5 A5                            A5 G5 D5
E|-----------------|-----------------|-----------------|-----------------|
B|-----------------|-----------------|-------3---------|-----------------|
G|-2-2-0-2---------|-----------------|-2-2-0-2---------|-----------------|
D|-2-2-0-2---------|-----------------|-2-2-0-0---------|-----------------|
A|-0-0-x-0---------|-----------------|-0-0-x-----------|-----------------|
E|-----3-----------|-----------------|-----3-----------|-----------------|
 |
 | A5 G5 A5                            A5 G5 D5
E|-----------------|-----------------|-----------------|-----------------|
B|-----------------|-----------------|-------3---------|-----------------|
G|-2-2-0-2---------|-----------------|-2-2-0-2---------|-----------------|
D|-2-2-0-2---------|-----------------|-2-2-0-0---------|-----------------|
A|-0-0---0---------|-----------------|-0-0-------------|-----------------|
E|-----3-----------|-----------------|-----3-----------|-----------------|
 |
 |
E|-----------------|-----------------|-----------------|-----------------|
B|----12-~~~-------|-----------------|-----------------|-----------------|
G|-14b16~~~~~7~~~~~|-5~~~~~~~~~~~~~~~|-----------------|-----------------|
D|-----------------|-----------------|-----------------|-----------------|
A|-----------------|-----------------|-----------------|-----------------|
E|-----------------|-----------------|-----------------|-----------------|



[0700] Spoilin' For A Fight
Standard Tuning

Intro: (Angus)

                 B5                                  B5
E|-----------------|-----------------|-----------------|-----------------|
B|-----------------|-----------------|-----------------|-----------------|
G|---------------4-|---4---4-4-------|---------------4-|---4---4-4-------|
D|---------------4-|---4-2-4-4-------|---------------4-|---4-2-4-4-------|
A|---------------2-|---2-0-2-2-------|---------------2-|---2-0-2-2-------|
E|-----------------|-----------------|-----------------|-----------------|
 |
 |
 | Guitar 3, Angus, Overdub, Center
E|-----------------|-----------------|-----------------|---------------7-|
B|-----------------|-----------------|-----------------|-------------7-7-|
G|-----------------|-----------------|-----------------|-----------9b----|
D|-----------------|-----------------|-----------------|-----------------|
A|-----------------|-----------------|-----------------|-----------------|
E|-----------------|-----------------|-----------------|-----------------|

                 B5
E|-----------------|
B|-----------------|
G|---------------4-|
D|---------------4-|
A|---------------2-|
E|-----------------|
 |
 |   D       E   B5
E|-----------------|
B|-----------------|
G|---------------4-|
D|---2---2-2-2---4-|
A|---5---4-4-2---2-|
E|-----------------|
 |
 |
E|-7-----7-7-------|
B|-7---7-7-7-7-----|
G|---9b------9b----|
D|-----------------|
A|-----------------|
E|-----------------|

     B E B                         B5    B E B             D     A E   B5
E|-----------------|-----------------|-----------------|-----------------|
B|-----------------|-----------------|-----------------|-----------------|
G|---4---4-4-------|---------------4-|---4---4-4-------|---------------4-|
D|---4-2-4-4-------|---------------4-|---4-2-4-4-------|---7-7-4-2-2---4-|
A|---2-2-2-2-------|---------------2-|---2-2-2-2-------|---5-4-2-0-2---2-|
E|-----------------|-----------------|-----------------|-----------------|
 |
 |   B A B                         B5    B A B             D     A E   B5
E|-----------------|-----------------|-----------------|-----------------|
B|-----------------|-----------------|-----------------|-----------------|
G|---4---4-4-------|---------------4-|---4---4-4-------|---------------4-|
D|---4-2-4-4-------|---------------4-|---4-2-4-4-------|---7-7-4-2-2---4-|
A|---2-0-2-2-------|---------------2-|---2-0-2-2-------|---5-4-2-0-2---2-|
E|-----------------|-----------------|-----------------|-----------0-----|
 |
 |
E|-----------------|-----------------|---------------7-|-7-----7-7-------|
B|-----------------|-----------------|-------------7-7-|-7---7-7-7-7-----|
G|-----------------|-----------------|-----------9b----|---9b------9b----|
D|-----------------|-----------------|-----------------|-----------------|
A|-----------------|-----------------|-----------------|-----------------|
E|-----------------|-----------------|-----------------|-----------------|


Verse 1:

     B E B                         B5    B E B             D     A E   B5
E|-----------------|-----------------|-----------------|-----------------|
B|-----------------|-----------------|-----------------|-----------------|
G|---4---4-4-------|---------------4-|---4---4-4-------|---------------4-|
D|---4-2-4-4-------|---------------4-|---4-2-4-4-------|---7-7-4-2-2---4-|
A|---2-2-2-2-------|---------------2-|---2-2-2-2-------|---5-4-2-0-2---2-|
E|-----------------|-----------------|-----------------|-----------------|
 |
 |   B A B                         B5    B A B             D     A E   B5
E|-----------------|-----------------|-----------------|-----------------|
B|-----------------|-----------------|-----------------|-----------------|
G|---4---4-4-------|---------------4-|---4---4-4-------|---------------4-|
D|---4-2-4-4-------|---------------4-|---4-2-4-4-------|---7-7-4-2-2---4-|
A|---2-0-2-2-------|---------------2-|---2-0-2-2-------|---5-4-2-0-2---2-|
E|-----------------|-----------------|-----------------|-----------0-----|

     B E B                         B5    B E B             D     A E   B5
E|-----------------|-----------------|-----------------|-----------------|
B|-----------------|-----------------|-----------------|-----------------|
G|---4---4-4-------|---------------4-|---4---4-4-------|---------------4-|
D|---4-2-4-4-------|---------------4-|---4-2-4-4-------|---7-7-4-2-2---4-|
A|---2-2-2-2-------|---------------2-|---2-2-2-2-------|---5-4-2-0-2-----|
E|-----------------|-----------------|-----------------|-----------------|
 |
 |   B A B                         B5    B A B             D     A E   B5
E|-----------------|-----------------|-----------------|-----------------|
B|-----------------|-----------------|-----------------|-----------------|
G|---4---4-4-------|---------------4-|---4---4-4-------|---------------4-|
D|---4-2-4-4-------|---------------4-|---4-2-4-4-------|---7-7-4-2-2---4-|
A|---2-0-2-2-------|---------------2-|---2-0-2-2-------|---5-4-2-0-2---2-|
E|-----------------|-----------------|-----------------|-----------0-----|

     B A E B                       B5    B A E B           D     A E   B5
E|-----------------|-----------------|-----------------|-----------------|
B|-----------------|-----------------|-----------------|-----------------|
G|---4-2-1-4-------|---------------4-|---4-2-1--6pb7r6-|---------------4-|
D|---4-2-2-4-------|---------------4-|---4-2-2-4------9|---7-7-4-2-2---4-|
A|---------2-------|-----------------|---------2-------|---5-4-2-0-2---2-|
E|-----------------|-----------------|-----------------|-----------------|
 |
 |   B A B                         B5    B A B             D     A E   B5
E|-----------------|-----------------|-----------------|-----------------|
B|-----------------|-----------------|-----------------|-----------------|
G|---4---4-4-------|---------------4-|---4---4-4-------|---------------4-|
D|---4-2-4-4-------|---------------4-|---4-2-4-4-------|---7-7-4-2-2---4-|
A|---2-0-2-2-------|---------------2-|---2-0-2-2-------|---5-4-2-0-2---2-|
E|-----------------|-----------------|-----------------|-----------0-----|

     B A E B                       B5    B A E B           D     A E   E5
E|-----------------|-----------------|-----------------|-----------------|
B|-----------------|-----------------|-----------------|-----------------|
G|---4-2-1-4-------|---------------4-|---4-2-1--6pb7r6-|-----------------|
D|---4-2-2-4-------|---------------4-|---4-2-2-4------9|---7-7-4-2-2---2-|
A|---------2-------|-----------------|---------2-------|---5-4-2-0-2---2-|
E|-----------------|-----------------|-----------------|---------------0-|
 |
 |   B A B                         B5    B A B             D     A E   E5
E|-----------------|-----------------|-----------------|-----------------|
B|-----------------|-----------------|-----------------|-----------------|
G|---4---4-4-------|---------------4-|---4---4-4-------|-----------------|
D|---4-2-4-4-------|---------------4-|---4-2-4-4-------|---7-7-4-2-2---2-|
A|---2-0-2-2-------|---------------2-|---2-0-2-2-------|---5-4-2-0-2---2-|
E|-----------------|-----------------|-----------------|-----------0---0-|

Pre Chorus 1:

                 E5                                  A5                B5
E|-----------------|-----------------|-----------------|-----------------|
B|-----------------|-----------------|-----------------|-----------------|
G|-----------------|-----------------|---------------2-|---------------4-|
D|---------------2-|---------------2-|---------------2-|---------------4-|
A|---------------2-|---------------2-|---------------0-|---------------2-|
E|---------------0-|---------------0-|-----------------|-----------------|
 |
 |               E5                                 A5                 B5
E|-----------------|-----------------|-----------------|-----------------|
B|-----------------|-----------------|-----------------|-----------------|
G|-----------------|-----------------|---------------2-|---------------4-|
D|---------------2-|---------------2-|---------------2-|---------------4-|
A|---------------2-|---------------2-|---------------0-|---------------2-|
E|---------------0-|---------------0-|-----------------|-----------------|

Chorus 1:

     B E B             D     A E   B5    B E B              D    A E   B5
E|-----------------|-----------------|-----------------|-----------------|
B|-----------------|-----------------|-----------------|-----------------|
G|---4---4-4-------|---------------4-|---4---4-4-------|---------------4-|
D|---4-2-4-4-------|---7-7-4-2-2---4-|---4-2-4-4-------|---7-7-4-2-2---4-|
A|---2-2-2-2-------|---5-4-2-0-2---2-|---2-2-2-2-------|---5-4-2-0-2---2-|
E|-----------------|-----------------|-----------------|-----------------|
 |
 |   B D B             D     A E   B5    B A B             D     A E   B5
E|-----------------|-----------------|-----------------|-----------------|
B|-----------------|-----------------|-----------------|-----------------|
G|---4---4-4-------|---------------4-|---4---4-4-------|---------------4-|
D|---4-2-4-4-------|---7-7-4-2-2---4-|---4-2-4-4-------|---7-7-4-2-2---4-|
A|---2-0-2-2-------|---5-4-2-0-2---2-|---2-0-2-2-------|---5-4-2-0-2---2-|
E|-----------------|-----------0-----|-----------------|-----------0-----|
 |
 | Guitar 3
E|---------------7-|-7-----7-7-------|---------------7-|-7-----7-7-------|
B|-------------7-7-|-7---7-7-7-7-----|-------------7-7-|-7---7-7-7-7-----|
G|-----------9b----|---9b------9b----|----------9b-----|---9b------9b----|
D|-----------------|-----------------|-----------------|-----------------|
A|-----------------|-----------------|-----------------|-----------------|
E|-----------------|-----------------|-----------------|-----------------|

     B E B             D     A E   B5    B E B             B E B       B5
E|-----------------|-----------------|-----------------|-----------------|
B|-----------------|-----------------|-----------------|-----------------|
G|---4---4-4-------|---------------4-|---4---4-4-------|---4---4-4-----4-|
D|---4-2-4-4-------|---7-7-4-2-2---4-|---4-2-4-4-------|---4-2-4-4-----4-|
A|---2-2-2-2-------|---5-4-2-0-2---2-|---2-2-2-2-------|---2-2-2-2-----2-|
E|-----------------|-----------------|-----------------|-----------------|
 |
 |   B A B             D     A E   B5     B A B            B A B       B5
E|-----------------|-----------------|-----------------|-----------------|
B|-----------------|-----------------|-----------------|-----------------|
G|---4---4-4-------|---------------4-|---4---4-4-----4-|---4---4-4-----4-|
D|---4-2-4-4-------|---7-7-4-2-2---4-|---4-2-4-4-----4-|---4-2-4-4-----4-|
A|---2-0-2-2-------|---5-4-2-0-2---2-|---2-0-2-2-----2-|---2-0-2-2-----2-|
E|-----------------|-----------0-----|-----------------|-----------------|
 |
 |
E|---------------7-|-7-----7-7-----10|-----7---7-----10|-----7---7-----10|
B|-------------7-7-|-7---7-7-7-7---9b|-----7---7-----9b|-----7---7-----9b|
G|-----------9b----|---9b------9b----|-------9b--------|-------9b--------|
D|-----------------|-----------------|-----------------|-----------------|
A|-----------------|-----------------|-----------------|-----------------|
E|-----------------|-----------------|-----------------|-----------------|

     B E B             E5          B5
E|-----------------|-----------------|
B|-----------------|-----------------|
G|---4---4-4-------|---------------4-|
D|---4-2-4-4-------|---2-2---2-2-2-4-|
A|---2-2-2-2-------|---2-2---2-2-2-2-|
E|-----------------|---0-0---0-0-0---|
 |
 |   B A B             E5          B5
E|-----------------|-----------------|
B|-----------------|-----------------|
G|---4---4-4-------|---------------4-|
D|---4-2-4-4-------|---2-2-2-2-2-2-4-|
A|---2-0-2-2-------|---2-2-2-2-2-2-2-|
E|-----------------|---0-0-0-0-0-0---|
 |
 |
E|-----7---7-------|-----------------|
B|-----7---7-------|-----------------|
G|-------9b--------|-----------------|
D|-----------------|-----------------|
A|-----------------|-----------------|
E|-----------------|-----------------|

Verse 2:

     B E B                         B5    B E B             D     A E   B5
E|-----------------|-----------------|-----------------|-----------------|
B|-----------------|-----------------|-----------------|-----------------|
G|---4---4-4-------|---------------4-|---4---4-4-------|---------------4-|
D|---4-2-4-4-------|---------------4-|---4-2-4-4-------|---7-7-4-2-2---4-|
A|---2-2-2-2-------|---------------2-|---2-2-2-2-------|---5-4-2-0-2---2-|
E|-----------------|-----------------|-----------------|-----------------|
 |
 |   B A B                         B5    B A B             D     A E   B5
E|-----------------|-----------------|-----------------|-----------------|
B|-----------------|-----------------|-----------------|-----------------|
G|---4---4-4-------|---------------4-|---4---4-4-------|---------------4-|
D|---4-2-4-4-------|---------------4-|---4-2-4-4-------|---7-7-4-2-2---4-|
A|---2-0-2-2-------|---------------2-|---2-0-2-2-------|---5-4-2-0-2---2-|
E|-----------------|-----------------|-----------------|-----------0-----|

     B E B                         B5    B E B             D     A E   B5
E|-----------------|-----------------|-----------------|-----------------|
B|-----------------|-----------------|-----------------|-----------------|
G|---4---4-4-------|---------------4-|---4---4-4-------|---------------4-|
D|---4-2-4-4-------|---------------4-|---4-2-4-4-------|---7-7-4-2-2---4-|
A|---2-2-2-2-------|---------------2-|---2-2-2-2-------|---5-4-2-0-2-----|
E|-----------------|-----------------|-----------------|-----------------|
 |
 |   B A B                         B5    B A B             D     A E   B5
E|-----------------|-----------------|-----------------|-----------------|
B|-----------------|-----------------|-----------------|-----------------|
G|---4---4-4-------|---------------4-|---4---4-4-------|---------------4-|
D|---4-2-4-4-------|---------------4-|---4-2-4-4-------|---7-7-4-2-2---4-|
A|---2-0-2-2-------|---------------2-|---2-0-2-2-------|---5-4-2-0-2---2-|
E|-----------------|-----------------|-----------------|-----------0-----|

     B A E B                       B5    B A E B           D     A E   B5
E|-----------------|-----------------|-----------------|-----------------|
B|-----------------|-----------------|-----------------|-----------------|
G|---4-2-1-4-------|---------------4-|---4-2-1--6pb7r6-|---------------4-|
D|---4-2-2-4-------|---------------4-|---4-2-2-4------9|---7-7-4-2-2---4-|
A|---------2-------|-----------------|---------2-------|---5-4-2-0-2---2-|
E|-----------------|-----------------|-----------------|-----------------|
 |
 |   B A B                         B5    B A B             D     A E   B5
E|-----------------|-----------------|-----------------|-----------------|
B|-----------------|-----------------|-----------------|-----------------|
G|---4---4-4-------|---------------4-|---4---4-4-------|---------------4-|
D|---4-2-4-4-------|---------------4-|---4-2-4-4-------|---7-7-4-2-2---4-|
A|---2-0-2-2-------|---------------2-|---2-0-2-2-------|---5-4-2-0-2---2-|
E|-----------------|-----------------|-----------------|-----------0-----|

     B A E B                       B5    B A E B           D     A E   E5
E|-----------------|-----------------|-----------------|-----------------|
B|-----------------|-----------------|-----------------|-----------------|
G|---4-2-1-4-------|---------------4-|---4-2-1--6pb7r6-|-----------------|
D|---4-2-2-4-------|---------------4-|---4-2-2-4------9|---7-7-4-2-2---2-|
A|---------2-------|-----------------|---------2-------|---5-4-2-0-2---2-|
E|-----------------|-----------------|-----------------|---------------0-|
 |
 |   B A B                         B5    B A B             D     A E   E5
E|-----------------|-----------------|-----------------|-----------------|
B|-----------------|-----------------|-----------------|-----------------|
G|---4---4-4-------|---------------4-|---4---4-4-------|-----------------|
D|---4-2-4-4-------|---------------4-|---4-2-4-4-------|---7-7-4-2-2---2-|
A|---2-0-2-2-------|---------------2-|---2-0-2-2-------|---5-4-2-0-2---2-|
E|-----------------|-----------------|-----------------|-----------0---0-|

Pre Chorus 2:

                 E5                                  A5                B5
E|-----------------|-----------------|-----------------|-----------------|
B|-----------------|-----------------|-----------------|-----------------|
G|-----------------|-----------------|---------------2-|---------------4-|
D|---------------2-|---------------2-|---------------2-|---------------4-|
A|---------------2-|---------------2-|---------------0-|---------------2-|
E|---------------0-|---------------0-|-----------------|-----------------|
 |
 |               E5                                 A5                 B5
E|-----------------|-----------------|-----------------|-----------------|
B|-----------------|-----------------|-----------------|-----------------|
G|-----------------|-----------------|---------------2-|---------------4-|
D|---------------2-|---------------2-|---------------2-|---------------4-|
A|---------------2-|---------------2-|---------------0-|---------------2-|
E|---------------0-|---------------0-|-----------------|-----------------|

Chorus 2:

     B E B             D     A E   B5    B E B              D    A E   B5
E|-----------------|-----------------|-----------------|-----------------|
B|-----------------|-----------------|-----------------|-----------------|
G|---4---4-4-------|---------------4-|---4---4-4-------|---------------4-|
D|---4-2-4-4-------|---7-7-4-2-2---4-|---4-2-4-4-------|---7-7-4-2-2---4-|
A|---2-2-2-2-------|---5-4-2-0-2---2-|---2-2-2-2-------|---5-4-2-0-2---2-|
E|-----------------|-----------------|-----------------|-----------------|
 |
 |   B D B             D     A E   B5    B A B             D     A E   B5
E|-----------------|-----------------|-----------------|-----------------|
B|-----------------|-----------------|-----------------|-----------------|
G|---4---4-4-------|---------------4-|---4---4-4-------|---------------4-|
D|---4-2-4-4-------|---7-7-4-2-2---4-|---4-2-4-4-------|---7-7-4-2-2---4-|
A|---2-0-2-2-------|---5-4-2-0-2---2-|---2-0-2-2-------|---5-4-2-0-2---2-|
E|-----------------|-----------0-----|-----------------|-----------0-----|
 |
 | Guitar 3
E|---------------7-|-7-----7-7-------|---------------7-|-7-----7-7-------|
B|-------------7-7-|-7---7-7-7-7-----|-------------7-7-|-7---7-7-7-7-----|
G|-----------9b----|---9b------9b----|-----------9b----|---9b------9b----|
D|-----------------|-----------------|-----------------|-----------------|
A|-----------------|-----------------|-----------------|-----------------|
E|-----------------|-----------------|-----------------|-----------------|

     B E B             D     A E   B5    B A E B           B A E B     B5
E|-----------------|-----------------|-----------------|-----------------|
B|-----------------|-----------------|-----------------|-----------------|
G|---4---4-4-------|---------------4-|---4-2-1-4-------|---4-2-1-4-----4-|
D|---4-2-4-4-------|---7-7-4-2-2---4-|---4-2-2-4-------|---4-2-2-4-----4-|
A|---2-2-2-2-------|---5-4-2-0-2---2-|---2-0-2-2-------|---2-0-2-2-----2-|
E|-----------------|-----------------|-----------------|-----------------|
 |
 |   B A B             D     A E   B5     B A B            B A B       B5
E|-----------------|-----------------|-----------------|-----------------|
B|-----------------|-----------------|-----------------|-----------------|
G|---4---4-4-------|---------------4-|---4---4-4-----4-|---4---4-4-----4-|
D|---4-2-4-4-------|---7-7-4-2-2---4-|---4-2-4-4-----4-|---4-2-4-4-----4-|
A|---2-0-2-2-------|---5-4-2-0-2---2-|---2-0-2-2-----2-|---2-0-2-2-----2-|
E|-----------------|-----------0-----|-----------------|-----------------|
 |
 |
E|---------------7-|-7-----7-7-------|-------------7---|-------------7-5-|
B|-------------7-7-|-7---7-7-7-7-----|-------------7---|-------------7-5-|
G|-----------9b----|---9b------9b----|-----------9b----|-----------9b----|
D|-----------------|-----------------|-----------------|-----------------|
A|-----------------|-----------------|-----------------|-----------------|
E|-----------------|-----------------|-----------------|-----------------|

     B A E B     D5        E5      B5
E|-----------------|-----------------|
B|---------------3-|---3-3-----------|
G|---4-2-1-4-----2-|---2-2---------4-|
D|---4-2-2-4-----0-|---0-0-2-2-2-2-4-|
A|---2-0-2-2-------|-------2-2-2-2-2-|
E|-----------------|-------0-0-0-0---|
 |
 |   B A B       D         E5      B5
E|-----------------|-----------------|
B|---------------3-|---3-3-----------|
G|---4---4-4-----2-|---2-2---------4-|
D|---4-2-4-4-----0-|---0-0-2---2-2-4-|
A|---2-0-2-2-----0-|---0-0-2---2-2-2-|
E|-----------------|-------0---0-0---|
 |
 |
E|---5-4/5-7-7-7-7-|----10b--10-10---|
B|-----------------|-7---9b--9b-9b---|
G|-----------------|---9-------------|
D|-----------------|-----------------|
A|-----------------|-----------------|
E|-----------------|-----------------|

Guitar Solo:

Angus (Overdub):

    P.H.                                  P.H.
E|----------------------------------------------|
B|--------------------5-3~~~~-------------------|
G|-4-4~~~~~---7b--4p2----------------2-2-4-4~~~~|
D|----------------------------------------------|
A|----------------------------------------------|
E|---------------------------10\\\\\------------|

E|----------------------------------------------|
B|-7----10----10-7-10-7-------------------------|
G|-7--9b11-----9-7--9-7----7b-4--x-2-2~~~~~-----|
D|----------------------------------------------|
A|----------------------------------------------|
E|----------------------------------------------|

E|------------------------------------|
B|------------------------------------|
G|----7---7~~~~----7-7---2-2-2-4~~~~\-|
D|-/9-----------/9--------------------|
A|------------------------------------|
E|------------------------------------|

E|-7-7~~~~----------------|----------------12b14~~~----------------------|
B|--------10-10~~~~~-10\--|-------12-12-12---------15b17--15b17~~~~~~~-\-|
G|------------------------|-14b16----------------------------------------|
D|------------------------|----------------------------------------------|
A|------------------------|----------------------------------------------|
E|------------------------|----------------------------------------------|

Angus and Malcolm (Rhythm):

     B E B       B5    B E B       B5    B E B       B5        E
E|-----------------|-----------------|-----------------|-----------------|
B|-----------------|-----------------|-----------------|-----------------|
G|---4---4-4-----4-|---4---4-4-----4-|---4---4-4-----4-|-------1---------|
D|---4-2-4-4-----4-|---4-2-4-4-----4-|---4-2-4-4-----4-|-------2---------|
A|---2-2-2-2-----2-|---2-2-2-2-----2-|---2-2-2-2-----2-|-------2---------|
E|-----------------|-----------------|-----------------|-------0---------|
 |
 |   B A B       B5    B A B       B5    B A B       B5        E5
E|-----------------|-----------------|-----------------|-----------------|
B|-----------------|-----------------|-----------------|-----------------|
G|---4---4-4-----4-|---4---4-4-----4-|---4---4-4-----4-|-----------------|
D|---4-2-4-4-----4-|---4-2-4-4-----4-|---4-2-4-4-----4-|-------2---------|
A|---2-0-2-2-----2-|---2-0-2-2-----2-|---2-0-2-2-----2-|-------2---------|
E|-----------------|-----------------|-----------------|-------0---------|

    B E B       B5    B E B       B5    B E B        D5       E        A5
E|-----------------|-----------------|-----------------|-----------------|
B|-----------------|-----------------|---------------3-|-----------------|
G|---4---4-4-----4-|---4---4-4-----4-|---4---4-4-----2-|-------1-------2-|
D|---4-2-4-4-----4-|---4-2-4-4-----4-|---4-2-4-4-----0-|-------2-------2-|
A|---2-2-2-2-----2-|---2-2-2-2-----2-|---2-2-2-2-------|-------2-------0-|
E|-----------------|-----------------|-----------------|-------0---------|
 |
 |   B A B       B5    B A B       B5    B A B       D5        E5      A5
E|-----------------|-----------------|-----------------|-----------------|
B|-----------------|-----------------|---------------3-|-----------------|
G|---4---4-4-----4-|---4---4-4-----4-|---4---4-4-----2-|---------------2-|
D|---4-2-4-4-----4-|---4-2-4-4-----4-|---4-2-4-4-----0-|-------2-------2-|
A|---2-0-2-2-----2-|---2-0-2-2-----2-|---2-0-2-2-------|-------2-------0-|
E|-----------------|-----------------|-----------------|-------0---------|

         E5
E|-----------------|
B|-----------------|
G|-----------------|
D|-------2---------|
A|-------2---------|
E|-------0---------|
 |
 |       E5
E|-----------------|
B|-----------------|
G|-----------------|
D|-------2---------|
A|-------2---------|
E|-------0---------|

Bridge:

                     A5    B5                            A5    E5
E|-----------------|-----------------|-----------------|-----------------|
B|-----------------|-----------------|-----------------|-----------------|
G|-----------------|-2-----4---------|-----------------|-2---------------|
D|-----------------|-2-----4---------|-----------------|-2-----2---------|
A|-----------------|-0-----2---------|-----------------|-0-----2---------|
E|-----------------|-----------------|-----------------|-------0---------|
 |
 |                   A5    B5                            A5    B5
E|-----------------|-----------------|-----------------|-----------------|
B|-----------------|-----------------|-----------------|-----------------|
G|-----------------|-2-----4---------|-----------------|-2---------------|
D|-----------------|-2-----4---------|-----------------|-2-----2---------|
A|-----------------|-0-----2---------|-----------------|-0-----2---------|
E|-----------------|-----------------|-----------------|-------0---------|
 |
 |
E|-----------------|-----------------|-----------------|-10--------------|
B|-----------------|-----------------|-----------------|-9b----12~~~~----|
G|-----------------|-----------------|-----------------|-----------------|
D|-----------------|-----------------|-----------------|-----------------|
A|-----------------|-----------------|-----------------|-----------------|
E|-----------------|-----------------|-----------------|-----------------|

                    /      x2        \
                 B       A E B                             E
E|-----------------|-----------------|-----------------|-----------------|
B|-----------------|-----------------|-----------------|-----------------|
G|---------------4-|---4-2-1-------4-|---4-2-1--6pb7r6-|---1-1---1-1-1-1-|
D|---------------4-|---4-2-2-4-----4-|---4-2-2-4------9|---2-2---2-2-2-2-|
A|-----------------|---------2-------|---------2-------|---2-2---2-2-2-2-|
E|-----------------|-----------------|-----------------|---0-0---0-0-0-0-|
 |
 |
E|-----------------|-----------------|-----------------|-----------------|
B|-----------------|-----------------|-----------------|-----------------|
G|---------------4-|---4-2-1-4-----4-|---4-2-1-4-------|---------------4-|
D|---------------4-|---4-2-2-4-----4-|---4-2-2-4-------|-2-2-2-2-2-2-2-4-|
A|---------------2-|---------2-----2-|---------2-------|-2-2-2-2-2-2-2-2-|
E|-----------------|-----------------|-----------------|-0-0-0-0-0-0-0---|
 |
 |
E|-----------------|-----------------|-----------------|-----------------|
B|-----------------|-----------------|-----------------|-----------------|
G|-----------------|-----------------|-----------------|-----------------|
D|-----------------|----------------­-|-----------------|---x\\\\\\-------|
A|-----------------|-----------------|-----------------|---x\\\\\\-------|
E|-----------------|-----------------|-----------------|---x\\\\\\-------|

Play chorus until end of song. But Guitar 3 does some variations for a little
outro solo.

  3:00
                                                                Hold Bend
E|---10h12-13pb15r13-10--------17-------17--------17--------17-17-17-17-|
B|-12-------------------17b19-----17b19-----17b19-----17b19----17-17-17-|
G|----------------------------------------------------------------------|
D|----------------------------------------------------------------------|
A|----------------------------------------------------------------------|
E|----------------------------------------------------------------------|

E|--------------14---14---14---14------------14------------|----------------|
B|-15-12~~~-\---15b--15b--15b--15b-----------15b-----------|-15b------------|
G|----------------------------------16~~~~~\------16~~~~~\-|------14p0-14~~~|
D|---------------------------------------------------------|----------------|
A|---------------------------------------------------------|-------------10\|
E|---------------------------------------------------------|----------------|

E|-------17-------17-------17-------17----------------------7---7-5-7-7-|
B|-17b19----17b19----17b19----17b19----17b19-17-15h17p15----------------|
G|----------------------------------------------------------------------|
D|----------------------------------------------------------------------|
A|----------------------------------------------------------------------|
E|----------------------------------------------------------------------|



[0800] Wheels
Standard Tuning


Intro:

                     A     D     A5                      A     D     A5
E|-----------------|-----------------|-----------------|-----------------|
B|-----------------|-----------------|-----------------|-----------------|
G|-----------------|-------2-----2---|-----------------|-------2-----2---|
D|-----------------|-2---2-0-----2---|-----------------|-2---2-0-----2---|
A|-----------------|-0/4---------0---|-----------------|-0/4---------0---|
E|-----------------|-----------------|-----------------|-----------------|
 |
 | C A   C A         A     D     A     C A   C A         A     D     A5
E|-----------------|-----------------|-----------------|-----------------|
B|-----------------|-----------------|-----------------|-----------------|
G|-----------------|-------2---------|-----------------|-------2-----2---|
D|-2-2-2-2-2-------|-2---2-0-----2---|-2-2-2-2-2-------|-2---2-0-----2---|
A|-3-0-0-3-0-------|-0/4-------0-0---|-3-0-0-3-0-------|-0/4-------0-0---|
E|-----------------|-----------------|-----------------|-----------------|

Hold last chord for one more bar.

Verse 1:

                                                                       A5
E|-----------------|-----------------|-----------------|-----------------|
B|-----------------|-----------------|-----------------|-----------------|
G|-----------------|-----------------|-----------------|---------------2-|
D|-----------------|-----------------|-----------------|---------------2-|
A|-----------------|-----------------|-----------------|---------------0-|
E|-----------------|-----------------|-----------------|-----------------|
 |
 | D5                        D5        P.M.---|                  D5    A
E|-----------------|-----------------|-----------------|-----------------|
B|-3---------------|---------3-----3-|---3-----3-------|---------3-------|
G|-2---------------|---------2-----2-|---2-----2-------|---------2-------|
D|-0---------------|---------0-----0-|---0-0-0-0-------|---------0-----2-|
A|-----------------|-3-2-0-----------|-----------------|-3-2-0---------0-|
E|-----------------|-------2---------|-----------------|-------2---------|

     A5                      A5          A     A5                A5    D5
E|-----------------|-----------------|-----------------|-----------------|
B|-----------------|-----------------|---2-------------|---------------3-|
G|---2-----2-------|---------2-----2-|---2-----2-------|---------2-----2-|
D|---2-----2-------|---------2-----2-|---2-----2-------|---------2-----0-|
A|---0-----0-------|---------0-----0-|---0-----0-------|---------0-------|
E|-----------------|-3-2-0-3---------|-----------------|-3-2-0-3---------|
 |
 |   A5                            A5                            A5    D
E|-----------------|-----------------|-----------------|-----------------|
B|-----------------|-----------------|-----------------|---------------3-|
G|---2-----2-------|---------------2-|---2-----2-------|---------2-----2-|
D|---2-----2-------|---------2-----2-|---2-----2-----2-|---------2-----0-|
A|---0-----0-----0-|---------0-----0-|---0-----0-----0-|---------0-----0-|
E|-----------------|-3-2-0-3---------|-----------------|-3-2-0-3---------|
 |
 | Guitar 3, Angus, Overdub, 80% left
E|---5-----5-------|---5-----5-------|---5-----5-------|---5-----5-------|
B|---5-----5-------|---5-----5-------|---5-----5-------|---5-----5-------|
G|-----------------|---------6-------|---6-------------|-----------------|
D|-----------------|-----------------|-----------------|-----------------|
A|-----------------|-----------------|-----------------|-----------------|
E|-----------------|-----------------|-----------------|-----------------|

     D5                      D5                                  D5    E
E|-----------------|-----------------|-----------------|-----------------|
B|---3-----3-------|---------3-----3-|---3-----3-------|---------3-------|
G|---2-----2-------|---------2-----2-|---2-----2-------|---------2-----1-|
D|---0-----0-------|---------0-----0-|---0-----0-------|---------0-----2-|
A|-----------------|-3-2-0-----------|-----------------|-3-2-0---------2-|
E|-----------------|-------2---------|-----------------|-------2-------0-|
 |
 | P.M.---|                  D5        P.M.---|      D5    E
E|-----------------|-----------------|-----------------|-----------------|
B|---3-----3-------|---------3-----3-|---3-----3-------|---------3-------|
G|---2-----2-----2-|---------2-----2-|---2-----2-----2-|---------2-----9-|
D|---0-0-0-0-----0-|---------0-----0-|---0-0-0-0-----0-|---------0-----9-|
A|-----------------|-3-2-0-----------|-----------------|-3-2-0---------7-|
E|-----------------|-------2---------|-----------------|-------2-------0-|

     E
E|-----------------|                 |-----------------|
B|-----------------|                 |-----------------|
G|---1-----1-----1-|                 |---1-1-1-1-1-1-1-|
D|---2---2-2-----2-|                 |---2-2-2-2-2-2-2-|
A|---2---2-2-----2-|                 |---2-2-2-2-2-2-2-|
E|---0---0-0-----0-|                 |---0-0-0-0-0-0-0-|
 |                                   |
 |   E                               |
E|-----------------|                 |-----------------|
B|-----------------|                 |-----------------|
G|---9---9-9-----9-|       x3        |---9-9-9-9-9-9-9-|
D|---9---9-9-----9-|                 |---9-9-9-9-9-9-9-|
A|---7---7-7-----7-|                 |---7-7-7-7-7-7-7-|
E|---0---0-0-----0-|                 |---0-0-0-0-0-0-0-|
 |                                   |
 |                                   |
E|---12----12------|                 |---12----12------|
B|---12----12---12-|                 |---12----12------|
G|---14----14---14-|                 |---14----14------|
D|-----------------|                 |-----------------|
A|-----------------|                 |-----------------|
E|-----------------|                 |-----------------|

Chorus 1:

   A5            C5        D5      E5                D5
E|-----------------|-----------------|-----------------|-----------------|
B|-----------------|-------3---------|---------------3-|---3-3---3-3-3---|
G|-2---2---2-2-2-5-|---5---2---2-2---|---------------2-|---2-2---2-2-2---|
D|-2---2---2-2-2-5-|---5---0---0-0-2-|---2-2---2---2-0-|---0-0---0-0-0---|
A|-0---0---0-0-0-3-|---3-----------2-|---2-2---2---2---|-----------------|
E|-----------------|---------------0-|---0-0---0---0---|-----------------|
 |
 | A5            C5        D5      E                 D5
E|-----------------|-----------------|-----------------|-----------------|
B|-----------------|-----------------|-----------------|-----------------|
G|-2---2---2-----5-|---5---7---7---9-|---9-9---9-9-9-7-|---7-7---7---7---|
D|-2---2---2---2-5-|---5---7---7---9-|---9-9---9-9-9-7-|---7-7---7---7---|
A|-0---0---0---0-3-|---3---5---5---7-|---7-7---7-7-7-5-|---5-5---5---5---|
E|-----------------|---------------0-|---0-0---0-0-0---|-----------------|
 |
 |
E|-----------------|-----------------|-----------------|---5-----5-------|
B|----10~~~~~------|-----------------|-----------------|---5-----5-------|
G|-12b14~~~~~------|-----------------|-----------------|-----------------|
D|-----------------|-----------------|-----------------|-----------------|
A|-----------------|-----------------|-----------------|-----------------|
E|-----------------|-----------------|-----------------|-----------------|

   A5            C5        D5      E5                D5
E|-----------------|-----------------|-----------------|-----------------|
B|-----------------|-------3---------|---------------3-|---3-3---3-3-3---|
G|-2---2---2-2-2-5-|---5---2---2-2---|---------------2-|---2-2---2-2-2---|
D|-2---2---2-2-2-5-|---5---0---0-0-2-|---2-2---2---2-0-|---0-0---0-0-0---|
A|-0---0---0-0-0-3-|---3-----------2-|---2-2---2---2---|-----------------|
E|-----------------|---------------0-|---0-0---0---0---|-----------------|
 |
 | A5            C5        D5      E                 D5
E|-----------------|-----------------|-----------------|-----------------|
B|-----------------|-----------------|-----------------|-----------------|
G|-2---2---2-----5-|---5---7---7---9-|---9-9---9-------|---7-7---7-------|
D|-2---2---2---2-5-|---5---7---7---9-|---9-9---9-----7-|---7-7---7---7-7-|
A|-0---0---0---0-3-|---3---5---5---7-|---7-7---7-8-9-5-|---5-5---5---5-5-|
E|-----------------|---------------0-|---0-0---0-------|-----------------|
 |
 |
E|-----------------|-----------------|-----------------|---5-----5-------|
B|----10~~~~~------|-----------------|-----------------|---5-----5-------|
G|-12b14~~~~~------|-----------------|-----------------|-----------------|
D|-----------------|-----------------|-----------------|-----------------|
A|-----------------|-----------------|-----------------|-----------------|
E|-----------------|-----------------|-----------------|-----------------|

Pre Verse 2:

   A     D     A5
E|-----------------|-----------------|
B|-----------------|-----------------|
G|-------2-----2---|-----------------|
D|-2---2-0-----2---|-----------------|
A|-0-4-------0-0---|-----------------|
E|-----------------|-----------------|
 |
 |       D5    A5
E|-----------------|-----------------|
B|-----------------|-----------------|
G|-------2---------|-----------------|  x2
D|-----2-0-----2---|-----------------|
A|-0-4-------0-0---|-----------------|
E|-----------------|-----------------|
 |
 |
E|---5-----5-------|-8-5-5-8-5-------|
B|---5-----5-------|-8-5-5-8-5-------|
G|-----------------|-----------------|
D|-----------------|-----------------|
A|-----------------|-----------------|
E|-----------------|-----------------|

Verse 2:

   D5                        D5                                  D5    A5
E|-----------------|-----------------|-----------------|-----------------|
B|-3---------------|---------3-----3-|---3-----3-------|---------3-------|
G|-2---------------|---------2-----2-|---2-----2-------|---------2-----2-|
D|-0---------------|---------0-----0-|---0-----0-------|---------0-----2-|
A|-----------------|-3-2-0-----------|-----------------|-3-2-0---------0-|
E|-----------------|-------2---------|-----------------|-------2---------|
 |
 |                           D5        P.M.---|       D5    A5
E|-----------------|-----------------|-----------------|-----------------|
B|---3-------------|---------3-----3-|---3-----3-------|---------3-------|
G|---2-------------|---------2-----2-|---2-----2-----2-|---------2-----2-|
D|---0-------------|---------0-----0-|---0-0-0-0-----0-|---------0-----2-|
A|-----------------|-3-2-0-----------|-----------------|-3-2-0---------0-|
E|-----------------|-------2---------|-----------------|-------2---------|


     A5                      A5          A     A5                A5    D5
E|-----------------|-----------------|-----------------|-----------------|
B|-----------------|-----------------|---2-------------|---------------3-|
G|---2-----2-------|---------2-----2-|---2-----2-------|---------2-----2-|
D|---2-----2-------|---------2-----2-|---2-----2-------|---------2-----0-|
A|---0-----0-------|---------0-----0-|---0-----0-------|---------0-------|
E|-----------------|-3-2-0-3---------|-----------------|-3-2-0-3---------|
 |
 |   A5                            A5                            A5    D
E|-----------------|-----------------|-----------------|-----------------|
B|-----------------|-----------------|-----------------|---------------3-|
G|---2-----2-------|---------------2-|---2-----2-------|---------2-----2-|
D|---2-----2-------|---------2-----2-|---2-----2-----2-|---------2-----0-|
A|---0-----0-----0-|---------0-----0-|---0-----0-----0-|---------0-----0-|
E|-----------------|-3-2-0-3---------|-----------------|-3-2-0-3---------|
 |
 |
E|-----------------|---5-----5-------|-----------------|---5-----5-------|
B|-----10~~~~~~7---|---5-----5-------|-----10~~~~~~7---|---5-----5-------|
G|-----------------|---------6-------|-----------------|-----------------|
D|-----------------|-----------------|-----------------|-----------------|
A|-----------------|-----------------|-----------------|-----------------|
E|-----------------|-----------------|-----------------|-----------------|

     D5                      D5                                  D5    E
E|-----------------|-----------------|-----------------|-----------------|
B|---3-----3-------|---------3-----3-|---3-----3-------|---------3-------|
G|---2-----2-------|---------2-----2-|---2-----2-------|---------2-----1-|
D|---0-----0-------|---------0-----0-|---0-----0-------|---------0-----2-|
A|-----------------|-3-2-0-----------|-----------------|-3-2-0---------2-|
E|-----------------|-------2---------|-----------------|-------2-------0-|
 |
 | P.M.---|                  D5        P.M.---|     D5    E
E|-----------------|-----------------|-----------------|-----------------|
B|---3-----3-------|---------3-----3-|---3-----3-------|---------3-------|
G|---2-----2-----2-|---------2-----2-|---2-----2-----2-|---------2-----9-|
D|---0-0-0-0-----0-|---------0-----0-|---0-0-0-0-----0-|---------0-----9-|
A|-----------------|-3-2-0-----------|-----------------|-3-2-0---------7-|
E|-----------------|-------2---------|-----------------|-------2-------0-|

     E
E|-----------------|                 |-----------------|
B|-----------------|                 |-----------------|
G|---1-----1-----1-|                 |---1-1-1-1-1-1-1-|
D|---2---2-2-----2-|                 |---2-2-2-2-2-2-2-|
A|---2---2-2-----2-|                 |---2-2-2-2-2-2-2-|
E|---0---0-0-----0-|                 |---0-0-0-0-0-0-0-|
 |                                   |
 |   E                               |
E|-----------------|                 |-----------------|
B|-----------------|                 |-----------------|
G|---9---9-9-----9-|       x3        |---9-9-9-9-9-9-9-|
D|---9---9-9-----9-|                 |---9-9-9-9-9-9-9-|
A|---7---7-7-----7-|                 |---7-7-7-7-7-7-7-|
E|---0---0-0-----0-|                 |---0-0-0-0-0-0-0-|
 |                                   |
 |                                   |
E|---12----12------|                 |---12----12------|
B|---12----12---12-|                 |---12----12------|
G|---14----14---14-|                 |---14----14------|
D|-----------------|                 |-----------------|
A|-----------------|                 |-----------------|
E|-----------------|                 |-----------------|

Chorus 2:

   A5            C5        D5      E5                D5
E|-----------------|-----------------|-----------------|-----------------|
B|-----------------|-------3---------|---------------3-|---3-3---3-3-3---|
G|-2---2---2-2-2-5-|---5---2---2-2---|---------------2-|---2-2---2-2-2---|
D|-2---2---2-2-2-5-|---5---0---0-0-2-|---2-2---2---2-0-|---0-0---0-0-0---|
A|-0---0---0-0-0-3-|---3-----------2-|---2-2---2---2---|-----------------|
E|-----------------|---------------0-|---0-0---0---0---|-----------------|
 |
 | A5            C5        D5      E                 D5
E|-----------------|-----------------|-----------------|-----------------|
B|-----------------|-----------------|-----------------|-----------------|
G|-2---2---2-----5-|---5---7---7---9-|---9-9---9-9-9-7-|---7-7---7---7---|
D|-2---2---2---2-5-|---5---7---7---9-|---9-9---9-9-9-7-|---7-7---7---7---|
A|-0---0---0---0-3-|---3---5---5---7-|---7-7---7-7-7-5-|---5-5---5---5---|
E|-----------------|---------------0-|---0-0---0-0-0---|-----------------|
 |
 |
E|-----------------|---5-----5-----5-|-----------------|---5-----5-----5-|
B|----10~~~~~------|---5-----5--7b9--|-----------------|---5-----5--7b9--|
G|-12b14~~~~~------|-----------------|-----------------|-----------------|
D|-----------------|-----------------|-----------------|-----------------|
A|-----------------|-----------------|-----------------|-----------------|
E|-----------------|-----------------|-----------------|-----------------|


   A5            C5        D5      E5                D5
E|-----------------|-----------------|-----------------|-----------------|
B|-----------------|-------3---------|---------------3-|---3-3---3-3-3---|
G|-2---2---2-2-2-5-|---5---2---2-2---|---------------2-|---2-2---2-2-2---|
D|-2---2---2-2-2-5-|---5---0---0-0-2-|---2-2---2---2-0-|---0-0---0-0-0---|
A|-0---0---0-0-0-3-|---3-----------2-|---2-2---2---2---|-----------------|
E|-----------------|---------------0-|---0-0---0---0---|-----------------|
 |
 | A5            C5        D5      E                 D5
E|-----------------|-----------------|-----------------|-----------------|
B|-----------------|-----------------|-----------------|-----------------|
G|-2---2---2-----5-|---5---7---7---9-|---9-9---9-----7-|---7-7---7---7---|
D|-2---2---2---2-5-|---5---7---7---9-|---9-9---9-----7-|---7-7---7---7---|
A|-0---0---0---0-3-|---3---5---5---7-|---7-7---7-8-9-5-|---5-5---5---5---|
E|-----------------|---------------0-|---0-0---0-------|-----------------|
 |
 |
E|-----------------|---5-----5-----5-|-----------------|---5-----5-----5-|
B|----10~~~~~------|---5-----5--7b9--|-----------------|---5-----5--7b9--|
G|-12b14~~~~~------|-----------------|-----------------|-----------------|
D|-----------------|-----------------|-----------------|-----------------|
A|-----------------|-----------------|-----------------|-----------------|
E|-----------------|-----------------|-----------------|-----------------|

   A5            C5        D5      E5                D5
E|-----------------|-----------------|-----------------|-----------------|
B|-----------------|-------3---------|---------------3-|---3-3---3-3-3---|
G|-2---2---2-2-2-5-|---5---2---2-2---|---------------2-|---2-2---2-2-2---|
D|-2---2---2-2-2-5-|---5---0---0-0-2-|---2-2---2---2-0-|---0-0---0-0-0---|
A|-0---0---0-0-0-3-|---3-----------2-|---2-2---2---2---|-----------------|
E|-----------------|---------------0-|---0-0---0---0---|-----------------|
 |
 | A5            C5        D5      E                 D5
E|-----------------|-----------------|-----------------|-----------------|
B|-----------------|-----------------|-----------------|-----------------|
G|-2---2---2-----5-|---5---7---7---9-|---9-9---9-9-9-7-|---7-7---7---7---|
D|-2---2---2---2-5-|---5---7---7---9-|---9-9---9-9-9-7-|---7-7---7---7---|
A|-0---0---0---0-3-|---3---5---5---7-|---7-7---7-7-7-5-|---5-5---5---5---|
E|-----------------|---------------0-|---0-0---0-0-0---|-----------------|
 |
 |
E|-----------------|---5-----5-----5-|-----------------|---5-----5-----5-|
B|----10~~~~~------|---5-----5--7b9--|-----------------|---5-----5--7b9--|
G|-12b14~~~~~------|-----------------|-----------------|-----------------|
D|-----------------|-----------------|-----------------|-----------------|
A|-----------------|-----------------|-----------------|-----------------|
E|-----------------|-----------------|-----------------|-----------------|

   A5            C5        D5      E5                D5
E|-----------------|-----------------|-----------------|-----------------|
B|-----------------|-------3---------|---------------3-|---3-3---3-3-3---|
G|-2---2---2-2-2-5-|---5---2---2-2---|---------------2-|---2-2---2-2-2---|
D|-2---2---2-2-2-5-|---5---0---0-0-2-|---2-2---2---2-0-|---0-0---0-0-0---|
A|-0---0---0-0-0-3-|---3-----------2-|---2-2---2---2---|-----------------|
E|-----------------|---------------0-|---0-0---0---0---|-----------------|
 |
 | A5            C5        D5      E                 D5
E|-----------------|-----------------|-----------------|-----------------|
B|-----------------|-----------------|-----------------|-----------------|
G|-2---2---2-----5-|---5---7---7---9-|---9-9---9-----7-|---7-7---7---7---|
D|-2---2---2---2-5-|---5---7---7---9-|---9-9---9-----7-|---7-7---7---7---|
A|-0---0---0---0-3-|---3---5---5---7-|---7-7---7-8-9-5-|---5-5---5---5---|
E|-----------------|---------------0-|---0-0---0-------|-----------------|
 |
 |
E|-----------------|---5-----5-----5-|-----------------|---5-----5-----5-|
B|----10~~~~~------|---5-----5--7b9--|-----------------|---5-----5--7b9--|
G|-12b14~~~~~------|-----------------|-----------------|-----------------|
D|-----------------|-----------------|-----------------|-----------------|
A|-----------------|-----------------|-----------------|-----------------|
E|-----------------|-----------------|-----------------|-----------------|

Guitar 3 plays some slight variations, but not large enough to be worth
tabbing.


Bridge:

   A     D     A5
E|-----------------|-----------------|
B|-----------------|-----------------|
G|-------2-----2---|-----------------|
D|-2---2-0-----2---|-----------------|
A|-0-4-------0-0---|-----------------|
E|-----------------|-----------------|
 |
 |       D5    A5
E|-----------------|-----------------|
B|-----------------|-----------------|
G|-------2---------|-----------------|  x2
D|-----2-0-----2---|-----------------|
A|-0-4-------0-0---|-----------------|
E|-----------------|-----------------|
 |
 |
E|---5-----5-------|-8-5-5-8-5-------|
B|---5-----5-------|-8-5-5-8-5-------|
G|-----------------|-----------------|
D|-----------------|-----------------|
A|-----------------|-----------------|
E|-----------------|-----------------|

Guitar Solo:

Angus (Overdub):

E|--------------------------------------------|
B|-10~~~~~~12~~~~~~13~~~~~~13~~~13-13---------|
G|-11~~~~~~12~~~~~~14~~~~~~14~~~14-14---------|
D|--------------------------------------------|
A|--------------------------------------------|
E|------------------------------------15\\\\--|

E|---------------------------------------|
B|-10~~~~~~12~~~~~~13~~~~~~13---13-13~~~\|
G|-11~~~~~~12~~~~~~14~~~~~~14---14-14~~~\|
D|---------------------------------------|
A|---------------------------------------|
E|---------------------------------------|

E|-------------17---------------------------------------------------|
B|-20b22----------20b22~~~~~~~~\---19pb20--r17----17-----15---------|
G|-------------------20~~~~~~~~\---------------19---x-17----14-17~~~|
D|------------------------------------------------------------------|
A|------------------------------------------------------------------|
E|------------------------------------------------------------------|

E|------------------------------------------------------------------|
B|-------13\\\------13----15----13h15---15b17r15-13~~~~~------10-10-|
G|-14p12---------------14----14-------------------------------11-11-|
D|------------------------------------------------------------------|
A|-----------------------------------------------------13\\\--------|
E|------------------------------------------------------------------|

E|---------------------------------------|
B|-10~~~~~~12~~~~~~13~~~~~~13---13-13~~~\|
G|-11~~~~~~12~~~~~~14~~~~~~14---14-14~~~\|
D|---------------------------------------|
A|---------------------------------------|
E|---------------------------------------|

       T.P. -------------------------------|
E|-12-12-------14------15----14----\\\\\---|
B|-----------------------------------------|
G|-----------------------------------------|
D|-----------------------------------------|
A|-----------------------------------------|
E|-----------------------------------------|

(About this next bit; I'm still having trouble with it, so if you have
a correction please by all means post it in the comments and I'll put
your name on it in the tab.)

E|-------17-20----20------20-17-20-20-20----20---20---20---|
B|-------17-17-17------20----17-17-17----20-17---17---17---|
G|-17b19---------------------------------------------------|
D|---------------------------------------------------------|
A|---------------------------------------------------------|
E|---------------------------------------------------------|

    T.P.---------------------------------|
E|---------------------------------------|
B|-17---------19---------20--------\-----|
G|-18---------19---------21---------\----|
D|---------------------------------------|
A|---------------------------------------|
E|---------------------------------------|

Angus and Malcolm (Rhythm):

Repeat Verse 2

After the solo, play the chorus figures until 3:03, then:

   A     D     A5
E|-----------------|-----------------|
B|-----------------|-----------------|
G|-------2-----2---|-----------------|
D|-2---2-0-----2---|-----------------|
A|-0-4-------0-0---|-----------------|
E|-----------------|-----------------|
 |
 |       D5    A5
E|-----------------|-----------------|
B|-----------------|-----------------|
G|-------2---------|-----------------|  x4
D|-----2-0-----2---|-----------------|
A|-0-4-------0-0---|-----------------|
E|-----------------|-----------------|
 |
 |
E|---5-----5-------|-8-5-5-8-5-------|
B|---5-----5-------|-8-5-5-8-5-------|
G|-----------------|-----------------|
D|-----------------|-----------------|
A|-----------------|-----------------|
E|-----------------|-----------------|

Outro:

Angus and Malcolm's rhythm tracks both play this riff:

   A     D     A       D     A     D       A     D       A5
E|-----------------|-----------------|-----------------|-----------------|
B|-----------------|-----------------|-----------------|-----------------|
G|-------2---------|---2-----------2-|-----------2-----|-2---------------|
D|-2---2-0-----2---|-2-0-----2---2-0-|-----2---2-0-----|-2---------------|
A|-0-4---------0-4-|---------0-4-----|-----0-4---------|-0---------------|
E|-----------------|-----------------|-----------------|-----------------|

Outro Lick:

E|---------------------------------|
B|-7-------------------------------|
G|-7b9rb9---7-5---7----------------|
D|----------7---5-7--7-7-7~~~~~~~~\|
A|---------------------------------|
E|---------------------------------|


[0900] Decibel
Standard Tuning


Intro: (Angus)

   A
E|-----------------|-----------------|-----------------|-----------------|
B|-----------------|-----------------|-----------------|-----------------|
G|--------------5--|--------------5--|--------------5--|--------------5--|
D|-7-7-5---7---7-7~|---7-5---7---7-7~|-----5---7---7-7~|---7-5---7---7-7~|
A|-0-0-0-0-0-0-----|-0-0-0-0-0-0-----|-0-0-0-0-0-0-----|-0-0-0-0-0-0-----|
E|-----------------|-----------------|-----------------|-----------------|

Verse 1:

   A
E|-----------------|-----------------|-----------------|-----------------|
B|-----------------|-----------------|-----------------|-----------------|
G|-------------75--|-------------75--|-------------75--|-------------75--|
D|-7-7-5-7-7-7---7-|-7-7-5-7-7-7---7-|-7-7-5-7-7-7---7-|-7-7-5-7-7-7---7-|
A|-0-0-0-0-0-0-----|-0-0-0-0-0-0-----|-0-0-0-0-0-0-----|-0-0-0-0-0-0-----|
E|-----------------|-----------------|-----------------|-----------------|
 |
 |  A
E|-----------------|-----------------|-----------------|-----------------|
B|-----------------|-----------------|-----------------|-----------------|
G|--------------5--|--------------5--|--------------5--|--------------5--|
D|-7-7-5---7---7-7~|---7-5---7---7-7~|-----5---7---7-7~|---7-5---7---7-7~|
A|-0-0-0-0-0-0-----|-0-0-0-0-0-0-----|-0-0-0-0-0-0-----|-0-0-0-0-0-0-----|
E|-----------------|-----------------|-----------------|-----------------|

   A                                                                 G A
E|-----------------|-----------------|-----------------|-----------------|
B|-----------------|-----------------|-----------------|-----------------|
G|-------------75--|-------------75--|-------------75--|-----------------|
D|-7-7-5-7-7-7---7-|-7-7-5-7-7-7---7-|-7-7-5-7-7-7---7-|-7-7-5-7-7-7-0-2-|
A|-0-0-0-0-0-0-----|-0-0-0-0-0-0-----|-0-0-0-0-0-0-----|-0-0-0-0-0-0-x-0-|
E|-----------------|-----------------|-----------------|-------------3---|
 |
 |  A                                                                G A
E|-----------------|-----------------|-----------------|-----------------|
B|-----------------|-----------------|-----------------|-----------------|
G|--------------5--|--------------5--|--------------5--|-------------0-2-|
D|-7-7-5---7---7-7~|---7-5---7---7-7~|-----5---7---7-7~|---7-5---7---0-2-|
A|-0-0-0-0-0-0-----|-0-0-0-0-0-0-----|-0-0-0-0-0-0-----|-0-0-0-0-0-0-----|
E|-----------------|-----------------|-----------------|-----------------|

Bridge:

   C5    D5                        C5        D5                      G A
E|-----------------|-----------------|-----------------|-----------------|
B|-------3---------|-----------------|-------3---------|-----------------|
G|-5-----2---------|---------------5-|-------2---------|-----------------|
D|-5-----0---------|---------------5-|-------0---------|-------------0-2-|
A|-3---------------|---------------3-|-----------------|-------------x-0-|
E|-----------------|-------------3---|-----3-----------|-------------3---|
 |
 | C5    D5                        C5        D5                      G A
E|-----------------|-----------------|-----------------|-----------------|
B|-------3---------|-----------------|-------3---------|-----------------|
G|-5-----2---------|---------------5-|-------2---------|-------------0-2-|
D|-5-----0---------|---------------5-|-------0---------|-------------0-2-|
A|-3---------------|---------------3-|-----------------|-----------------|
E|-----------------|-------------3---|-----3-----------|-----------------|

   C5    D5                        C5        D5
E|-----------------|-----------------|-----------------|-----------------|
B|-------3---------|-----------------|-------3---------|-----------------|
G|-5-----2---------|---------------5-|-------2---------|-----------------|
D|-5-----0---------|---------------5-|-------0---------|-----------------|
A|-3---------------|---------------3-|-----------------|-----------------|
E|-----------------|-------------3---|-----3-----------|-----------------|
 |
 | C5    D5                        C5        D5
E|-----------------|-----------------|-----------------|-----------------|
B|-------3---------|-----------------|-------3---------|-----------------|
G|-5-----2---------|---------------5-|-------2---------|-----------------|
D|-5-----0---------|---------------5-|-------0---------|-----------------|
A|-3---------------|---------------3-|-----------------|-----------------|
E|-----------------|-------------3---|-----3-----------|-----------------|

Refrain:

   A
E|-----------------|-----------------|-----------------|-----------------|
B|-----------------|-----------------|-----------------|-----------------|
G|--------------5--|---7-0--------5--|--------------5--|---7-0--------5--|
D|-7-7-5-7-7-7-7-7-|-7-x-x---7---7-7-|---7-5-7-7-7-7-7-|-7-x-x---7-7-7-7-|
A|-0-0-0-0-0-0-----|-0-0-0-0-0-0-----|---0-0-0-0-0-----|-0-0-0-0-0-0-----|
E|-----------------|-----------------|-----------------|-----------------|
 |
 |  A
E|-----------------|-----------------|-----------------|-----------------|
B|-----------------|-----------------|-----------------|-----------------|
G|--------------5--|---7----------5--|--------------5--|---7----------5--|
D|---7-5---7---7-7~|---x-5---7---7-7~|-----5---7---7-7~|---x-5---7---7-7~|
A|-0-0-0-0-0-0-----|-0-0-0-0-0-0-----|-0-0-0-0-0-0-----|-0-0-0-0-0-0-----|
E|-----------------|-----------------|-----------------|-----------------|

Verse 2:

   A                                                                 G A
E|-----------------|-----------------|-----------------|-----------------|
B|-----------------|-----------------|-----------------|-----------------|
G|-------------75--|-------------75--|-------------75--|-----------------|
D|-7-7-5-7-7-7---7-|-7-7-5-7-7-7---7-|-7-7-5-7-7-7---7-|-7-7-5-7-7-7-0-2-|
A|-0-0-0-0-0-0-----|-0-0-0-0-0-0-----|-0-0-0-0-0-0-----|-0-0-0-0-0-0-x-0-|
E|-----------------|-----------------|-----------------|-------------3---|
 |
 |  A                                                                G A
E|-----------------|-----------------|-----------------|-----------------|
B|-----------------|-----------------|-----------------|-----------------|
G|--------------5--|--------------5--|--------------5--|-------------0-2-|
D|-7-7-5---7---7-7~|---7-5---7---7-7~|-----5---7---7-7~|---7-5---7---0-2-|
A|-0-0-0-0-0-0-----|-0-0-0-0-0-0-----|-0-0-0-0-0-0-----|-0-0-0-0-0-0-----|
E|-----------------|-----------------|-----------------|-----------------|
 |
 | Guitar 3, Angus, Overdub, Center
E|-----------------|-----------------|-----------------|---------------5-|
B|-----------------|-----------------|-----------------|-------------8---|
G|-----------------|-----------------|-----------------|-----------------|
D|-----------------|-----------------|-----------------|-----------------|
A|-----------------|-----------------|-----------------|-----------------|
E|-----------------|-----------------|-----------------|-----------------|

Bridge:

   C5    G5      D5              G A  C5     G5      D5              G A
E|-------3---------|-----------------|-------3---------|-----------------|
B|-------3-------3-|-----------------|-------3-------3-|-----------------|
G|-5-----0-------2-|-----------------|-5-----0-------2-|-----------------|
D|-5-----0-------0-|-------------0-2-|-5-----0-------0-|-------------0-2-|
A|-3-----x---------|-------------x-0-|-3-----x---------|-------------x-0-|
E|-------3---------|-------------3---|-------3---------|-------------3---|
 |
 | C5    G5      D5              G A   C5    G5      D5              G A
E|-----------------|-----------------|-----------------|-----------------|
B|---------------3-|-----------------|---------------3-|-----------------|
G|-5-----0-------2-|---------75--0-2-|-5-----0-------2-|----------5--0-2-|
D|-5-----0-------0-|-----------7~0-2-|-5-----0-------0-|---------7-7~0-2-|
A|-3-----x---------|-----------------|-3-----x---------|-----------------|
E|-------3---------|-----------------|-------3---------|-----------------|

   C5    G5      D5              G A  C5     G5      D5
E|-------3---------|-----------------|-------3---------|-----------------|
B|-------3-------3-|-----------------|-------3-------3-|-----------------|
G|-5-----0-------2-|-----------------|-5-----0-------2-|-----------------|
D|-5-----0-------0-|-------------0-2-|-5-----0-------0-|-------------0-2-|
A|-3-----x---------|-------------x-0-|-3-----x---------|-------------x-0-|
E|-------3---------|-------------3---|-------3---------|-------------3---|
 |
 | C5    G5      D5              G A   C5    G5      D5
E|-----------------|-----------------|-----------------|-----------------|
B|---------------3-|-----------------|---------------3-|-----------------|
G|-5-----0-------2-|---------75--0-2-|-5-----0-------2-|-----------------|
D|-5-----0-------0-|-----------7~0-2-|-5-----0-------0-|-----------------|
A|-3-----x---------|-----------------|-3-----x---------|-----------------|
E|-------3---------|-----------------|-------3---------|-----------------|

Guitar 3 follows along with these chords, playing this;

E|-----------------------------------5-|
B|----13---------12---------10-----8---|
G|-15b17------14b16------12b14~~~~~----|
D|-------------------------------------|
A|-------------------------------------|
E|-------------------------------------|

E|-----------------------------------5-|
B|----13---------12---------15-----8---|
G|-15b17------14b16------17b19---------|
D|-------------------------------------|
A|-------------------------------------|
E|-------------------------------------|

E|-----------------------------------5-|
B|----13---------12---------10-----8---|
G|-15b17------14b16------12b14~~~~~----|
D|-------------------------------------|
A|-------------------------------------|
E|-------------------------------------|

                                T.P.---------|
                                Hold bend
E|--------------------------------------------|
B|----13---------12---------15----------------|
G|-15b17------14b16------17b19--17--------17\-|
D|--------------------------------------------|
A|--------------------------------------------|
E|--------------------------------------------|

Refrain:

   A
E|-----------------|-----------------|-----------------|-----------------|
B|-----------------|-----------------|-----------------|-----------------|
G|--------------5--|---7-0--------5--|--------------5--|---7-0--------5--|
D|-7-7-5-7-7-7-7-7-|-7-x-x---7---7-7-|---7-5-7-7-7-7-7-|-7-x-x---7-7-7-7-|
A|-0-0-0-0-0-0-----|-0-0-0-0-0-0-----|---0-0-0-0-0-----|-0-0-0-0-0-0-----|
E|-----------------|-----------------|-----------------|-----------------|
 |
 |  A
E|-----------------|-----------------|-----------------|-----------------|
B|-----------------|-----------------|-----------------|-----------------|
G|--------------5--|---7----------5--|--------------5--|---7----------5--|
D|---7-5---7---7-7~|---x-5---7---7-7~|-----5---7---7-7~|---x-5---7---7-7~|
A|-0-0-0-0-0-0-----|-0-0-0-0-0-0-----|-0-0-0-0-0-0-----|-0-0-0-0-0-0-----|
E|-----------------|-----------------|-----------------|-----------------|

Leading up to the solo (During the second half of the above riff) Guitar
3 plays this;

E|--------------------------------------------------------------|
B|----10-----------8---------10---10b12~~~~-11b13~~~~----15-----|
G|-12b14-------10b12------12b14-----------------------17b19~~~~-|
D|--------------------------------------------------------------|
A|--------------------------------------------------------------|
E|--------------------------------------------------------------|

Guitar Solo:

Angus (Overdub):

E|----------17-15------------15-15----15-15-15-15-15-----------\|
B|-15b17----------17-15b17---17-17----17-17-17-17-17--Toggle --\|
G|----------------------------------------------------Switch----|
D|--------------------------------------------------------------|
A|--------------------------------------------------------------|
E|--------------------------------------------------------------|

E|------------5-----------5-------------5------------------------------|
B|----------5---8-5-----5---8-5-----5-----5-------------10~~~----------|
G|-7b9--------------7b9---------7b9---7-----7b9-x-9~~~~-11~~~11b12-\---|
D|---------------------------------------------------------------------|
A|---------------------------------------------------------------------|
E|---------------------------------------------------------------------|

Angus and Malcolm (Rhythm:)

Guitars 1, 2, and 3 repeat verse 2.

Bridge:


   C5    G5      D5              G A  C5     G5      D5              G A
E|-------3---------|-----------------|-------3---------|-----------------|
B|-------3-------3-|-----------------|-------3-------3-|-----------------|
G|-5-----0-------2-|-----------------|-5-----0-------2-|-----------------|
D|-5-----0-------0-|-------------0-2-|-5-----0-------0-|-------------0-2-|
A|-3-----x---------|-------------x-0-|-3-----x---------|-------------x-0-|
E|-------3---------|-------------3---|-------3---------|-------------3---|
 |
 | C5    G5      D5              G A   C5    G5      D5              G A
E|-----------------|-----------------|-----------------|-----------------|
B|---------------3-|-----------------|---------------3-|-----------------|
G|-5-----0-------2-|---------75--0-2-|-5-----0-------2-|----------5--0-2-|
D|-5-----0-------0-|-----------7~0-2-|-5-----0-------0-|---------7-7~0-2-|
A|-3-----x---------|-----------------|-3-----x---------|-----------------|
E|-------3---------|-----------------|-------3---------|-----------------|

   C5    G5      D5              G A  C5     G5      D5
E|-------3---------|-----------------|-------3---------|-----------------|
B|-------3-------3-|-----------------|-------3-------3-|-----------------|
G|-5-----0-------2-|-----------------|-5-----0-------2-|-----------------|
D|-5-----0-------0-|-------------0-2-|-5-----0-------0-|-------------0-2-|
A|-3-----x---------|-------------x-0-|-3-----x---------|-------------x-0-|
E|-------3---------|-------------3---|-------3---------|-------------3---|
 |
 | C5    G5      D5              G A   C5    G5      D5
E|-----------------|-----------------|-----------------|-----------------|
B|---------------3-|-----------------|---------------3-|-----------------|
G|-5-----0-------2-|---------75--0-2-|-5-----0-------2-|-----------------|
D|-5-----0-------0-|-----------7~0-2-|-5-----0-------0-|-----------------|
A|-3-----x---------|-----------------|-3-----x---------|-----------------|
E|-------3---------|-----------------|-------3---------|-----------------|

Guitar 3:

E|-----------------------------------5-|
B|----13---------12---------10-----8---|
G|-15b17------14b16------12b14~~~~~----|
D|-------------------------------------|
A|-------------------------------------|
E|-------------------------------------|

E|-----------------------------------5-|
B|----13---------12---------15-----8---|
G|-15b17------14b16------17b19---------|
D|-------------------------------------|
A|-------------------------------------|
E|-------------------------------------|

E|-----------------------------------5-|
B|----13---------12---------10-----8---|
G|-15b17------14b16------12b14~~~~~----|
D|-------------------------------------|
A|-------------------------------------|
E|-------------------------------------|

E|-------------------------------------|
B|----13---------12---------15---------|
G|-15b17------14b16------17b19~~~~-----|
D|-------------------------------------|
A|-------------------------------------|
E|-------------------------------------|

Bridge Variation: (After first time the above is played)

Angus and Malcolm's rhythm tracks play the same as they did the first time,
but Guitar 3 plays some licks over top of it.

2:20

E|-----8-10--10b11r8-----8-8---------|
B|-/10---------------10------10~~~~-\|
G|-----------------------------------|
D|-----------------------------------|
A|-----------------------------------|
E|-----------------------------------|

2:34

E|-------------------------------------------------|
B|-15b17----15b17---15---13-15------13h15----------|
G|-----------------------------14---------14~~~~~\-|
D|-------------------------------------------------|
A|-------------------------------------------------|
E|-------------------------------------------------|

Refrain/Guitar Solo 2:

Angus (Overdub):

E|----12-15-|
B|-13-------|
G|----------|
D|----------|
A|----------|
E|----------|

E|-12----------------------------------------------------------------------|
B|----15b17-15p13----15----13b---------------------------------------------|
G|----------------14----14-----14-12----12---------------------------------|
D|-----------------------------------14----14-12p10----10-12p10------------|
A|--------------------------------------------------12---------12----10~~~-|
E|----------------------------------------------------------------12-------|

E|-------------------------------------------------------------------------|
B|-15b17~~~~r15-15b17~~~~r15-15b17~~~~r15-15b17~~~~r15-15b17r15-15b17~~~~~\|
G|-------------------------------------------------------------------------|
D|-------------------------------------------------------------------------|
A|-------------------------------------------------------------------------|
E|-------------------------------------------------------------------------|

E|---------------------------------------------|
B|-------------------10-13-13-13-13-13-13~~~~\-|
G|----------7----7/11--------------------------|
D|-5---7-10---10-------------------------------|
A|---------------------------------------------|
E|---------------------------------------------|

E|----10-----------10------\----12-----------12--------|
B|-13b15~~~~~---13b15~~~~~-\-15b17~~~~~---15b17~~~~~---|
G|-----------------------------------------------------|
D|-----------------------------------------------------|
A|-----------------------------------------------------|
E|-----------------------------------------------------|

E|--------------------------------------------------------------------|
B|-12b15-------13-10----12-10----10-----------------------------------|
G|-------------------12-------12----12-------14---12------------------|
D|-------------------------------------14p12---------14-12------------|
A|---------------------------------------------------------12-10~~~~--|
E|--------------------------------------------------------------------|

Angus and Malcolm repeat the verse riff under the above solo while Guitar 3
drops out.

Outro:

   C5    G5      D5              G A  C5     G5      D5              G A
E|-------3---------|-----------------|-------3---------|-----------------|
B|-------3-------3-|-----------------|-------3-------3-|-----------------|
G|-5-----0-------2-|-----------------|-5-----0-------2-|-----------------|
D|-5-----0-------0-|-------------0-2-|-5-----0-------0-|-------------0-2-|
A|-3-----x---------|-------------x-0-|-3-----x---------|-------------x-0-|
E|-------3---------|-------------3---|-------3---------|-------------3---|
 |
 | C5    G5      D5              G A   C5    G5      D5              G A
E|-----------------|-----------------|-----------------|-----------------|
B|---------------3-|-----------------|---------------3-|-----------------|
G|-5-----0-------2-|---------75--0-2-|-5-----0-------2-|----------5--0-2-|
D|-5-----0-------0-|-----------7~0-2-|-5-----0-------0-|---------7-7~0-2-|
A|-3-----x---------|-----------------|-3-----x---------|-----------------|
E|-------3---------|-----------------|-------3---------|-----------------|

   C5    G5      D5              G A  C5     G5      D5
E|-------3---------|-----------------|-------3---------|-----------------|
B|-------3-------3-|-----------------|-------3-------3-|-----------------|
G|-5-----0-------2-|-----------------|-5-----0-------2-|-----------------|
D|-5-----0-------0-|-------------0-2-|-5-----0-------0-|-------------0-2-|
A|-3-----x---------|-------------x-0-|-3-----x---------|-------------x-0-|
E|-------3---------|-------------3---|-------3---------|-------------3---|
 |
 | C5    G5      D5              G A   C5    G5      D5
E|-----------------|-----------------|-----------------|-----------------|
B|---------------3-|-----------------|---------------3-|-----------------|
G|-5-----0-------2-|---------75--0-2-|-5-----0-------2-|-----------------|
D|-5-----0-------0-|-----------7~0-2-|-5-----0-------0-|-----------------|
A|-3-----x---------|-----------------|-3-----x---------|-----------------|
E|-------3---------|-----------------|-------3---------|-----------------|

Guitar 3:

E|-----------------------------------5-|
B|----13---------12---------10-----8---|
G|-15b17------14b16------12b14~~~~~----|
D|-------------------------------------|
A|-------------------------------------|
E|-------------------------------------|

E|-----------------------------------5-|
B|----13---------12---------15-----8---|
G|-15b17------14b16------17b19---------|
D|-------------------------------------|
A|-------------------------------------|
E|-------------------------------------|

E|-----------------------------------5-|
B|----13---------12---------10-----8---|
G|-15b17------14b16------12b14~~~~~----|
D|-------------------------------------|
A|-------------------------------------|
E|-------------------------------------|

E|-------------------------------------|
B|----13---------12---------15---------|
G|-15b17------14b16------17b19~~~~-----|
D|-------------------------------------|
A|-------------------------------------|
E|-------------------------------------|


[1000] Stormy May Day


Note that Angus uses a slide here. During the second repitition of
the second pre verse, Malcolm also uses a slide.

Intro A: (Without slide)

E|---------------------3--------|
B|---3---------------3----------|
G|-0---------------0------------|
D|------------------------------|
A|------------------------------|
E|------------------------------|

E|-----1---------------|
B|---3---------1-------|
G|-0---------3---------|
D|---------5-----------| x3
A|---------------------|
E|---------------------|

E|-3-------------------|
B|-3-------------------|
G|-0-------------------|
D|-0---------5--------0|
A|-----------5---------|
E|-----------3---------|

Intro: (Angus, with slide)
This is divided into chunks, not bars.

E|-------------------------------------|
B|-------------------------------------|
G|-3---3---3---3/5~~~~\3\0---3\2-0-----|
D|-3-0-3-0-3-0-3/5~~~~\3\0---3\2-0-----|
A|-------------------------------------|
E|-------------------------------------|

E|-------------------------------------------|
B|-------------------------------------------|
G|---3/2---3/2---3/2-/5~~~~3\0-/3-/3-/3--0---|
D|-0-3/2-0-3/2-0-3/2-/5~~~~3\0-/3-/3-/3--0---|
A|-------------------------------------------|
E|-------------------------------------------|

E|-------------------------------------|
B|-------------------------------------|
G|-3---3---3---3/5~~~~\3\0---3\2-0-----|
D|-3-0-3-0-3-0-3/5~~~~\3\0---3\2-0-----|
A|-------------------------------------|
E|-------------------------------------|

E|-------------------------------------------|
B|-------------------------------------------|
G|---3/2---3/2---3/2-/5~~~~3\0-/3-/3-/3--0---|
D|-0-3/2-0-3/2-0-3/2-/5~~~~3\0-/3-/3-/3--0---|
A|-------------------------------------------|
E|-------------------------------------------|

Pre Verse 1:

   G5            C5          A#5 G5
E|-3-----------------------------3-----|
B|-3-----------------------------3-----|
G|-0-------------5-----------3---0-----|
D|-0-------------5-----------3---0-----|
A|-x-------------3-----------1---x-----|
E|-3-----------------------------3-----|
 |
 |
E|-------------------------------------|
B|-------------------------------------|
G|-3---3---3---3/5~~~~\3\0---3\2-0-----|
D|-3-0-3-0-3-0-3/5~~~~\3\0---3\2-0-----|
A|-------------------------------------|
E|-------------------------------------|

   G5            C5             A#5      G5
E|-3-----------------------------------------|
B|-3-----------------------------------------|
G|-0------------------5---------3--3--3--0---|
D|-0------------------5---------3--3--3--0---|
A|-x------------------3---------1--1--1--x---|
E|-3-------------------------------------3---|
 |
 |
E|-------------------------------------------|
B|-------------------------------------------|
G|---3/2---3/2---3/2-/5~~~~3\0-/3-/3-/3--0---|
D|-0-3/2-0-3/2-0-3/2-/5~~~~3\0-/3-/3-/3--0---|
A|-------------------------------------------|
E|-------------------------------------------|

   G5            C5          A#5 G5
E|-3-----------------------------3-----|
B|-3-----------------------------3-----|
G|-0-------------5-----------3---0-----|
D|-0-------------5-----------3---0-----|
A|-x-------------3-----------1---x-----|
E|-3-----------------------------3-----|
 |
 |
E|-------------------------------------|
B|-------------------------------------|
G|-3---3---3---3/5~~~~\3\0---3\2-0-----|
D|-3-0-3-0-3-0-3/5~~~~\3\0---3\2-0-----|
A|-------------------------------------|
E|-------------------------------------|

   G5            C5             A#5      G5
E|-3-----------------------------------------|
B|-3-----------------------------------------|
G|-0------------------5---------3--3--3--0---|
D|-0------------------5---------3--3--3--0---|
A|-x------------------3---------1--1--1--x---|
E|-3-------------------------------------3---|
 |
 |
E|-------------------------------------------|
B|-------------------------------------------|
G|---3/2---3/2---3/2-/5~~~~3\0-/3-/3-/3--0---|
D|-0-3/2-0-3/2-0-3/2-/5~~~~3\0-/3-/3-/3--0---|
A|-------------------------------------------|
E|-------------------------------------------|

     F5           C5          A#5        G5
E|----------------------------------------------|
B|----------------------------------------------|
G|----------------5-----------3----------0------|
D|---3------------5-----------3----------0------|
A|---3------------3-----------1----------x------|
E|---1-----------------------------------3------|
 |
 |
E|----------------------------------------------|
B|----------------------------------------------|
G|-9/10~~~~-----4/5~~~~------10~~~~------12~~~-\|
D|-9/10~~~~-----4/5~~~~------10~~~~------12~~~-\|
A|----------------------------------------------|
E|----------------------------------------------|

     F5           C5          A#5       G5
E|--------------------------------------------|
B|--------------------------------------------|
G|----------------5-----------3---------0-----|
D|---3------------5-----------3---------0-----|
A|---3------------3-----------1---------x-----|
E|---1----------------------------------3-----|
 |
 |
E|--------------------------------------------|
B|--------------------------------------------|
G|-9/10~~~~-----4/5~~~~-------10~~~~--/12~~~-\|
D|-9/10~~~~-----4/5~~~~-------10~~~---/12~~~-\|
A|--------------------------------------------|
E|--------------------------------------------|

Verse 1:

 G5            C5          A#5 G5
E|-3-----------------------------3-----|
B|-3-----------------------------3-----|
G|-0-------------5-----------3---0-----|
D|-0-------------5-----------3---0-----|
A|-x-------------3-----------1---x-----|
E|-3-----------------------------3-----|
 |
 |
E|-------------------------------------|
B|-------------------------------------|
G|-3---3---3---3/5~~~~\3\0---3\2-0-----|
D|-3-0-3-0-3-0-3/5~~~~\3\0---3\2-0-----|
A|-------------------------------------|
E|-------------------------------------|

   G5            C5             A#5      G5
E|-3-----------------------------------------|
B|-3-----------------------------------------|
G|-0------------------5---------3--3--3--0---|
D|-0------------------5---------3--3--3--0---|
A|-x------------------3---------1--1--1--x---|
E|-3-------------------------------------3---|
 |
 |
E|-------------------------------------------|
B|-------------------------------------------|
G|---3/2---3/2---3/2-/5~~~~3\0-/3-/3-/3--0---|
D|-0-3/2-0-3/2-0-3/2-/5~~~~3\0-/3-/3-/3--0---|
A|-------------------------------------------|
E|-------------------------------------------|

   G5            C5          A#5 G5
E|-3-----------------------------3-----|
B|-3-----------------------------3-----|
G|-0-------------5-----------3---0-----|
D|-0-------------5-----------3---0-----|
A|-x-------------3-----------1---x-----|
E|-3-----------------------------3-----|
 |
 |
E|-------------------------------------|
B|-------------------------------------|
G|-3---3---3---3/5~~~~\3\0---3\2-0-----|
D|-3-0-3-0-3-0-3/5~~~~\3\0---3\2-0-----|
A|-------------------------------------|
E|-------------------------------------|

   G5            C5             A#5      G5
E|-3-----------------------------------------|
B|-3-----------------------------------------|
G|-0------------------5---------3--3--3--0---|
D|-0------------------5---------3--3--3--0---|
A|-x------------------3---------1--1--1--x---|
E|-3-------------------------------------3---|
 |
 |
E|-------------------------------------------|
B|-------------------------------------------|
G|---3/2---3/2---3/2-/5~~~~3\0-/3-/3-/3--0---|
D|-0-3/2-0-3/2-0-3/2-/5~~~~3\0-/3-/3-/3--0---|
A|-------------------------------------------|
E|-------------------------------------------|

Chorus 1:

     F5           C5          A#5        G5
E|----------------------------------------------|
B|----------------------------------------------|
G|----------------5-----------3----------0------|
D|---3------------5-----------3----------0------|
A|---3------------3-----------1----------x------|
E|---1-----------------------------------3------|
 |
 |
E|----------------------------------------------|
B|----------------------------------------------|
G|-9/10~~~~-----4/5~~~~------10~~~~------12~~~-\|
D|-9/10~~~~-----4/5~~~~------10~~~~------12~~~-\|
A|----------------------------------------------|
E|----------------------------------------------|

     F5           C5          A#5       G5
E|--------------------------------------------|
B|--------------------------------------------|
G|----------------5-----------3---------0-----|
D|---3------------5-----------3---------0-----|
A|---3------------3-----------1---------x-----|
E|---1----------------------------------3-----|
 |
 |
E|--------------------------------------------|
B|--------------------------------------------|
G|-9/10~~~~-----4/5~~~~-------10~~~~--/12~~~-\|
D|-9/10~~~~-----4/5~~~~-------10~~~---/12~~~-\|
A|--------------------------------------------|
E|--------------------------------------------|

     F5           C5          A#5        G5
E|----------------------------------------------|
B|----------------------------------------------|
G|----------------5-----------3----------0------|
D|---3------------5-----------3----------0------|
A|---3------------3-----------1----------x------|
E|---1-----------------------------------3------|
 |
 |
E|----------------------------------------------|
B|----------------------------------------------|
G|-9/10~~~~-----4/5~~~~------10~~~~------12~~~-\|
D|-9/10~~~~-----4/5~~~~------10~~~~------12~~~-\|
A|----------------------------------------------|
E|----------------------------------------------|

     F5           C5          A#5       G5
E|--------------------------------------------|
B|--------------------------------------------|
G|----------------5-----------3---------0-----|
D|---3------------5-----------3---------0-----|
A|---3------------3-----------1---------x-----|
E|---1----------------------------------3-----|
 |
 |
E|--------------------------------------------|
B|--------------------------------------------|
G|-9/10~~~~-----4/5~~~~-------10~~~~--/12~~~-\|
D|-9/10~~~~-----4/5~~~~-------10~~~---/12~~~-\|
A|--------------------------------------------|
E|--------------------------------------------|

Pre Verse 2:

 G5            C5          A#5 G5
E|-3-----------------------------3-----|
B|-3-----------------------------3-----|
G|-0-------------5-----------3---0-----|
D|-0-------------5-----------3---0-----|
A|-x-------------3-----------1---x-----|
E|-3-----------------------------3-----|
 |
 |
E|-------------------------------------|
B|-------------------------------------|
G|-3---3---3---3/5~~~~\3\0---3\2-0-----|
D|-3-0-3-0-3-0-3/5~~~~\3\0---3\2-0-----|
A|-------------------------------------|
E|-------------------------------------|

   G5            C5             A#5      G5
E|-3-----------------------------------------|
B|-3-----------------------------------------|
G|-0------------------5---------3--3--3--0---|
D|-0------------------5---------3--3--3--0---|
A|-x------------------3---------1--1--1--x---|
E|-3-------------------------------------3---|
 |
 |
E|-------------------------------------------|
B|-------------------------------------------|
G|---3/2---3/2---3/2-/5~~~~3\0-/3-/3-/3--0---|
D|-0-3/2-0-3/2-0-3/2-/5~~~~3\0-/3-/3-/3--0---|
A|-------------------------------------------|
E|-------------------------------------------|

E|-------------------------------------|
B|-------------------------------------|
G|-3---3---3---3/5~~~~\3\0---3\2-0-----|
D|-3-0-3-0-3-0-3/5~~~~\3\0---3\2-0-----|
A|-------------------------------------|
E|-------------------------------------|
 |
 |
E|-------------------------------------|
B|-------------------------------------|
G|-3---3---3---3/5~~~~\3\0---3\2-0-----|
D|-3-0-3-0-3-0-3/5~~~~\3\0---3\2-0-----|
A|-------------------------------------|
E|-------------------------------------|

E|-------------------------------------------|
B|-------------------------------------------|
G|---3/2---3/2---3/2-/5~~~~3\0-/3-/3-/3--0---|
D|-0-3/2-0-3/2-0-3/2-/5~~~~3\0-/3-/3-/3--0---|
A|-------------------------------------------|
E|-------------------------------------------|
 |
 |
E|-------------------------------------------|
B|-------------------------------------------|
G|---3/2---3/2---3/2-/5~~~~3\0-/3-/3-/3--0---|
D|-0-3/2-0-3/2-0-3/2-/5~~~~3\0-/3-/3-/3--0---|
A|-------------------------------------------|
E|-------------------------------------------|

Verse 2:

   G5            C5          A#5 G5
E|-3-----------------------------3-----|
B|-3-----------------------------3-----|
G|-0-------------5-----------3---0-----|
D|-0-------------5-----------3---0-----|
A|-x-------------3-----------1---x-----|
E|-3-----------------------------3-----|
 |
 |
E|-------------------------------------|
B|-------------------------------------|
G|-3---3---3---3/5~~~~\3\0---3\2-0-----|
D|-3-0-3-0-3-0-3/5~~~~\3\0---3\2-0-----|
A|-------------------------------------|
E|-------------------------------------|

   G5            C5             A#5      G5
E|-3-----------------------------------------|
B|-3-----------------------------------------|
G|-0------------------5---------3--3--3--0---|
D|-0------------------5---------3--3--3--0---|
A|-x------------------3---------1--1--1--x---|
E|-3-------------------------------------3---|
 |
 |
E|-------------------------------------------|
B|-------------------------------------------|
G|---3/2---3/2---3/2-/5~~~~3\0-/3-/3-/3--0---|
D|-0-3/2-0-3/2-0-3/2-/5~~~~3\0-/3-/3-/3--0---|
A|-------------------------------------------|
E|-------------------------------------------|

   G5            C5          A#5 G5
E|-3-----------------------------3-----|
B|-3-----------------------------3-----|
G|-0-------------5-----------3---0-----|
D|-0-------------5-----------3---0-----|
A|-x-------------3-----------1---x-----|
E|-3-----------------------------3-----|
 |
 |
E|-------------------------------------|
B|-------------------------------------|
G|-3---3---3---3/5~~~~\3\0---3\2-0-----|
D|-3-0-3-0-3-0-3/5~~~~\3\0---3\2-0-----|
A|-------------------------------------|
E|-------------------------------------|

   G5            C5             A#5      G5
E|-3-----------------------------------------|
B|-3-----------------------------------------|
G|-0------------------5---------3--3--3--0---|
D|-0------------------5---------3--3--3--0---|
A|-x------------------3---------1--1--1--x---|
E|-3-------------------------------------3---|
 |
 |
E|-------------------------------------------|
B|-------------------------------------------|
G|---3/2---3/2---3/2-/5~~~~3\0-/3-/3-/3--0---|
D|-0-3/2-0-3/2-0-3/2-/5~~~~3\0-/3-/3-/3--0---|
A|-------------------------------------------|
E|-------------------------------------------|

Chorus 2:

     F5           C5          A#5        G5
E|----------------------------------------------|
B|----------------------------------------------|
G|----------------5-----------3----------0------|
D|---3------------5-----------3----------0------|
A|---3------------3-----------1----------x------|
E|---1-----------------------------------3------|
 |
 |
E|----------------------------------------------|
B|----------------------------------------------|
G|-9/10~~~~-----4/5~~~~------10~~~~------12~~~-\|
D|-9/10~~~~-----4/5~~~~------10~~~~------12~~~-\|
A|----------------------------------------------|
E|----------------------------------------------|

     F5           C5          A#5       G5
E|--------------------------------------------|
B|--------------------------------------------|
G|----------------5-----------3---------0-----|
D|---3------------5-----------3---------0-----|
A|---3------------3-----------1---------x-----|
E|---1----------------------------------3-----|
 |
 |
E|--------------------------------------------|
B|--------------------------------------------|
G|-9/10~~~~-----4/5~~~~-------10~~~~--/12~~~-\|
D|-9/10~~~~-----4/5~~~~-------10~~~---/12~~~-\|
A|--------------------------------------------|
E|--------------------------------------------|

E|----------------------------|
B|----------------------------|
G|-(12)~~~~~~~~~~~~~~\\\\\\\\-|
D|-(12)~~~~~~~~~~~~~~\\\\\\\\-|
A|----------------------------|
E|----------------------------|

Outro (Angus only):

E|---------------------------------------|
B|---------------------------------------|
G|-9/10~~~~-----4/5~~~~-------3\2---0----|
D|-9/10~~~~-----4/5~~~~-------3\2---0----|
A|---------------------------------------|
E|---------------------------------------|

E|-----------------------------------------------|
B|-----------------------------------------------|
G|-9/10~~~~-----4/5~~~~-------3\2-0-/3---/12~~~~~|
D|-9/10~~~~-----4/5~~~~-------3\2-0-/3---/12~~~~~|
A|-----------------------------------------------|
E|-----------------------------------------------|

E|-----------------------------------------|
B|-----------------------------------------|
G|-9/10~~~~-----4/5~~~~------/3~~~---12~~~~|
D|-9/10~~~~-----4/5~~~~------/3~~~---12~~~~|
A|-----------------------------------------|
E|-----------------------------------------|

E|--------------------------------------------------------|
B|--------------------------------------------------------|
G|-9/10~~~~-----4/5~~~~-------3\2-0-/3---/12~~~~~~~~~~\\\\|
D|-9/10~~~~-----4/5~~~~-------3\2-0-/3---/12~~~~~~~~~~\\\\|
A|--------------------------------------------------------|
E|--------------------------------------------------------|


[1100] She Likes Rock N Roll
Standard Tuning




Intro:


E|-----------------|-----------------|-----------------|-----------------|
B|-----------------|-----------------|-----------------|-----------------|
G|-----------------|-----------------|-----------------|-----------------|
D|-----------------|-----------------|-----------------|-----------------|
A|-----------------|-----------------|-----------------|-------------2---|
E|-----------------|-----------------|-----------------|----------024----|
 |
 | B5    A5 E5        B5               B5    A5 E5        B5
E|-----------------|-----------------|-----------------|-----------------|
B|-----------------|-----------------|-----------------|-----------------|
G|-4444--2---------|-4444------------|-4444--2---------|-4444------------|
D|-4444--2--2--2---|-4444------------|-4444--2--2--2---|-4444------------|
A|-2222--0--2--2---|-0222------------|-2222--0--2--2---|-0222--------2~~~|
E|----------0--0---|-----------------|----------0--0---|----------024----|
 |
 | Guitar 3, Angus, Overdub, Center (Scattered Leads)
E|-----------------|-----------------|-----------------|-----------------|
B|-----------------|------------12\--|-----------------|-----------10b12~|
G|-----------------|------------11\--|-----------------|-----------------|
D|-----------------|-----------------|-----------------|-----------------|
A|-----------------|-----------------|-----------------|-----------------|
E|-----------------|-----------------|-----------------|-----------------|

Pre Verse 1:

   B5    A5 E5        B5               B5    A5 E5
E|-----------------|-----------------|-----------------|-----------------|
B|-----------------|-----------------|-----------------|-----------------|
G|-4444--2---------|--444------------|-4444--2---------|-----------------|
D|-4444--2--2--2---|-4444------------|-4444--2--2--2---|-----------------|
A|-2222--0--2--2---|-0222------------|-2222--0--2--2---|-------------2---|
E|----------0--0---|-----------------|----------0--0---|----------024----|
 |
 | B5    A5 E5        B5               B5    A5 E5        B5
E|-----------------|-----------------|-----------------|-----------------|
B|-----------------|-----------------|-----------------|-----------------|
G|-4444--2---------|-4444------------|-4444--2---------|-4444------------|
D|-4444--2--2--2---|-4444------------|-4444--2--2--2---|-4444------------|
A|-2222--0--2--2---|-0222------------|-2222--0--2--2---|-0222--------2~~~|
E|----------0--0---|-----------------|----------0--0---|----------024----|
 |
 | Hold bend
E|-----------------|-----------------|-----------------|-----------------|
B|(10)~~~~~~~12\---|-----------------|-----------------|-----------------|
G|-----------------|-----------------|-----------------|-----------------|
D|-----------------|-----------------|-----------------|-----------------|
A|-----------------|-----------------|-----------------|-----------------|
E|-----------------|-----------------|-----------------|-----------------|

Verse 1:

   B5    A5 E5        B5               B5    A5 E5
E|-----------------|-----------------|-----------------|-----------------|
B|-----------------|-----------------|-----------------|-----------------|
G|-4444--2---------|--444------------|-4444--2---------|-4444------------|
D|-4444--2--2--2---|-4444------------|-4444--2--2--2---|-4444------------|
A|-2222--0--2--2---|-0222------------|-2222--0--2--2---|-0222--------2---|
E|----------0--0---|-----------------|----------0--0---|----------024----|
 |
 | B5    A5 E5        B5               B5    A5 E5        B5
E|-----------------|-----------------|-----------------|-----------------|
B|-----------------|-----------------|-----------------|-----------------|
G|-4444--2---------|-4444------------|-4444--2---------|-4444------------|
D|-4444--2--2--2---|-4444------------|-4444--2--2--2---|-4444------------|
A|-2222--0--2--2---|-0222------------|-2222--0--2--2---|-0222--------2~~~|
E|----------0--0---|-----------------|----------0--0---|----------024----|

   B5    A5 E5        B5               B5    A5 E5
E|-----------------|-----------------|-----------------|-----------------|
B|-----------------|-----------------|-----------------|-----------------|
G|-4444--2---------|--444------------|-4444--2---------|-4444------------|
D|-4444--2--2--2---|-4444------------|-4444--2--2--2---|-4444------------|
A|-2222--0--2--2---|-0222------------|-2222--0--2--2---|-0222--------2---|
E|----------0--0---|-----------------|----------0--0---|----------024----|
 |
 | B5    A5 E5        B5               B5    A5 E5        B5
E|-----------------|-----------------|-----------------|-----------------|
B|-----------------|-----------------|-----------------|-----------------|
G|-4444--2---------|-4444------------|-4444--2---------|-4444------------|
D|-4444--2--2--2---|-4444------------|-4444--2--2--2---|-4444------------|
A|-2222--0--2--2---|-0222------------|-2222--0--2--2---|-0222--------2~~~|
E|----------0--0---|-----------------|----------0--0---|----------024----|
 |
 |
E|-----------------|-----------------|-----------------|-----------------|
B|-----------------|-----------------|-----------------|------------12\--|
G|-----------------|-----------------|-----------------|------------11\--|
D|-----------------|-----------------|-----------------|-----------------|
A|-----------------|-----------------|-----------------|-----------------|
E|-----------------|-----------------|-----------------|-----------------|

   B5    A5 E5        B5               B5    A5 E5
E|-----------------|-----------------|-----------------|-----------------|
B|-----------------|-----------------|-----------------|-----------------|
G|-4444--2---------|--444------------|-4444--2---------|-4444------------|
D|-4444--2--2--2---|-4444------------|-4444--2--2--2---|-4444------------|
A|-2222--0--2--2---|-0222------------|-2222--0--2--2---|-0222--------2---|
E|----------0--0---|-----------------|----------0--0---|----------024----|
 |
 | B5    A5 E5        B5               B5    A5 E5        B5
E|-----------------|-----------------|-----------------|-----------------|
B|-----------------|-----------------|-----------------|-----------------|
G|-4444--2---------|-4444------------|-4444--2---------|-4444------------|
D|-4444--2--2--2---|-4444------------|-4444--2--2--2---|-4444------------|
A|-2222--0--2--2---|-0222------------|-2222--0--2--2---|-0222--------2~~~|
E|----------0--0---|-----------------|----------0--0---|----------024----|

   B5    A5 E5        B5               B5    A5 E5       B5
E|-----------------|-----------------|-----------------|-----------------|
B|-----------------|-----------------|-----------------|-----------------|
G|-4444--2---------|--444------------|-4444--2---------|-4444--44--44-4--|
D|-4444--2--2--2---|-4444------------|-4444--2--2--2---|-4444--44--44-4--|
A|-2222--0--2--2---|-0222------------|-2222--0--2--2---|-2222--22--22-2--|
E|----------0--0---|-----------------|----------0--0---|-----------------|
 |
 | B5    A5 E5        B5               B5    A5 E5        B5
E|-----------------|-----------------|-----------------|-----------------|
B|-----------------|-----------------|-----------------|-----------------|
G|-4444--2---------|-4444------------|-4444--2---------|-4444--44--44-4--|
D|-4444--2--2--2---|-4444------------|-4444--2--2--2---|-4444--44--44-4--|
A|-2222--0--2--2---|-0222------------|-2222--0--2--2---|-0222--22--22-2--|
E|----------0--0---|-----------------|----------0--0---|-----------------|

Chorus 1:

   A5                C5      D5        A5                C5      D5
E|-----------------|-----------------|-----------------|-----------------|
B|-----------------|---------3---3-3-|-----------------|---------3---3-3-|
G|-2---2---2-2-2-2-|-5---5-5-2---2-2-|-2---2-2-2---2-2-|-5-5-5-5-2---2-2-|
D|-2---2---2-2-2-2-|-5---5-5-0---0-0-|-2---2-2-2---2-2-|-5-5-5-5-0---0-0-|
A|-0---0---0-0-0-0-|-3---3-3---------|-0---0-0-0---0-0-|-3-3-3-3---------|
E|-----------------|-----------------|-----------------|-----------------|
 |
 | A5                C5      D5        A5                C5      D5
E|-----------------|-----------------|-----------------|-----------------|
B|-----------------|---------3-3-3---|-----------------|---------3-3-3-3-|
G|-2---2---2---2---|-5---5---2-2-2---|-2-2-2---2-2-2---|-5-5-5---2-2-2-2-|
D|-2---2---2---2---|-5---5---0-0-0---|-2-2-2---2-2-2---|-5-5-5---0-0-0-0-|
A|-0---0---0---0-0-|-3---3-----------|-0-0-0---0-0-0---|-3-3-3-----------|
E|-----------------|-----------------|-----------------|-----------------|

   A5                C5      D5        A5                C5      D5
E|-----------------|-----------------|-----------------|-----------------|
B|-----------------|---------3---3-3-|-----------------|---------3---3-3-|
G|-2---2---2-2-2-2-|-5---5-5-2---2-2-|-2---2-2-2---2-2-|-5-5-5-5-2---2-2-|
D|-2---2---2-2-2-2-|-5---5-5-0---0-0-|-2---2-2-2---2-2-|-5-5-5-5-0---0-0-|
A|-0---0---0-0-0-0-|-3---3-3---------|-0---0-0-0---0-0-|-3-3-3-3---------|
E|-----------------|-----------------|-----------------|-----------------|
 |
 | A5                C5      D5        A5                C5      D5
E|-----------------|-----------------|-----------------|-----------------|
B|-----------------|---------3-3-3---|-----------------|---------3-3-3-3-|
G|-2---2---2---2---|-5---5---2-2-2---|-2-2-2---2-2-2---|-5-5-5---2-2-2-2-|
D|-2---2---2---2---|-5---5---0-0-0---|-2-2-2---2-2-2---|-5-5-5---0-0-0-0-|
A|-0---0---0---0-0-|-3---3-----------|-0-0-0---0-0-0---|-3-3-3-----------|
E|-----------------|-----------------|-----------------|-----------------|

Pre Verse 2:

B5    A5 E5        B5               B5    A5 E5
E|-----------------|-----------------|-----------------|-----------------|
B|-----------------|-----------------|-----------------|-----------------|
G|-4444--2---------|--444------------|-4444--2---------|-----------------|
D|-4444--2--2--2---|-4444------------|-4444--2--2--2---|-----------------|
A|-2222--0--2--2---|-0222------------|-2222--0--2--2---|-------------2---|
E|----------0--0---|-----------------|----------0--0---|----------024----|
 |
 | B5    A5 E5        B5               B5    A5 E5        B5
E|-----------------|-----------------|-----------------|-----------------|
B|-----------------|-----------------|-----------------|-----------------|
G|-4444--2---------|-4444------------|-4444--2---------|-4444------------|
D|-4444--2--2--2---|-4444------------|-4444--2--2--2---|-4444------------|
A|-2222--0--2--2---|-0222------------|-2222--0--2--2---|-0222--------2~~~|
E|----------0--0---|-----------------|----------0--0---|----------024----|
 |
 |
E|-----------------|-----------------|-----------------|----12b14-12-10-----|
B|-----------------|---12\-----------|-----------------|---------------12~~~|
G|-----------------|---11\-----------|-----------------|--------------------|
D|-----------------|-----------------|-----------------|--------------------|
A|-----------------|-----------------|-----------------|--------------------|
E|-----------------|-----------------|-----------------|--------------------|

Verse 2:

 B5    A5 E5        B5               B5    A5 E5
E|-----------------|-----------------|-----------------|-----------------|
B|-----------------|-----------------|-----------------|-----------------|
G|-4444--2---------|--444------------|-4444--2---------|-4444------------|
D|-4444--2--2--2---|-4444------------|-4444--2--2--2---|-4444------------|
A|-2222--0--2--2---|-0222------------|-2222--0--2--2---|-0222--------2---|
E|----------0--0---|-----------------|----------0--0---|----------024----|
 |
 | B5    A5 E5        B5               B5    A5 E5        B5
E|-----------------|-----------------|-----------------|-----------------|
B|-----------------|-----------------|-----------------|-----------------|
G|-4444--2---------|-4444------------|-4444--2---------|-4444------------|
D|-4444--2--2--2---|-4444------------|-4444--2--2--2---|-4444------------|
A|-2222--0--2--2---|-0222------------|-2222--0--2--2---|-0222--------2~~~|
E|----------0--0---|-----------------|----------0--0---|----------024----|

   B5    A5 E5        B5               B5    A5 E5       B5
E|-----------------|-----------------|-----------------|-----------------|
B|-----------------|-----------------|-----------------|-----------------|
G|-4444--2---------|--444------------|-4444--2---------|-4444--44--44-4--|
D|-4444--2--2--2---|-4444------------|-4444--2--2--2---|-4444--44--44-4--|
A|-2222--0--2--2---|-0222------------|-2222--0--2--2---|-2222--22--22-2--|
E|----------0--0---|-----------------|----------0--0---|-----------------|
 |
 | B5    A5 E5        B5               B5    A5 E5        B5
E|-----------------|-----------------|-----------------|-----------------|
B|-----------------|-----------------|-----------------|-----------------|
G|-4444--2---------|-4444------------|-4444--2---------|-4444--44--44-4--|
D|-4444--2--2--2---|-4444------------|-4444--2--2--2---|-4444--44--44-4--|
A|-2222--0--2--2---|-0222------------|-2222--0--2--2---|-0222--22--22-2--|
E|----------0--0---|-----------------|----------0--0---|-----------------|

Chorus 2:

   A5                C5      D5        A5                C5      D5
E|-----------------|-----------------|-----------------|-----------------|
B|-----------------|---------3---3-3-|-----------------|---------3---3-3-|
G|-2---2---2-2-2-2-|-5---5-5-2---2-2-|-2---2-2-2---2-2-|-5-5-5-5-2---2-2-|
D|-2---2---2-2-2-2-|-5---5-5-0---0-0-|-2---2-2-2---2-2-|-5-5-5-5-0---0-0-|
A|-0---0---0-0-0-0-|-3---3-3---------|-0---0-0-0---0-0-|-3-3-3-3---------|
E|-----------------|-----------------|-----------------|-----------------|
 |
 | A5                C5      D5        A5                C5      D5
E|-----------------|-----------------|-----------------|-----------------|
B|-----------------|---------3-3-3---|-----------------|---------3-3-3-3-|
G|-2---2---2---2---|-5---5---2-2-2---|-2-2-2---2-2-2---|-5-5-5---2-2-2-2-|
D|-2---2---2---2---|-5---5---0-0-0---|-2-2-2---2-2-2---|-5-5-5---0-0-0-0-|
A|-0---0---0---0-0-|-3---3-----------|-0-0-0---0-0-0---|-3-3-3-----------|
E|-----------------|-----------------|-----------------|-----------------|

   A5                C5      D5        A5                C5      D5
E|-----------------|-----------------|-----------------|-----------------|
B|-----------------|---------3---3-3-|-----------------|---------3---3-3-|
G|-2---2---2-2-2-2-|-5---5-5-2---2-2-|-2---2-2-2---2-2-|-5-5-5-5-2---2-2-|
D|-2---2---2-2-2-2-|-5---5-5-0---0-0-|-2---2-2-2---2-2-|-5-5-5-5-0---0-0-|
A|-0---0---0-0-0-0-|-3---3-3---------|-0---0-0-0---0-0-|-3-3-3-3---------|
E|-----------------|-----------------|-----------------|-----------------|
 |
 | A5                C5      D5        A5                C5      D5
E|-----------------|-----------------|-----------------|-----------------|
B|-----------------|---------3-3-3---|-----------------|---------3-3-3-3-|
G|-2---2---2---2---|-5---5---2-2-2---|-2-2-2---2-2-2---|-5-5-5---2-2-2-2-|
D|-2---2---2---2---|-5---5---0-0-0---|-2-2-2---2-2-2---|-5-5-5---0-0-0-0-|
A|-0---0---0---0-0-|-3---3-----------|-0-0-0---0-0-0---|-3-3-3-----------|
E|-----------------|-----------------|-----------------|-----------------|

Guitar Solo:

Angus (Overdub):

E|--------------7---5-------------------------------------|
B|-10b12~~~~~-----7---5-7---------------------------------|
G|------------------------7---4-----------4---4---4~~~~---|
D|--------------------------------7-7-7~~~~---------------|
A|--------------------------------------------------------|
E|--------------------------------------------------------|

E|------------------------------------------------------------|
B|-0h7p0h6p0h5p0h4p0---5p0h6p0h7p0h6p0h5p4p0------------------|
G|--------------------------------------------2-4-4~~~-6b7~~~-|
D|------------------------------------------------------------|
A|------------------------------------------------------------|
E|------------------------------------------------------------|

E|-----------------------------------------|
B|-x----12---15-12----15b17---15-15-15~~~~~|
G|-x---------------------------------------|
D|-----------------------------------------|
A|-----------------------------------------|
E|-----------------------------------------|

E|-15b17-----12b14-----12----12-14---------------|
B|-------15---------------15-------15b--12-12~~~~|
G|-----------------------------------------------|
D|-----------------------------------------------|
A|-----------------------------------------------|
E|-----------------------------------------------|

E|-------17--------17----------------------------|
B|-17b19-----17b19-----17---19--17b19-17b19r17---|
G|-----------------------------------------------|
D|-----------------------------------------------|
A|-----------------------------------------------|
E|-----------------------------------------------|

E|-/14-14-14-14-14-14-14-14-/14-14-14-14----------------17b19~~~~\|
B|-/15-15-15-15-15-15-15-15-/15-15-15-15---17pb19r17-15-----------|
G|----------------------------------------------------------------|
D|----------------------------------------------------------------|
A|----------------------------------------------------------------|
E|----------------------------------------------------------------|

Angus and Malcolm (Rhythm):

   B5                D5      E5
E|-----------------|-----------------|
B|-----------------|-3---------------|
G|-4---------------|-2---------------|
D|-4---------------|-0-------2-------|
A|-2---------------|---------2-------|
E|-----------------|---------0-------|
 |                                     x4
 | B5                D5      E5
E|-----------------|-----------------|
B|-----------------|-----------------|
G|-4---------------|-7-------9-------|
D|-4---------------|-7-------9-------|
A|-2---------------|-5-------7-------|
E|-----------------|-----------------|

Bridge:

   B5
E|-----------------|
B|-----------------|
G|-4---------------| <- Both Angus and Malcolm play
D|-4---------------|    that chord and let it ring out
A|-2---------------|    for 3 bars.
E|-----------------|


 B5    A5 E5        B5               B5    A5 E5
E|-----------------|-----------------|-----------------|-----------------|
B|-----------------|-----------------|-----------------|-----------------|
G|-4444--2---------|--444------------|-4444--2---------|-4444------------|
D|-4444--2--2--2---|-4444------------|-4444--2--2--2---|-4444------------|
A|-2222--0--2--2---|-0222------------|-2222--0--2--2---|-0222--------2---|
E|----------0--0---|-----------------|----------0--0---|----------024----|
 |
 | B5    A5 E5        B5               B5    A5 E5        B5
E|-----------------|-----------------|-----------------|-----------------|
B|-----------------|-----------------|-----------------|-----------------|
G|-4444--2---------|-4444------------|-4444--2---------|-4444------------|
D|-4444--2--2--2---|-4444------------|-4444--2--2--2---|-4444------------|
A|-2222--0--2--2---|-0222------------|-2222--0--2--2---|-0222--------2~~~|
E|----------0--0---|-----------------|----------0--0---|----------024----|


 B5    A5 E5        B5               B5    A5 E5
E|-----------------|-----------------|-----------------|-----------------|
B|-----------------|-----------------|-----------------|-----------------|
G|-4444--2---------|--444------------|-4444--2---------|-4444------------|
D|-4444--2--2--2---|-4444------------|-4444--2--2--2---|-4444------------|
A|-2222--0--2--2---|-0222------------|-2222--0--2--2---|-0222--------2---|
E|----------0--0---|-----------------|----------0--0---|----------024----|
 |
 | B5    A5 E5        B5               B5    A5 E5        B5
E|-----------------|-----------------|-----------------|-----------------|
B|-----------------|-----------------|-----------------|-----------------|
G|-4444--2---------|-4444------------|-4444--2---------|-4444------------|
D|-4444--2--2--2---|-4444------------|-4444--2--2--2---|-4444------------|
A|-2222--0--2--2---|-0222------------|-2222--0--2--2---|-0222--------2~~~|
E|----------0--0---|-----------------|----------0--0---|----------024----|

Towards the end of the above section, Guitar 3 plays this lick:

E|-14-13-12-------12--------------|
B|----------15-12----12-15----12~~|
G|-------------------------14-----|
D|--------------------------------|
A|--------------------------------|
E|--------------------------------|

Chorus 3:

   A5                C5      D5        A5                C5      D5
E|-----------------|-----------------|-----------------|-----------------|
B|-----------------|---------3---3-3-|-----------------|---------3---3-3-|
G|-2---2---2-2-2-2-|-5---5-5-2---2-2-|-2---2-2-2---2-2-|-5-5-5-5-2---2-2-|
D|-2---2---2-2-2-2-|-5---5-5-0---0-0-|-2---2-2-2---2-2-|-5-5-5-5-0---0-0-|
A|-0---0---0-0-0-0-|-3---3-3---------|-0---0-0-0---0-0-|-3-3-3-3---------|
E|-----------------|-----------------|-----------------|-----------------|
 |
 | A5                C5      D5        A5                C5      D5
E|-----------------|-----------------|-----------------|-----------------|
B|-----------------|---------3-3-3---|-----------------|---------3-3-3-3-|
G|-2---2---2---2---|-5---5---2-2-2---|-2-2-2---2-2-2---|-5-5-5---2-2-2-2-|
D|-2---2---2---2---|-5---5---0-0-0---|-2-2-2---2-2-2---|-5-5-5---0-0-0-0-|
A|-0---0---0---0-0-|-3---3-----------|-0-0-0---0-0-0---|-3-3-3-----------|
E|-----------------|-----------------|-----------------|-----------------|

   A5                C5      D5        A5                C5      D5
E|-----------------|-----------------|-----------------|-----------------|
B|-----------------|---------3---3-3-|-----------------|---------3---3-3-|
G|-2---2---2-2-2-2-|-5---5-5-2---2-2-|-2---2-2-2---2-2-|-5-5-5-5-2---2-2-|
D|-2---2---2-2-2-2-|-5---5-5-0---0-0-|-2---2-2-2---2-2-|-5-5-5-5-0---0-0-|
A|-0---0---0-0-0-0-|-3---3-3---------|-0---0-0-0---0-0-|-3-3-3-3---------|
E|-----------------|-----------------|-----------------|-----------------|
 |
 | A5                C5      D5        A5                C5      D5
E|-----------------|-----------------|-----------------|-----------------|
B|-----------------|---------3-3-3---|-----------------|---------3-3-3-3-|
G|-2---2---2---2---|-5---5---2-2-2---|-2-2-2---2-2-2---|-5-5-5---2-2-2-2-|
D|-2---2---2---2---|-5---5---0-0-0---|-2-2-2---2-2-2---|-5-5-5---0-0-0-0-|
A|-0---0---0---0-0-|-3---3-----------|-0-0-0---0-0-0---|-3-3-3-----------|
E|-----------------|-----------------|-----------------|-----------------|

Bridge:

   B5    A5 E5        B5               B5    A5 E5
E|-----------------|-----------------|-----------------|-----------------|
B|-----------------|-----------------|-----------------|-----------------|
G|-4444--2---------|--444------------|-4444--2---------|-----------------|
D|-4444--2--2--2---|-4444------------|-4444--2--2--2---|-----------------|
A|-2222--0--2--2---|-0222------------|-2222--0--2--2---|-------------2---|
E|----------0--0---|-----------------|----------0--0---|----------024----|
 |
 | B5    A5 E5        B5               B5    A5 E5        B5
E|-----------------|-----------------|-----------------|-----------------|
B|-----------------|-----------------|-----------------|-----------------|
G|-4444--2---------|-4444------------|-4444--2---------|-4444------------|
D|-4444--2--2--2---|-4444------------|-4444--2--2--2---|-4444------------|
A|-2222--0--2--2---|-0222------------|-2222--0--2--2---|-0222--------2~~~|
E|----------0--0---|-----------------|----------0--0---|----------024----|
 |
 |
E|-----------------|-----------------|-----------------|-----------------|
B|-----------------|-----------------|-----------------|-----------------|
G|-----------------|-----------------|-----------------|-----x\\\\\\\\\--|
D|-----------------|-----------------|-----------------|-----x\\\\\\\\\--|
A|-----------------|-----------------|-----------------|-----x\\\\\\\\\--|
E|-----------------|-----------------|-----------------|-----------------|

Outro/Guitar Solo:

Angus (Overdub):

E|----------|
B|----------|
G|----------|
D|-9~~~~~~~-|
A|----------|
E|----------|

      P.H.
E|-------------------|
B|-------------------|
G|-7b-7~~~~----------|
D|---------9-7-9~~~~~|
A|-------------------|
E|-------------------|

E|--------7----------|
B|-7-10-7---7-10b12~~|
G|-------------------|
D|-------------------|
A|-------------------|
E|-------------------|

E|-------------------------------|
B|-----12-15b-------15----12~~~~-|
G|-/14----------/14---/14--------|
D|-------------------------------|
A|-------------------------------|
E|-------------------------------|

E|-12b14---12---------------------------------------|
B|--------------15-12----12~~~~---------------------|
G|--------------------14-------14-11-14-11----------|
D|-----------------------------------------14-12----|
A|-----------------------------------------------14-|
E|--------------------------------------------------|

E|-------------------------------|
B|----------10-10-10-10b12~~~~~~~| There's some type of effect here
G|-------11----------------------| when Angus is vibratoing the string.
D|-12-14-------------------------|
A|-------------------------------|
E|-------------------------------|

Angus and Malcolm (Rhythm):

Repeat main riff until end.


[1200] Money Made
Standard Tuning


Intro: (Malcolm's part is palm muted all the way through the bits containing
        this riff)

   G                                    G
E|-----------------|-----------------|-----------------|-----------------|
B|-----------------|-----------------|-----------------|-----------------|
G|-----------------|-----------------|-----------------|-----------------|
D|-----------------|-----------------|-----------------|-----------------|
A|-55555-5-5-5-5-5-|-55555-5-5-5-5---|-55555-5-5-5-5-5-|-55555-5-5-5-5---|
E|-33336-3-6-3-6-3-|-33336-3-6-3-6---|-33336-3-6-3-6-3-|-33336-3-6-3-6---|
 |
 |                                       G    C G
E|-----------------|-----------------|-----------------|-----------------|
B|-----------------|-----------------|-----------------|-----------------|
G|-----------------|-----------------|-00005-0-5-0-5-0-|-00005-0-5-0-5---|
D|-----------------|-----------------|-00000-0-0-0-0-0-|-00000-0-0-0-0---|
A|-----------------|-----------------|-----------------|-----------------|
E|-----------------|-----------------|-----------------|-----------------|

Chorus 1:

   G                                   G
E|-----------------|-----------------|-----------------|-----------------|
B|-----------------|-----------------|-----------------|-----------------|
G|-----------------|-----------------|-----------------|-----------------|
D|-----------------|-----------------|-----------------|-----------------|
A|-55555-5-5-5-5-5-|-55555-5-5-5-5---|-55555-5-5-5-5-5-|-55555-5-5-5-5---|
E|-33336-3-6-3-6-3-|-33336-3-6-3-6---|-33336-3-6-3-6-3-|-33336-3-6-3-6---|
 |
 | G
E|-3---3----3----3-|-3----3---3----3-|-3----3---3----3-|-3----3---3----3-|
B|-3---3----3----3-|-3----3---3----3-|-3----3---3----3-|-3----3---3----3-|
G|-0--30----0----0-|-0---30---0----0-|-0---30---0----0-|-0---30---0----0-|
D|-303----30--303--|--303---30--303--|--303---30--303--|--303---30--303--|
A|-----------------|-----------------|-----------------|-----------------|
E|-----------------|-----------------|-----------------|-----------------|

   G                                   G
E|-----------------|-----------------|-----------------|-----------------|
B|-----------------|-----------------|-----------------|-----------------|
G|-----------------|-----------------|-----------------|-----------------|
D|-----------------|-----------------|-----------------|-----------------|
A|-55555-5-5-5-5-5-|-55555-5-5-5-5---|-55555-5-5-5-5-5-|-55555-5-5-5-5---|
E|-33336-3-6-3-6-3-|-33336-3-6-3-6---|-33336-3-6-3-6-3-|-33336-3-6-3-6---|
 |
 | G
E|-3---3----3----3-|-3----3---3----3-|-3----3---3----3-|-3----3---3----3-|
B|-3---3----3----3-|-3----3---3----3-|-3----3---3----3-|-3----3---3----3-|
G|-0--30----0----0-|-0---30---0----0-|-0---30---0----0-|-0---30---0----0-|
D|-303----30--303--|--303---30--303--|--303---30--303--|--303---30--303--|
A|-----------------|-----------------|-----------------|-----------------|
E|-----------------|-----------------|-----------------|-----------------|


Verse 1:

   G5    F           C   C6  A   C6
E|-333---111---1---|-----------------|
B|-333---111---1---|-----------------|
G|-000---222---2---|-0---2---0---2---|
D|-000---333---3---|-x---x---x---x---|
A|-xxx-------------|-3---3---3---3---|
E|-333-------------|-----------------|
 |                                     x4
 | G5    F           C
E|-------111---1---|-----------------|
B|-------111---1---|-1---------------|
G|-------222---2---|-0------555555---|
D|-555---333---3---|-2------333332---|
A|-555-------------|-3------333333---|
E|-333-------------|-----------------|

Chorus 2:

   G5
E|-3---3---3---3---|-3---3---3---3---|-3---3---3---3---|-3---3---3---3---|
B|-3---3---3---3---|-3---3---3---3---|-3---3---3---3---|-3---3---3---3---|
G|-0---0---0---0---|-0---0---0---0---|-0---0---0---0---|-0---0---0---0---|
D|-0---0---0---0---|-0---0---0---0---|-0---0---0---0---|-0---0---0---0---|
A|-x---x---x---x---|-x---x---x---x---|-x---x---x---x---|-x---x---x---x---|
E|-3---3---3---3---|-3---3---3---3---|-3---3---3---3---|-3---3---3---3---|
 |
 | G
E|-3---3----3----3-|-3----3---3----3-|-3----3---3----3-|-3----3---3----3-|
B|-3---3----3----3-|-3----3---3----3-|-3----3---3----3-|-3----3---3----3-|
G|-0--30----0----0-|-0---30---0----0-|-0---30---0----0-|-0---30---0----0-|
D|-303----30--303--|--303---30--303--|--303---30--303--|--303---30--303--|
A|-----------------|-----------------|-----------------|-----------------|
E|-----------------|-----------------|-----------------|-----------------|

   G5
E|-3---3---3---3---|-3---3---3---3---|-3---3---3---3---|-3---3---3---3---|
B|-3---3---3---3---|-3---3---3---3---|-3---3---3---3---|-3---3---3---3---|
G|-0---0---0---0---|-0---0---0---0---|-0---0---0---0---|-0---0---0---0---|
D|-0---0---0---0---|-0---0---0---0---|-0---0---0---0---|-0---0---0---0---|
A|-x---x---x---x---|-x---x---x---x---|-x---x---x---x---|-x---x---x---x---|
E|-3---3---3---3---|-3---3---3---3---|-3---3---3---3---|-3---3---3---3---|
 |
 | G
E|-3---3----3----3-|-3----3---3----3-|-3----3---3----3-|-3----3---3----3-|
B|-3---3----3----3-|-3----3---3----3-|-3----3---3----3-|-3----3---3----3-|
G|-0--30----0----0-|-0---30---0----0-|-0---30---0----0-|-0---30---0----0-|
D|-303----30--303--|--303---30--303--|--303---30--303--|--303---30--303--|
A|-----------------|-----------------|-----------------|-----------------|
E|-----------------|-----------------|-----------------|-----------------|

Verse 2:

   G5    F           C   C6  A   C6
E|-333---111---1---|-----------------|
B|-333---111---1---|-----------------|
G|-000---222---2---|-0---2---0---2---|
D|-000---333---3---|-x---x---x---x---|
A|-xxx-------------|-3---3---3---3---|
E|-333-------------|-----------------|
 |                                     x4
 | G5    F           C
E|-------111---1---|-----------------|
B|-------111---1---|-1---------------|
G|-------222---2---|-0------555555---|
D|-555---333---3---|-2------333332---|
A|-555-------------|-3------333333---|
E|-333-------------|-----------------|

Chorus 3:

   G5
E|-3---3---3---3---|-3---3---3---3---|-3---3---3---3---|-3---3---3---3---|
B|-3---3---3---3---|-3---3---3---3---|-3---3---3---3---|-3---3---3---3---|
G|-0---0---0---0---|-0---0---0---0---|-0---0---0---0---|-0---0---0---0---|
D|-0---0---0---0---|-0---0---0---0---|-0---0---0---0---|-0---0---0---0---|
A|-x---x---x---x---|-x---x---x---x---|-x---x---x---x---|-x---x---x---x---|
E|-3---3---3---3---|-3---3---3---3---|-3---3---3---3---|-3---3---3---3---|
 |
 | G
E|-3---3----3----3-|-3----3---3----3-|-3----3---3----3-|-3----3---3----3-|
B|-3---3----3----3-|-3----3---3----3-|-3----3---3----3-|-3----3---3----3-|
G|-0--30----0----0-|-0---30---0----0-|-0---30---0----0-|-0---30---0----0-|
D|-303----30--303--|--303---30--303--|--303---30--303--|--303---30--303--|
A|-----------------|-----------------|-----------------|-----------------|
E|-----------------|-----------------|-----------------|-----------------|

   G5
E|-3---3---3---3---|-3---3---3---3---|-3---3---3---3---|-3---3---3---3---|
B|-3---3---3---3---|-3---3---3---3---|-3---3---3---3---|-3---3---3---3---|
G|-0---0---0---0---|-0---0---0---0---|-0---0---0---0---|-0---0---0---0---|
D|-0---0---0---0---|-0---0---0---0---|-0---0---0---0---|-0---0---0---0---|
A|-x---x---x---x---|-x---x---x---x---|-x---x---x---x---|-x---x---x---x---|
E|-3---3---3---3---|-3---3---3---3---|-3---3---3---3---|-3---3---3---3---|
 |
 | G
E|-3---3----3----3-|-3----3---3----3-|-3----3---3----3-|-3----3---3----3-|
B|-3---3----3----3-|-3----3---3----3-|-3----3---3----3-|-3----3---3----3-|
G|-0--30----0----0-|-0---30---0----0-|-0---30---0----0-|-0---30---0----0-|
D|-303----30--303--|--303---30--303--|--303---30--303--|--303---30--303--|
A|-----------------|-----------------|-----------------|-----------------|
E|-----------------|-----------------|-----------------|-----------------|

Bridge A:

   F                 C                 G5
E|-1---------------|-0---------------|-3---3---3---3---|-3---3---3---3---|
B|-1---------------|-1---------------|-3---3---3---3---|-3---3---3---3---|
G|-2---------------|-0---------------|-0---0---0---0---|-0---0---0---0---|
D|-3---------------|-2---------------|-0---0---0---0---|-0---0---0---0---|
A|-----------------|-3---------------|-x---x---x---x---|-x---x---x---x---|
E|-----------------|-----------------|-3---3---3---3---|-3---3---3---3---|
 |
 | G
E|-3---3----3----3-|-3----3---3----3-|-3----3---3----3-|-3----3---3----3-|
B|-3---3----3----3-|-3----3---3----3-|-3----3---3----3-|-3----3---3----3-|
G|-0--30----0----0-|-0---30---0----0-|-0---30---0----0-|-0---30---0----0-|
D|-303----30--303--|--303---30--303--|--303---30--303--|--303---30--303--|
A|-----------------|-----------------|-----------------|-----------------|
E|-----------------|-----------------|-----------------|-----------------|

   F                 C                 G5
E|-1---------------|-0---------------|-3---3---3---3---|-3---3---3---3---|
B|-1---------------|-1---------------|-3---3---3---3---|-3---3---3---3---|
G|-2---------------|-0---------------|-0---0---0---0---|-0---0---0---0---|
D|-3---------------|-2---------------|-0---0---0---0---|-0---0---0---0---|
A|-----------------|-3---------------|-x---x---x---x---|-x---x---x---x---|
E|-----------------|-----------------|-3---3---3---3---|-3---3---3---3---|
 |
 | G
E|-3---3----3----3-|-3----3---3----3-|-3----3---3----3-|-3----3---3----3-|
B|-3---3----3----3-|-3----3---3----3-|-3----3---3----3-|-3----3---3----3-|
G|-0--30----0----0-|-0---30---0----0-|-0---30---0----0-|-0---30---0----0-|
D|-303----30--303--|--303---30--303--|--303---30--303--|--303---30--303--|
A|-----------------|-----------------|-----------------|-----------------|
E|-----------------|-----------------|-----------------|-----------------|

Bridge B:

   G                                    G
E|-----------------|-----------------|-----------------|-----------------|
B|-----------------|-----------------|-----------------|-----------------|
G|-----------------|-----------------|-----------------|-----------------|
D|-----------------|-----------------|-----------------|-----------------|
A|-55555-5-5-5-5-5-|-55555-5-5-5-5---|-55555-5-5-5-5-5-|-55555-5-5-5-5---|
E|-33336-3-6-3-6-3-|-33336-3-6-3-6---|-33336-3-6-3-6-3-|-33336-3-6-3-6---|
 |
 |                                      G    C G
E|-----------------|-----------------|-----------------|-----------------|
B|-----------------|-----------------|-----------------|-----------------|
G|-----------------|-----------------|-00005-0-5-0-5-0-|-00005-0-5-0-5---|
D|-----------------|-----------------|-00000-0-0-0-0-0-|-00000-0-0-0-0---|
A|-----------------|-----------------|-----------------|-----------------|
E|-----------------|-----------------|-----------------|-----------------|

   G                                    G
E|-----------------|-----------------|-----------------|-----------------|
B|-----------------|-----------------|-----------------|-----------------|
G|-----------------|-----------------|-----------------|-----------------|
D|-----------------|-----------------|-----------------|-----------------|
A|-55555-5-5-5-5-5-|-55555-5-5-5-5---|-55555-5-5-5-5-5-|-55555-5-5-5-5---|
E|-33336-3-6-3-6-3-|-33336-3-6-3-6---|-33336-3-6-3-6-3-|-33336-3-6-3-6---|
 |
 | G   C G
E|-----------------|-----------------|-----------------|-----------------|
B|-----------------|-----------------|-----------------|-----------------|
G|-00005-0-5-0-5-0-|-00005-0-5-0-5-0-|-00005-0-5-0-5-0-|-00005-0-5-0-5---|
D|-00000-0-0-0-0-0-|-00000-0-0-0-0-0-|-00000-0-0-0-0-0-|-00000-0-0-0-0---|
A|-----------------|-----------------|-----------------|-----------------|
E|-----------------|-----------------|-----------------|-----------------|

Verse 3:

    G                                   G
E|-----------------|-----------------|-----------------|-----------------|
B|-----------------|-----------------|-----------------|-----------------|
G|-----------------|-----------------|-----------------|-----------------|
D|-----------------|-----------------|-----------------|-----------------|
A|-55555-5-5-5-5-5-|-55555-5-5-5-5---|-55555-5-5-5-5-5-|-55555-5-5-5-5---|
E|-33336-3-6-3-6-3-|-33336-3-6-3-6---|-33336-3-6-3-6-3-|-33336-3-6-3-6---|
 |
 | G
E|-3---3----3----3-|-3----3---3----3-|-3----3---3----3-|-3----3---3----3-|
B|-3---3----3----3-|-3----3---3----3-|-3----3---3----3-|-3----3---3----3-|
G|-0--30----0----0-|-0---30---0----0-|-0---30---0----0-|-0---30---0----0-|
D|-303----30--303--|--303---30--303--|--303---30--303--|--303---30--303--|
A|-----------------|-----------------|-----------------|-----------------|
E|-----------------|-----------------|-----------------|-----------------|

   G                                   G
E|-----------------|-----------------|-----------------|-----------------|
B|-----------------|-----------------|-----------------|-----------------|
G|-----------------|-----------------|-----------------|-----------------|
D|-----------------|-----------------|-----------------|-----------------|
A|-55555-5-5-5-5-5-|-55555-5-5-5-5---|-55555-5-5-5-5-5-|-55555-5-5-5-5---|
E|-33336-3-6-3-6-3-|-33336-3-6-3-6---|-33336-3-6-3-6-3-|-33336-3-6-3-6---|
 |
 | G
E|-3---3----3----3-|-3----3---3----3-|-3----3---3----3-|-3----3---3----3-|
B|-3---3----3----3-|-3----3---3----3-|-3----3---3----3-|-3----3---3----3-|
G|-0--30----0----0-|-0---30---0----0-|-0---30---0----0-|-0---30---0----0-|
D|-303----30--303--|--303---30--303--|--303---30--303--|--303---30--303--|
A|-----------------|-----------------|-----------------|-----------------|
E|-----------------|-----------------|-----------------|-----------------|

Bridge:

  F                 C                  G
E|-1---------------|-0---------------|-----------------|-----------------|
B|-1---------------|-1---------------|-----------------|-----------------|
G|-2---------------|-0---------------|-----------------|-----------------|
D|-3---------------|-2---------------|-----------------|-----------------|
A|-----------------|-3---------------|-55555-5-5-5-5-5-|-55555-5-5-5-5---|
E|-----------------|-----------------|-33336-3-6-3-6-3-|-33336-3-6-3-6---|
 |
 | G
E|-3---3----3----3-|-3----3---3----3-|-3----3---3----3-|-3----3---3----3-|
B|-3---3----3----3-|-3----3---3----3-|-3----3---3----3-|-3----3---3----3-|
G|-0--30----0----0-|-0---30---0----0-|-0---30---0----0-|-0---30---0----0-|
D|-303----30--303--|--303---30--303--|--303---30--303--|--303---30--303--|
A|-----------------|-----------------|-----------------|-----------------|
E|-----------------|-----------------|-----------------|-----------------|

   F                 C                 G5    F           C
E|-1---------------|-0---------------|-333---111---1---|-----------------|
B|-1---------------|-1---------------|-333---111---1---|-111-------------|
G|-2---------------|-0---------------|-000---222---2---|-000-------------|
D|-3---------------|-2---------------|-000---333---3---|-222-------------|
A|-----------------|-3---------------|-xxx-------------|-333-------------|
E|-----------------|-----------------|-333-------------|-----------------|
 |
 | G
E|-3---3----3----3-|-3----3---3----3-|-3----3---3----3-|-3----3---3----3-|
B|-3---3----3----3-|-3----3---3----3-|-3----3---3----3-|-3----3---3----3-|
G|-0--30----0----0-|-0---30---0----0-|-0---30---0----0-|-0---30---0----0-|
D|-303----30--303--|--303---30--303--|--303---30--303--|--303---30--303--|
A|-----------------|-----------------|-----------------|-----------------|
E|-----------------|-----------------|-----------------|-----------------|

Repeat last two bars til fadeout


[1300] Rock N Roll Dream
Tune Up 1/2 Step

Intro: (All guitars are Anugs until noted otherwise)

                            F5                        F   A#5   F5
F |-----------------|---0-------------|-----------------|-----------------|
C |-----------------|-------5---------|-----------------|-5-----5---------|
G#|-----------------|-2---2-4---------|---------------4-|-2-----4---------|
D#|---------------2-|-------2---------|---------------2-|-------2---------|
A#|-----------------|-----------------|-----------------|-----------------|
F |-----------------|-----------------|-----------------|-----------------|

                            F5                        F   A#5   F5
F |-----------------|---0-------------|-----------------|-----------------|
C |-----------------|-------5---------|-----------------|-5-----5---------|
G#|-----------------|-2---2-4---------|---------------4-|-2-----4---------|
D#|---------------2-|-------2---------|---------------2-|-------2---------|
A#|-----------------|-----------------|-----------------|-----------------|
F |-----------------|-----------------|-----------------|-----------------|

Verse 1:


F |-----0-------0---|----0------------|-----0-------0---|----0------------|
C |-----------------|-----------------|-----------------|-----------------|
G#|-0-2-------------|-----------------|-0-2-------------|-----------------|
D#|-------2-0-2---0-|-2---0-2---------|-------2-0-2---0-|-2---0-2---------|
A#|-----------------|-----------------|-----------------|-----------------|
F |-----------------|-----------------|-----------------|-----------------|
  |
  |Guitar 3, Angus, Overdub, 80% left, Fingerpicking
F |-0-0-0-0-0-0-0-0-|-0-0-0-0-0-0-0-0-|-0-0-0-0-0-0-0-0-|-0-0-0-0-0-0-0-0-|
C |-0-0-0-0-0-0-0-0-|-0-0-0-0-0-0-0-0-|-0-0-0-0-0-0-0-0-|-0-0-0-0-0-0-0-0-|
G#|-----------------|-----------------|-----------------|-----------------|
D#|-----------------|-----------------|-----------------|-----------------|
A#|-----------------|-----------------|-----------------|-----------------|
F |-----------------|-----------------|-----------------|-----------------|

                                        A#    D#Sus2            E
F |-----0-------0---|----0------------|-----------------|-----------------|
C |-----------------|-----------------|-5-----5---------|-------5---------|
G#|-0-2-------------|-----------------|-2-----2---------|-------4---------|
D#|-------2-0-2---0-|-2---0-2---------|-x-----0---------|-----0-2---------|
A#|-----------------|-----------------|-4---------------|---0-------------|
F |-----------------|-----------------|-----------------|-3---------------|
  |
F |-0-0-0-0-0-0-0-0-|-0-0-0-0-0-0-0-0-|-0-0-0-0-0-0-0-0-|-0-0-0-0-0-0-0-0-|
C |-0-0-0-0-0-0-0-0-|-0-0-0-0-0-0-0-0-|-0-0-0-0-0-0-0-0-|-0-0-0-0-0-0-0-0-|
G#|-----------------|-----------------|-----------------|-----------------|
D#|-----------------|-----------------|-----------------|-----------------|
A#|-----------------|-----------------|-----------------|-----------------|
F |-----------------|-----------------|-----------------|-----------------|

Rest for two bars, then;

F |-----0-------0---|----0------------|-----0-------0---|----0------------|
C |-----------------|-----------------|-----------------|-----------------|
G#|-0-2-------------|-----------------|-0-2-------------|-----------------|
D#|-------2-0-2---0-|-2---0-2---------|-------2-0-2---0-|-2---0-2---------|
A#|-----------------|-----------------|-----------------|-----------------|
F |-----------------|-----------------|-----------------|-----------------|
  |
  |
F |-0-0-0-0-0-0-0-0-|-0-0-0-0-0-0-0-0-|-0-0-0-0-0-0-0-0-|-0-0-0-0-0-0-0-0-|
C |-0-0-0-0-0-0-0-0-|-0-0-0-0-0-0-0-0-|-0-0-0-0-0-0-0-0-|-0-0-0-0-0-0-0-0-|
G#|-----------------|-----------------|-----------------|-----------------|
D#|-----------------|-----------------|-----------------|-----------------|
A#|-----------------|-----------------|-----------------|-----------------|
F |-----------------|-----------------|-----------------|-----------------|

                                        A#    D#Sus2            E
F |-----0-------0---|----0------------|-----------------|-----------------|
C |-----------------|-----------------|-5-----5---------|-------5---------|
G#|-0-2-------------|-----------------|-2-----2---------|-------4---------|
D#|-------2-0-2---0-|-2---0-2---------|-x-----0---------|-----0-2---------|
A#|-----------------|-----------------|-4---------------|---0-------------|
F |-----------------|-----------------|-----------------|-3---------------|
  |
F |-0-0-0-0-0-0-0-0-|-0-0-0-0-0-0-0-0-|-0-0-0-0-0-0-0-0-|-0-0-0-0-0-0-0-0-|
C |-0-0-0-0-0-0-0-0-|-0-0-0-0-0-0-0-0-|-0-0-0-0-0-0-0-0-|-0-0-0-0-0-0-0-0-|
G#|-----------------|-----------------|-----------------|-----------------|
D#|-----------------|-----------------|-----------------|-----------------|
A#|-----------------|-----------------|-----------------|-----------------|
F |-----------------|-----------------|-----------------|-----------------|

Repeat last two bars twice.


F |-----0-----------|
C |-------Feedback--|
G#|---2-------------|
D#|-2---------------|
A#|-----------------|
F |-----------------|

Chorus 1: (Malcolm is now in.)

    F5    A#5         G#5   D#5         F5    A#5         G#5   D#5
F |-----------------|-3---------------|-----------------|-3---------------|
C |-----------------|-3-----3---------|-----------------|-3-----3---------|
G#|-------2---------|-0-----2---------|-------2---------|-0-----2---------|
D#|-2-----2---------|-0-----0---------|-2-----2---------|-0-----0---------|
A#|-2-----0---------|-x-----0---------|-2-----0---------|-x-----0---------|
F |-0---------------|-3---------------|-0---------------|-3---------------|
  |
  | F5    A#5         G#5   D#5         F5    A#5         G#5   D#5
F |-----------------|-3---------------|-----------------|-3---------------|
C |-----------------|-3-----3---------|-----------------|-3-----3---------|
G#|-------2---------|-0-----2---------|-------2---------|-0-----2---------|
D#|-2-----2---------|-0-----0---------|-2-----2---------|-0-----0---------|
A#|-2-----0---------|-x-----0---------|-2-----0---------|-x-----0---------|
F |-0---------------|-3---------------|-0---------------|-3---------------|

Repeat above as needed.

Verse 2:

Malcolm cuts out again, and Angus' guitars play the figures from Verse 1.
Meanwhile, Angus has an overdub soloing over those figures.


F |-----------------------------------|
C |-----------------------------------|
G#|-----------9-----------------------|
D#|-7-5-7~~~--------------------------|
A#|----------------------5b7---7-7~~~-|
F |-----------------------------------|

F |-----------------------------------|
C |-5~~~~~~~\\\-10b12r10--------------|
G#|------------------------7b--9~~~(7)|
D#|-----------------------------------|
A#|-----------------------------------|
F |-----------------------------------|

F |-------------------|---------------|
C |-------------------|-10b12---8-----|
G#|---7-9-9~~~7~~~\\\-|-----------9~~~|
D#|-9-----------------|---------------|
A#|-------------------|---------------|
F |-------------------|---------------|

F |-----------------------|
C |---5----10b12r10~~~~~9-|
G#|-7---------------------|
D#|-----------------------|
A#|-----------------------|
F |-----------------------|

F |---7-7-----------|
C |---8-8b----------|
G#|--------9~~~~~---|
D#|-----------------|
A#|-----------------|
F |-----------------|

F |-------10--------|
C |-10b12r10--------|
G#|------------9~~~~|
D#|-----------------|
A#|-----------------|
F |-----------------|

F |-----------------|
C |-----3-5---------|
G#|---4-------------|
D#|-7---------------|
A#|-----------------|
F |-----------------|

Chorus is the same as last time through, however, Angus has an overdub playing
this lick;

F |-------------------------|
C |-----3-------------------|
G#|-2/4---4\2---2-----------|
D#|-----------5---5-2---2~~~|
A#|-------------------5-----|
F |-------------------------|

at  2:26, 2:35, 2:44, and 2:53. The fingerpicking pattern that has been
used throughout the song so far joins in w/ the rhythm tracks during the
third repetition of the chorus.


Verse 3:

This one is a bit tricky. As far as I can hear, Angus has at least 3 guitars
going off here. Leading into it, the feedback technique used before the first
chorus is used again here.

Note that the fingerpicking pattern used throughout the track is still intact
here.

F |-----0-------0---|----0------------|-----0---------0-|-----0-------0---|
C |-----------------|-----------------|---------2-------|---0-------0-----|
G#|-0-2-------------|-----------------|---2-------------|---------------2-|
D#|-------2-0-2---0-|-2---0-2---------|-2-----0---------|-------0---------|
A#|-----------------|-----------------|-------------4---|-3---------------|
F |-----------------|-----------------|-----------------|-----------------|

The above guitar continues to play the last two bars 3 times, while these
guitars layer on top of them;


F |----------------------|
C |----------------------|
G#|----------------------|
D#|----------------------| <-Joins in at 3:17
A#|-7~~~~5-4~~~~3~~~5~~~-|
F |----------------------|


F |----------------------|
C |-5~~~~3-2~~~~1~~~5~~~~|
G#|----------------------|
D#|----------------------| <-Joins in at 3:22
A#|----------------------|
F |----------------------|

And this one final one starts at around 3:25 and continues to play this:


F |------------------------------------|
C |----5-5----5-5----5-5----5-5----5-5-|
G#|-7b-----7b-----7b-----7b-----7b-----|
D#|------------------------------------|
A#|------------------------------------|
F |------------------------------------|

Until the chords before the pre chorus, where it switches to:

F |-----------10-10-10-10-10-10b12-12-12-10b12~~~~~|
C |-12-12-12---------------------------------------|
G#|------------------------------------------------|
D#|------------------------------------------------|
A#|------------------------------------------------|
F |------------------------------------------------|

Repeat figures from Chorus 2 until fadeout.


[1400] Rocking All The Way
Standard Tuning

Intro:

                       G5
E|-----------------|-----------------|-----------------|-----------------|
B|-----------------|-----------------|-----------------|-----------------|
G|-----------------|---0-----0-------|-----------------|---0-----0-------|
D|-----------------|---0-----0-------|-----------------|---0-----0-------|
A|-----------------|---x-----x-------|-----------------|---x-----x-------|
E|-----------------|---3-----3-------|-----------------|---3-----3-------|
 |
 |
E|-----------------|-----------------|-----------------|-----------------|
B|-----------------|-----------------|-----------------|-----------------|
G|-----------------|-----3-----------|-----------------|-----------------|
D|---------3-5---5-|---------5---3-5-|-----------------|-----------------|
A|-----------------|-----------------|-----------------|-----------------|
E|-----------------|-----------------|-----------------|-----------------|

     C5    C5  A#5     G5                C5    C5  A#5     G5
E|-----------------|---3-----3-------|-----------------|---3-----3-------|
B|-----------------|---3-----3-------|-----------------|---3-----3-------|
G|-----------------|---0-----0-------|---5-3---5---3---|---0-----0-------|
D|---5-3---5---3---|---0-----0-------|---5-3---5---3---|---0-----0-------|
A|---3-1---3---1---|---x-----x-------|---3-1---3---1---|---x-----x-------|
E|-------3---------|---3-----3-------|-------3---------|---3-----3-------|
 |
 |
E|-----------------|-----------------|-----------------|-----------------|
B|-----------------|-----------------|-----------------|-----------------|
G|-----------------|-----3-----------|-----------------|-----------------|
D|---------3-5---5-|---------5---3-5-|-----------------|-----------------|
A|-----------------|-----------------|-----------------|-----------------|
E|-----------------|-----------------|-----------------|-----------------|

     C5    C5  A#5
E|-----------------|
B|-----------------|
G|---5-3---5---3---|
D|---5-3---5---3---|
A|---3-1---3---1---|
E|-------3---------|
 |
 |   C     C   A#
E|-----------------|
B|-----------------|
G|---5-3-0-5---3---|
D|---5-3-0-5---3---|
A|-----------------|
E|-----------------|

Verse 1:

     G5                C5    C5  A#5     G5                C5    C5  A#5
E|---3-----3-------|-----------------|---3-----3-------|-----------------|
B|---3-----3-------|-----------------|---3-----3-------|-----------------|
G|---0-----0-------|---5-3---5---3---|---0-----0-------|---5-3---5---3---|
D|---0-----0-------|---5-3---5---3---|---0-----0-------|---5-3---5---3---|
A|---x-----x-------|---3-1---3---1---|---x-----x-------|---3-1---3---1---|
E|---3-----3-------|-------3---------|---3-----3-------|-------3---------|
 |
 | G                   C     C   A#5   G   A#5             C A#  C   A#
E|-----------------|-----------------|-----------------|-----------------|
B|-----------------|-----------------|-----------------|-----------------|
G|-0---3---0---3-0-|---5-3---5---3---|-0-0-3-0-------0-|---5-3-0-5---3-0-|
D|-0---3---0---3-0-|---5-3-0-5---3---|-0-0-3---3-0-3---|---5-3-0-5---3---|
A|-----------------|-----------------|-----------------|-----------------|
E|-----------------|-----------------|-----------------|-----------------|

     C5                A#5   F           C5                A#5   F5
E|-----------------|-----------------|-----------------|-----------------|
B|-----------------|-----------------|-----------------|-----------------|
G|---5-----5-------|---3-------------|---5-----5-------|---3-------------|
D|---5-----5-------|---3-----3-------|---5-----5-------|---3-----3-------|
A|---3-----3-------|---1-----3-------|---3-----3-------|---1-----3-------|
E|-----------------|---------1-------|-----------------|---------1-------|
 |
 |   C                 A#5   F           C5                A#5   F5
E|-----------------|-----------------|-----------------|-----------------|
B|-----------------|-----------------|-----------------|-----------------|
G|---5-----5-------|---3-------------|---5-----5-------|---3-------------|
D|---5-----5-----3-|---3-------3---5-|-5-5-----5-----3-|---3-------3-----|
A|---3---3-3-----1-|---1-----3-3---3-|-3-3-----3-----1-|---1-----3-3-----|
E|-----------------|---------1-------|-----------------|---------1-------|

     C5                A#5   F           C5                A#5   F5
E|-----------------|-----------------|-----------------|-----------------|
B|-----------------|-----------------|-----------------|-----------------|
G|---5-----5-------|---3-------------|---5-----5-------|---3-------------|
D|---5-----5-------|---3-----3-------|---5-----5-------|---3-----3-------|
A|---3-----3-------|---1-----3-------|---3-----3-------|---1-----3-------|
E|-----------------|---------1-------|-----------------|---------1-------|
 |
 |   C                 A#5   F           C5                A#5   F5
E|-----------------|-----------------|-----------------|-----------------|
B|-----------------|-----------------|-----------------|-----------------|
G|---5-----5-------|---3-------------|---5-----5-------|---3-----------2-|
D|---5-----5-----3-|---3-------3---5-|-5-5-----5-----3-|---3---3-3-3---0-|
A|---3---3-3-----1-|---1-----3-3---3-|-3-3-----3-----1-|---1---3-3-3-----|
E|-----------------|---------1-------|-----------------|-----------1-----|

     D5
E|-----------------|-----------------|-----------------|-----------------|
B|---3-----3-------|---3-----3-------|---3-----3-------|---3-3-3-3-3-3-3-|
G|---2-----2-------|---2-----2-------|---2-----2-------|---2-2-2-2-2-2-2-|
D|---0-----0-------|---0-----0-------|---0-----0-------|---0-0-0-0-0-0-0-|
A|-----------------|-----------------|-----------------|-----------------|
E|-----------------|-----------------|-----------------|-----------------|
 |
 |   D5
E|-----------------|-----------------|-----------------|-----------------|
B|---3-----3-------|---3-----3-----3-|---3-----3-----3-|---3-3-3-3-------|
G|---2-----2-------|---2-----2-----2-|---2-----2---0-2-|---2-2-2-2-------|
D|-0-0---0-0-----0-|---0---0-0-----0-|---0-----0---0-0-|---0-0-0-0-------|
A|-0-----0-------0-|-------0---------|-----------------|-----------------|
E|-----------------|-----------------|-----------------|-----------------|

Chorus 1:

     G5                C5    C5  A#5     G5                C5    C5  A#5
E|---3-------------|-----------------|---3-----3-------|-----------------|
B|---3-------------|-----------------|---3-----3-------|-----------------|
G|---0-------------|---5-3---5---3---|---0-----0-------|---5-3---5---3---|
D|---0-------------|---5-3---5---3---|---0-----0-------|---5-3---5---3---|
A|---x-------------|---3-1---3---1---|---x-----x-------|---3-1---3---1---|
E|---3-------------|-------3---------|---3-----3-------|-------3---------|
 |
 | G                   C     C   A#5   G   A#5             C A#  C   A#
E|-----------------|-----------------|-----------------|-----------------|
B|-----------------|-----------------|-----------------|-----------------|
G|-0---3---0-----0-|---5-3---5---3---|-0-0-3---------0-|---5-3-0-5---3-0-|
D|-0-0-3-0-0---3---|---5-3-0-5---3---|-0-0-3---3-0-3---|---5-3-0-5---3---|
A|-----------------|-----------------|-----------------|-----------------|
E|-----------------|-----------------|-----------------|-----------------|

     G5                C5    C5  A#5     G5                C5    C5  A#5
E|---3-----3-------|-----------------|---3-----3-------|-----------------|
B|---3-----3-------|-----------------|---3-----3-------|-----------------|
G|---0-----0-------|---5-3---5---3---|---0-----0-------|---5-3---5---3---|
D|---0-----0-------|---5-3---5---3---|---0-----0-------|---5-3---5---3---|
A|---x-----x-------|---3-1---3---1---|---x-----x-------|---3-1---3---1---|
E|---3-----3-------|-------3---------|---3-----3-------|-------3---------|
 |
 | G                   C     C   A#5   G   A#5             C A#  C   A#
E|-----------------|-----------------|-----------------|-----------------|
B|-----------------|-----------------|-----------------|-----------------|
G|-0---3---0-----0-|---5-3---5---3---|-0-0-3---0---3-0-|---5-3-0-5---3-0-|
D|-0---3---0---0-0-|---5-3-0-5---3---|-0-0-3---0-0-3-0-|---5-3-0-5---3---|
A|-----------------|-----------------|-----------------|-----------------|
E|-----------------|-----------------|-----------------|-----------------|

Verse 2:

  C5                A#5   F           C5                A#5   F5
E|-----------------|-----------------|-----------------|-----------------|
B|-----------------|-----------------|-----------------|-----------------|
G|---5-----5-------|---3-------------|---5-----5-------|---3-------------|
D|---5-----5-------|---3-----3-------|---5-----5-------|---3-----3-------|
A|---3-----3-------|---1-----3-------|---3-----3-------|---1-----3-------|
E|-----------------|---------1-------|-----------------|---------1-------|
 |
 |   C                 A#5   F           C5                A#5   F5
E|-----------------|-----------------|-----------------|-----------------|
B|-----------------|-----------------|-----------------|-----------------|
G|---5-----5-------|---3-------------|---5-----5-------|---3-----------2-|
D|---5-----5-----3-|---3-------3---5-|-5-5-----5-----3-|---3---3-3-3---0-|
A|---3---3-3-----1-|---1-----3-3---3-|-3-3-----3-----1-|---1---3-3-3-----|
E|-----------------|---------1-------|-----------------|-----------1-----|

  C5                A#5   F           C5                A#5   F5
E|-----------------|-----------------|-----------------|-----------------|
B|-----------------|-----------------|-----------------|-----------------|
G|---5-----5-------|---3-------------|---5-----5-------|---3-------------|
D|---5-----5-------|---3-----3-------|---5-----5-------|---3-----3-------|
A|---3-----3-------|---1-----3-------|---3-----3-------|---1-----3-------|
E|-----------------|---------1-------|-----------------|---------1-------|
 |
 |   C                 A#5   F           C5                A#5   F5
E|-----------------|-----------------|-----------------|-----------------|
B|-----------------|-----------------|-----------------|-----------------|
G|---5-----5-------|---3-------------|---5-----5-------|---3-----------2-|
D|---5-----5-----3-|---3-------3---5-|-5-5-----5-----3-|---3---3-3-3---0-|
A|---3---3-3-----1-|---1-----3-3---3-|-3-3-----3-----1-|---1---3-3-3-----|
E|-----------------|---------1-------|-----------------|-----------1-----|

     D5
E|-----------------|-----------------|-----------------|-----------------|
B|---3-----3-------|---3-----3-------|---3-----3-------|---3-3-3-3-3-3-3-|
G|---2-----2-------|---2-----2-------|---2-----2-------|---2-2-2-2-2-2-2-|
D|---0-----0-------|---0-----0-------|---0-----0-------|---0-0-0-0-0-0-0-|
A|-----------------|-----------------|-----------------|-----------------|
E|-----------------|-----------------|-----------------|-----------------|
 |
 |   D5
E|-----------------|-----------------|-----------------|-----------------|
B|---3-----3-------|---3-----3-----3-|---3-----3-----3-|---3-3-3-3-3-3---|
G|---2-----2-------|---2-----2-----2-|---2-----2---0-2-|---2-2-2-2-2-2-0-|
D|-0-0---0-0-----0-|---0---0-0-----0-|---0-----0---0-0-|---0-0-0-0-0-0---|
A|-0-----0-------0-|-------0---------|-----------------|-----------------|
E|-----------------|-----------------|-----------------|-----------------|

Chorus 2:

     G5                C5    C5  A#5     G5                C5    C5  A#5
E|---3-------------|-----------------|---3-----3-------|-----------------|
B|---3-------------|-----------------|---3-----3-------|-----------------|
G|---0-------------|---5-3---5---3---|---0-----0-------|---5-3---5---3---|
D|---0-------------|---5-3---5---3---|---0-----0-------|---5-3---5---3---|
A|---x-------------|---3-1---3---1---|---x-----x-------|---3-1---3---1---|
E|---3-------------|-------3---------|---3-----3-------|-------3---------|
 |
 | G                   C     C   A#5   G   A#5             C A#  C   A#
E|-----------------|-----------------|-----------------|-----------------|
B|-----------------|-----------------|-----------------|-----------------|
G|-0---3---0-----0-|---5-3---5---3---|-0-0-3---0-----0-|---5-3-0-5---3-0-|
D|-0-0-3-0-0---3-0-|---5-3-0-5---3---|-0-0-3---0-0-3-0-|---5-3-0-5---3---|
A|-----------------|-----------------|-----------------|-----------------|
E|-----------------|-----------------|-----------------|-----------------|

     G5                C5    C5  A#5     G5                C5    C5  A#5
E|---3-----3-------|-----------------|---3-----3-------|-----------------|
B|---3-----3-------|-----------------|---3-----3-------|-----------------|
G|---0-----0-------|---5-3---5---3---|---0-----0-------|---5-3---5---3---|
D|---0-----0-------|---5-3---5---3---|---0-----0-------|---5-3---5---3---|
A|---x-----x-------|---3-1---3---1---|---x-----x-------|---3-1---3---1---|
E|---3-----3-------|-------3---------|---3-----3-------|-------3---------|
 |
 | G                   C     C   A#5   G   A#5             C A#  C   A#
E|-----------------|-----------------|-----------------|-----------------|
B|-----------------|-----------------|-----------------|-----------------|
G|-0---3---0-----0-|---5-3---5---3---|-0-0-3---0-----0-|---5-3-0-5---3-0-|
D|-0---3---0---3-0-|---5-3-0-5---3---|-0-0-3---0-0-3-0-|---5-3-0-5---3---|
A|-----------------|-----------------|-----------------|-----------------|
E|-----------------|-----------------|-----------------|-----------------|

     G5                C5    C5  A#5     G5                C5    C5  A#5
E|---3-----3-------|-----------------|---3-----3-------|-----------------|
B|---3-----3-------|-----------------|---3-----3-------|-----------------|
G|---0-----0-------|---5-3---5---3---|---0-----0-------|---5-3---5---3---|
D|---0-----0-------|---5-3---5---3---|---0-----0-------|---5-3---5---3---|
A|---x-----x-------|---3-1---3---1---|---x-----x-------|---3-1---3---1---|
E|---3-----3-------|-------3---------|---3-----3-------|-------3---------|
 |
 | G                   C     C   A#5   G   A#5             C A#  C   A#
E|-----------------|-----------------|-----------------|-----------------|
B|-----------------|-----------------|-----------------|-----------------|
G|-0---3---0-----0-|---5-3---5---3---|-0-0-3---0-----0-|---5-3-0-5---3-0-|
D|-0---3---0---3-0-|---5-3-0-5---3---|-0-0-3---0-0-3-0-|---5-3-0-5---3---|
A|-----------------|-----------------|-----------------|-----------------|
E|-----------------|-----------------|-----------------|-----------------|

     G5                C5    C5  A#5     G5                C5    C5  A#5
E|---3-----3-------|-----------------|---3-----3-------|-----------------|
B|---3-----3-------|-----------------|---3-----3-------|-----------------|
G|---0-----0-------|---5-3---5---3---|---0-----0-------|---5-3---5---3---|
D|---0-----0-------|---5-3---5---3---|---0-----0-------|---5-3---5---3---|
A|---x-----x-------|---3-1---3---1---|---x-----x-------|---3-1---3---1---|
E|---3-----3-------|-------3---------|---3-----3-------|-------3---------|
 |
 | G                   C     C   A#5   G   A#5             C A#  C   A#
E|-----------------|-----------------|-----------------|-----------------|
B|-----------------|-----------------|-----------------|-----------------|
G|-0---3---0-----0-|---5-3---5---3---|-0-0-3---0-----0-|---5-3-0-5---3-0-|
D|-0---3---0---3-0-|---5-3-0-5---3---|-0-0-3---0---3-0-|---5-3-0-5---3---|
A|-----------------|-----------------|-----------------|-----------------|
E|-----------------|-----------------|-----------------|-----------------|

Guitar Solo 1:

Angus (Overdub):


E|-----------8-8-------8-8-8-----------------------|
B|-----------8-8-------8-8-8-10-8------------------|
G|-x\--10b12-----10b12-------10-8b-----8----8-8---\|
D|-x\-------------------------------10---10--------|
A|-x\----------------------------------------------|
E|-------------------------------------------------|

E|------------------------------------|
B|------------------------------------|
G|-5-5-5-------5-5-------8---8-8~~~~~-|
D|-----------7-----5-7-5-7---7-7~~~~~-|
A|------------------------------------|
E|------------------------------------|

E|----10------10------10--------------------------|
B|-11b13---11b13---11b13--------------------------|
G|------------------------12-12~~~------12-12-12--|
D|--------------------------------12h14-----------|
A|------------------------------------------------|
E|------------------------------------------------|

E|----------10-----10-----10-----10-----10-----10----10----10----10---|
B|-11b13--------11b13--11b13--11b13--11b13--11b13-11b13-11b13-11b13---|
G|--------------------------------------------------------------------|
D|--------------------------------------------------------------------|
A|--------------------------------------------------------------------|
E|--------------------------------------------------------------------|

Angus and Malcolm (Rhythm)

  C5                A#5   F           C5                A#5   F5
E|-----------------|-----------------|-----------------|-----------------|
B|-----------------|-----------------|-----------------|-----------------|
G|---5-----5-------|---3-------------|---5-----5-------|---3-------------|
D|---5-----5-------|---3-----3-------|---5-----5-------|---3-----3-------|
A|---3-----3-------|---1-----3-------|---3-----3-------|---1-----3-------|
E|-----------------|---------1-------|-----------------|---------1-------|
 |
 |   C                 A#5   F           C5                A#5   F5
E|-----------------|-----------------|-----------------|-----------------|
B|-----------------|-----------------|-----------------|-----------------|
G|---5-----5-------|---3-------------|---5-----5-------|---3-----------2-|
D|---5-----5-----3-|---3-------3---5-|-5-5-----5-----3-|---3---3-3-3---0-|
A|---3---3-3-----1-|---1-----3-3---3-|-3-3-----3-----1-|---1---3-3-3-----|
E|-----------------|---------1-------|-----------------|-----------1-----|

  D5                   C5    C5          D5
E|-----------------|-----------------|-----------------|-----------------|
B|---3-----3-------|-----------------|---3-----3-------|---3-----3-3-3-3-|
G|---2-----2-------|---5-------------|---2-----2-------|---2-----2-2-2-2-|
D|---0-----0-------|---5-----5-------|---0-----0-------|---0-----0-0-0-0-|
A|-----------------|---3-----5-------|-----------------|-----------------|
E|-----------------|---------3-------|-----------------|-----------------|
 |
 |   D5          C         C G           D5
E|-----------------|-----------------|-----------------|-----------------|
B|---3-----3-------|-----------------|---3-----3-----3-|---3-3-3-3-3-3---|
G|---2-----2-------|---5-------------|---2-----2---0-2-|---2-2-2-2-2-2-0-|
D|---0-----0-----5-|---5---5---5-----|---0-----0---0-0-|---0-0-0-0-0-0---|
A|---------------3-|---3---3-5-5-----|-----------------|-----------------|
E|-----------------|---------3-3-----|-----------------|-----------------|

Chorus 3:

     G5                C5    C5  A#5     G5                C5    C5  A#5
E|---3-------------|-----------------|---3-----3-------|-----------------|
B|---3-------------|-----------------|---3-----3-------|-----------------|
G|---0-------------|---5-3---5---3---|---0-----0-------|---5-3---5---3---|
D|---0-------------|---5-3---5---3---|---0-----0-------|---5-3---5---3---|
A|---x-------------|---3-1---3---1---|---x-----x-------|---3-1---3---1---|
E|---3-------------|-------3---------|---3-----3-------|-------3---------|
 |
 | G                   C     C   A#5   G   A#5             C A#  C   A#
E|-----------------|-----------------|-----------------|-----------------|
B|-----------------|-----------------|-----------------|-----------------|
G|-0---3---0-----0-|---5-3---5---3---|-0-0-3---0-----0-|---5-3-0-5---3-0-|
D|-0-0-3-0-0---3---|---5-3-0-5---3---|-0-0-3---0-0-3-0-|---5-3-0-5---3---|
A|-----------------|-----------------|-----------------|-----------------|
E|-----------------|-----------------|-----------------|-----------------|

     G5                C5    C5  A#5     G5
E|---3-----3-------|-----------------|---3-----3-------|-----------------|
B|---3-----3-------|-----------------|---3-----3-------|-----------------|
G|---0-----0-------|---5-3---5---3---|---0-----0-------|-----------------|
D|---0-----0-------|---5-3---5---3---|---0-----0-------|-----------------|
A|---x-----x-------|---3-1---3---1---|---x-----x-------|-----------------|
E|---3-----3-------|-------3---------|---3-----3-------|-----------------|
 |
 | G                   C     C   A#5   G   A#5
E|-----------------|-----------------|-----------------|-----------------|
B|-----------------|-----------------|-----------------|-----------------|
G|-0---3---0-----0-|---5-3---5---3---|-0-0-3---0-----0-|-----------------|
D|-0---3---0---3-0-|---5-3-0-5---3---|-0-0-3---0-0-3-0-|-----------------|
A|-----------------|-----------------|-----------------|-----------------|
E|-----------------|-----------------|-----------------|-----------------|

Guitar Solo 2:

Angus (Overdub):


E|------------|
B|----11------|
G|-10b12------|
D|------------|
A|------------|
E|------------|

E|-8-----------8-------8---------------------------|
B|---8-11------8-------8-10-8----------------------|
G|-----10b-------10b12---10-8-----8-10-------------|
D|----------------------------10-------10-10-8---\-|
A|-------------------------------------------------|
E|-------------------------------------------------|
                               P.M.
E|-------------------------------------|
B|-------------8--------8~~~------8~~~~|
G|--------8-10-------10------10-0-8~~~~|
D|-10~~~---------10~~------------------|
A|-------------------------------------|
E|-------------------------------------|

E|----------------------8-8-------8-8-11--11---11--8--|
B|-----8-8-----8--------8-8-------8-8-10b-10---10b-8--|
G|-/10-----/10----10b12-----10b12---------------------|
D|----------------------------------------------------|
A|----------------------------------------------------|
E|----------------------------------------------------|

E|-11--8-8----11b-8---11b-8-----------8-8-------8-8-8-|
B|-10b-8-8-11------11-------11-/11b13-----11b13-------|
G|----------------------------------------------------|
D|----------------------------------------------------|
A|----------------------------------------------------|
E|----------------------------------------------------|

E|-15---15---15----15----|
B|-16b--16b--16b---16b---|
G|-----------------------| x2.5
D|-----------------------|
A|-----------------------|
E|-----------------------|

E|-11----------------------------|
B|----8--------------------------|
G|-------10b12-10-8----8---------|
D|------------------10-----10~~~\|
A|-------------------------------|
E|-------------------------------|

E|--------------------------------------------|
B|--------------------------------------------|
G|-8-8b----------8b----8------8b----/9---8----|
D|---------10~~~----10---8-10----10--------10-|
A|--------------------------------------------|
E|--------------------------------------------|

E|-----------------------------------|
B|-----------------------------------|
G|/9------8---10---8~~~--------------|
D|---8~~~---8----8-----10---8-10~~~~-|
A|-----------------------------------|
E|-----------------------------------|

E|-------8-8-------8--------8-8------------8-----------------|
B|-------8-8-11b13-8--11b13-8-8-11b13-11pb13r11-11-8---------|
G|-10b12---------------------------------------------10-8----|
D|--------------------------------------------------------10-|
A|-----------------------------------------------------------|
E|-----------------------------------------------------------|

E|--------------8----8----------8-8-------8-8-------8-8-|
B|--------------8----8----------8-8-------8-8-------8-8-|
G|-8b---------------------10b12-----10b12-----10b12-----|
D|----10-10-~~~-----------------------------------------|
A|------------------------------------------------------|
E|------------------------------------------------------|

E|-------8-8-------8-8-------11-8---------|
B|-------8-8-------8-8------------11-8----|
G|-10b12-----10b12-----10b12-----------10-|
D|----------------------------------------|
A|----------------------------------------|
E|----------------------------------------|

E|-----------------------------------------------13--------|
B|-13-13-13-----13-13-13-----13-13----16b18r16------16b-13-|
G|----------/14----------/14-------14----------------------|
D|---------------------------------------------------------|
A|---------------------------------------------------------|
E|---------------------------------------------------------|

E|-------------------|
B|-13------13~~~~~~~-|
G|----15-------------|
D|-------------------|
A|-------------------|
E|-------------------|

Angus and Malcolm (Rhythm):

   C5
E|-----------------|-----------------|-----------------|-----------------|
B|-----------------|-----------------|-----------------|-----------------|
G|-5-5-5-5-5-5-5-5-|-5-5-5-5-5-5-5-5-|-5-5-5-5-5-5-5-5-|-5-5-5-5-5-5-5-5-|
D|-5-5-5-5-5-5-5-5-|-5-5-5-5-5-5-5-5-|-5-5-5-5-5-5-5-5-|-5-5-5-5-5-5-5-5-|
A|-3-3-3-3-3-3-3-3-|-3-3-3-3-3-3-3-3-|-3-3-3-3-3-3-3-3-|-3-3-3-3-3-3-3-3-|
E|-----------------|-----------------|-----------------|-----------------|
 |
 | C5
E|-----------------|-----------------|-----------------|-----------------|
B|-----------------|-----------------|-----------------|-----------------|
G|-5---5---5---5---|-5---5---5---5---|-5---5---5---5---|-5---5---5---5---|
D|-5---5---5---5---|-5---5---5---5---|-5---5---5---5-5-|-5---5---5---5---|
A|-3---3---3---3---|-3---3---3---3---|-3---3---3---3-3-|-3---3---3---3---|
E|-----------------|-----------------|-----------------|-----------------|

   C5
E|-----------------|-----------------|-----------------|-----------------|
B|-----------------|-----------------|-----------------|-----------------|
G|-5-5-5-5-5-5-5-5-|-5-5-5-5-5-5-5-5-|-5-5-5-5-5-5-5-5-|-5-5-5-5-5-5-5-5-|
D|-5-5-5-5-5-5-5-5-|-5-5-5-5-5-5-5-5-|-5-5-5-5-5-5-5-5-|-5-5-5-5-5-5-5-5-|
A|-3-3-3-3-3-3-3-3-|-3-3-3-3-3-3-3-3-|-3-3-3-3-3-3-3-3-|-3-3-3-3-3-3-3-3-|
E|-----------------|-----------------|-----------------|-----------------|
 |
 | C5                  F Eb  F   Eb      C5                F Eb  F   Eb
E|-----------------|-----------------|-----------------|-----------------|
B|-----------------|-----------------|-----------------|-----------------|
G|-5---5---5---5---|-5-5-3---5---3---|---5-----5-------|-5-5-3---5---3---|
D|-5---5---5---5---|-5-3-1---3---1---|---5-----5---5-5-|-5-3-1---3---1---|
A|-3---3---3---3---|-3---------------|---3-----3---3-3-|-3---------------|
E|-----------------|-----------------|-----------------|-----------------|

Repeat last 4 bars as needed. On the last time though, Malcolm joins in with
Angus on bar 4.

End on C5

E|---|
B|---|
G|-5-|
D|-5-|
A|-3-|
E|---|



[1500] Black Ice


Intro: (Angus oonly)

   A C               A C               A C                A C
E|-----------------|-----------------|-----------------|-----------------|
B|-----------------|-----------------|-----------------|-----------------|
G|---5-----8757-5--|---5-----8787-5--|---5-----8787-5--|---5-----8787-5--|
D|-7-5-7-7-8757--75|-7-5-7-7-8787--75|-7-5-7-7-8787--75|-7-5-7-7-8757--75|
A|-0-0-0-0---------|-0-0-0-0---------|-0-0-0-0---------|-0-0-0-0---------|
E|-----------------|-----------------|-----------------|-----------------|

Pre Verse 1:

   A C               A C               A C               A C
E|-----------------|-----------------|-----------------|-----------------|
B|---5-----8-------|---5-----8-------|---5-----8-------|---5-----8-------|
G|---5-----8--7-5--|---5-----8--7-5--|---5-----8--7-5--|---5-----8--7-5--|
D|-7-5-7-7-8--7--75|-7-5-7-7-8--7--75|-7-5-7-7-8--7--75|-7-5-7-7-8--7--75|
A|-0-3-0-0-6-05----|-0-3-0-0-6-05----|-0-3-0-0-6-05----|-0-3-0-0-6-05----|
E|-----------------|-----------------|-----------------|-----------------|
 |
 |  A C               A C               A C                A C
E|-----------------|-----------------|-----------------|-----------------|
B|-----------------|-----------------|-----------------|-----------------|
G|---5-----8757-5--|---5-----8787-5--|---5-----8787-5--|---5-----8787-5--|
D|-7-5-7-7-8757--75|-7-5-7-7-8787--75|-7-5-7-7-8787--75|-7-5-7-7-8757--75|
A|-0-0-0-0---------|-0-0-0-0---------|-0-0-0-0---------|-0-0-0-0---------|
E|-----------------|-----------------|-----------------|-----------------|

Verse 1:

   A C
E|-----------------|
B|---------8--7----|
G|---5-----8--7-5--|
D|-2-5-2-2-8--7--75|
A|-0-3-0-0---0-----|
E|-----------------|
 |                  x4
 | A C
E|-----------------|
B|-----------------|
G|---5-----8--7-5--|
D|-7-5-7-7-8--7--75|
A|-0-0-0-0---0-----|
E|-----------------|

Pre Chorus 1:

  A5     C5    D5                      D5    C5    A5
E|-----------------|-----------------|-----------------|-----------------|
B|-------------3---|-----------------|-3---------------|-----------------|
G|-2-----5-----2---|-----------------|-2-----5-----2---|-----------------|
D|-2-----5-----0---|-----------------|-0-----5-----2---|-----------------|
A|-0-----3---------|-----------------|-------3-----0---|-----------------|
E|-----------------|-----------------|-----------------|-----------------|
 |
 | A5     C5    D5                     D5     C5   A5
E|-----------------|-----------------|-----------------|-----------------|
B|-------------3---|-----------------|-3---------------|-----------------|
G|-2-----5-----2---|-----------------|-2-----5-----2---|-----------------|
D|-2-----5-----0---|-----------------|-0-----5-----2---|-----------------|
A|-0-----3---------|-----------------|-------3-----0---|-----------------|
E|-----------------|-----------------|-----------------|-----------------|

  A5     C5    D5                      D5    C5    A5
E|-----------------|-----------------|-----------------|-----------------|
B|-------------3---|-----------------|-3---------------|-----------------|
G|-2-----5-----2---|-----------------|-2-----5-----2---|-----------------|
D|-2-----5-----0---|-----------------|-0-----5-----2---|-----------------|
A|-0-----3---------|-----------------|-------3-----0---|-----------------|
E|-----------------|-----------------|-----------------|-----------------|
 |
 | A5     C5    D5                     D5     C5   A5
E|-----------------|-----------------|-----------------|-----------------|
B|-------------3---|-----------------|-3---------------|-----------------|
G|-2-----5-----2---|-----------------|-2-----5-----2---|-----------------|
D|-2-----5-----0---|-----------------|-0-----5-----2---|-----------------|
A|-0-----3---------|-----------------|-------3-----0---|-----------------|
E|-----------------|-----------------|-----------------|-----------------|

Chorus 1:

   A C               A C               A C               A C
E|-----------------|-----------------|-----------------|-----------------|
B|---5-----8-------|---5-----8-------|---5-----8-------|---5-----8-------|
G|---5-----8--7-5--|---5-----8--7-5--|---5-----8--7-5--|---5-----8--7-5--|
D|-7-5-7-7-8--7--75|-7-5-7-7-8--7--75|-7-5-7-7-8--7--75|-7-5-7-7-8--7--75|
A|-0-3-0-0-6-05----|-0-3-0-0-6-05----|-0-3-0-0-6-05----|-0-3-0-0-6-05----|
E|-----------------|-----------------|-----------------|-----------------|
 |
 |  A C               A C               A C                A C
E|-----------------|-----------------|-----------------|-----------------|
B|-----------------|-----------------|-----------------|-----------------|
G|---5-----8757-5--|---5-----8787-5--|---5-----8787-5--|---5-----8787-5--|
D|-7-5-7-7-8757--75|-7-5-7-7-8787--75|-7-5-7-7-8787--75|-7-5-7-7-8757--75|
A|-0-0-0-0---------|-0-0-0-0---------|-0-0-0-0---------|-0-0-0-0---------|
E|-----------------|-----------------|-----------------|-----------------|

Angus has an overdub going here too.

E|-------------11p10----10------------|
B|-10-13-10-10-------13------13-10----|
G|---------------------------------12-| x4
D|------------------------------------|
A|------------------------------------|
E|------------------------------------|

Verse 2:

   B D
E|-----------------|
B|---7-----6--5----|
G|-4-7-4-4-5--4----|
D|-4-7-4-4-3--2-0--|
A|-2-5-2-2---2---20|
E|-----------------|
 |
 |                   x8
E|-----------------|
B|---7-----6--5-3--|
G|---7-----5--2--42|
D|-9---9-9---------|
A|-----------------|
E|-----------------|

   A C
E|-----------------|
B|---------8--7----|
G|---5-----8--7-5--|
D|-2-5-2-2-8--7--75|
A|-0-3-0-0---0-----|
E|-----------------|
 |                  x4
 | A C
E|-----------------|
B|-----------------|
G|---5-----8--7-5--|
D|-7-5-7-7-8--7--75|
A|-0-0-0-0---0-----|
E|-----------------|

Overdub:


E|-------------13p12----12------------|
B|-12-15-12-12-------15------15-12----|
G|---------------------------------14-| x8
D|------------------------------------|
A|------------------------------------|
E|------------------------------------|

E|-------------11p10----10------------|
B|-10-13-10-10-------13------13-10----|
G|---------------------------------12-| x4
D|------------------------------------|
A|------------------------------------|
E|------------------------------------|

Chorus 2A:

   A5  C5  D5        A5   C5 D5
E|-----------------|-----------------|
B|---------3-------|-3---------------|
G|-2---5---2-------|-2---5---2-------|
D|-2---5---0-------|-0---5---2-------|
A|-0---3-----------|-----3---0-------|
E|-----------------|-----------------|
 |
 | A5  C5  D5        A5   C5 D5
E|-----------------|-----------------|
B|---------3-------|-3---------------|
G|-2---5---2-------|-2---5---2-------|
D|-2---5---0-------|-0---5---2-------|
A|-0---3-----------|-----3---0-------|
E|-----------------|-----------------|

   A5  C5  D5        A5   C5 D5
E|-----------------|-----------------|
B|---------3-------|-3---------------|
G|-2---5---2-------|-2---5---2-------|
D|-2---5---0-------|-0---5---2-------|
A|-0---3-----------|-----3---0-------|
E|-----------------|-----------------|
 |
 | A5  C5  D5        A5   C5 D5
E|-----------------|-----------------|
B|---------3-------|-3---------------|
G|-2---5---2-------|-2---5---2-------|
D|-2---5---0-------|-0---5---2-------|
A|-0---3-----------|-----3---0-------|
E|-----------------|-----------------|
 |
 | Guitar 4
E|-----------------|-----------------|

B|-----------------|---------8b10~~~~|
G|-----------------|-----------------|
D|-----------------|-----------------|
A|-----------------|-----------------|
E|-----------------|-----------------|

Chorus 2B:

Angus (Overdub):


E|----------------------------------------5-----------------|
B|-8b10~~~--8-8b10~~~---8-8b10-8-8b10~~~----8-5-------------|
G|----------------------------------------------7-5b--------|
D|---------------------------------------------------(7)~~~~|
A|----------------------------------------------------------|
E|----------------------------------------------------------|

   P.H.-------------------|
E|------------------------|
B|------------------------|
G|-7----5-----------------|
D|-----------7~~~~--------|
A|------------------------|
E|-----------------15\----|

Angus and Malcolm (Rhythm):

   A5  C5  D5        A5   C5 D5
E|-----------------|-----------------|
B|---------3-------|-3---------------|
G|-2---5---2-------|-2---5---2-------|
D|-2---5---0-------|-0---5---2-------|
A|-0---3-----------|-----3---0-------|
E|-----------------|-----------------|
 |
 | A5  C5  D5        A5   C5 D5
E|-----------------|-----------------|
B|---------3-------|-3---------------|
G|-2---5---2-------|-2---5---2-------|
D|-2---5---0-------|-0---5---2-------|
A|-0---3-----------|-----3---0-------|
E|-----------------|-----------------|

   A5  C5  D5        A5   C5 D5
E|-----------------|-----------------|
B|---------3-------|-3---------------|
G|-2---5---2-------|-2---5---2-------|
D|-2---5---0-------|-0---5---2-------|
A|-0---3-----------|-----3---0-------|
E|-----------------|-----------------|
 |
 | A5  C5  D5        A5   C5 D5
E|-----------------|-----------------|
B|---------3-------|-3---------------|
G|-2---5---2-------|-2---5---2-------|
D|-2---5---0-------|-0---5---2-------|
A|-0---3-----------|-----3---0-------|
E|-----------------|-----------------|

Guitar Solo 1:

Angus (Overdub):


E|------------15------------------------------------------------------|
B|-15b17---------15b17~~~-15-15b7-15-15b7-15-15b17-15-15b17-15b17~~~~\|
G|--------------------------------------------------------------------|
D|--------------------------------------------------------------------|
A|--------------------------------------------------------------------|
E|--------------------------------------------------------------------|

E|-----12-14b15----12-14----12----12-------12----12---|
B|-/13-------------------15----13----13-15----13------|
G|----------------------------------------------------|
D|----------------------------------------------------|
A|----------------------------------------------------|
E|----------------------------------------------------|

E|----14----12---15b17---15-12-15-15b17~~~~~--|
B|-13----13-----------------------------------|
G|--------------------------------------------|
D|--------------------------------------------|
A|---------------------------------------10\\\|
E|--------------------------------------------|

Angus and Malcom (Rhythm):

   A C               A C               A C               A C
E|-----------------|-----------------|-----------------|-----------------|
B|---5-----8-------|---5-----8-------|---5-----8-------|---5-----8-------|
G|---5-----8--7-5--|---5-----8--7-5--|---5-----8--7-5--|---5-----8--7-5--|
D|-7-5-7-7-8--7--75|-7-5-7-7-8--7--75|-7-5-7-7-8--7--75|-7-5-7-7-8--7--75|
A|-0-3-0-0-6-05----|-0-3-0-0-6-05----|-0-3-0-0-6-05----|-0-3-0-0-6-05----|
E|-----------------|-----------------|-----------------|-----------------|
 |
 |  A C               A C               A C                A C
E|-----------------|-----------------|-----------------|-----------------|
B|-----------------|-----------------|-----------------|-----------------|
G|---5-----8757-5--|---5-----8787-5--|---5-----8787-5--|---5-----8787-5--|
D|-7-5-7-7-8757--75|-7-5-7-7-8787--75|-7-5-7-7-8787--75|-7-5-7-7-8757--75|
A|-0-0-0-0---------|-0-0-0-0---------|-0-0-0-0---------|-0-0-0-0---------|
E|-----------------|-----------------|-----------------|-----------------|

Verse 3:

Angus: (Overdub)


E|-----------|
B|-10b12~~~~~|
G|-----------|
D|-----------|
A|-----------|
E|-----------|

E|-10b11-----7----5-7-----------------|
B|-------------7------7-5-------------|
G|--------------------------7~~~~~-\\-|
D|------------------------------------|
A|------------------------------------|
E|------------------------------------|

       P.H.
E|-------------|
B|-------------|
G|-2---2~~~~~~~|
D|-------------|
A|-------------|
E|-------------|

Angus and Malcolm (Rhythm)

   B D
E|-----------------|
B|---7-----6--5----|
G|-4-7-4-4-5--4----|
D|-4-7-4-4-3--2-0--|
A|-2-5-2-2---2---20|
E|-----------------|
 |
 |                   x4
E|-----------------|
B|---7-----6--5-3--|
G|---7-----5--2--42|
D|-9---9-9---------|
A|-----------------|
E|-----------------|

   A C
E|-----------------|
B|---------8--7----|
G|---5-----8--7-5--|
D|-2-5-2-2-8--7--75|
A|-0-3-0-0---0-----|
E|-----------------|
 |                  x4
 | A C
E|-----------------|
B|-----------------|
G|---5-----8--7-5--|
D|-7-5-7-7-8--7--75|
A|-0-0-0-0---0-----|
E|-----------------|

Chorus 3:

   A5  C5  D5        A5   C5 D5
E|-----------------|-----------------|
B|---------3-------|-3---------------|
G|-2---5---2-------|-2---5---2-------|
D|-2---5---0-------|-0---5---2-------|
A|-0---3-----------|-----3---0-------|
E|-----------------|-----------------|
 |
 | A5  C5  D5        A5   C5 D5
E|-----------------|-----------------|
B|---------3-------|-3---------------|
G|-2---5---2-------|-2---5---2-------|
D|-2---5---0-------|-0---5---2-------|
A|-0---3-----------|-----3---0-------|
E|-----------------|-----------------|
 |
 |
E|-----8---10~~~~~~|-10--8-----------|
B|-10--------------|--------10~~~~~~~|
G|-----------------|-----------------|
D|-----------------|-----------------|
A|-----------------|-----------------|
E|-----------------|-----------------|

   A5  C5  D5        A5   C5 D5
E|-----------------|-----------------|
B|---------3-------|-3---------------|
G|-2---5---2-------|-2---5---2-------|
D|-2---5---0-------|-0---5---2-------|
A|-0---3-----------|-----3---0-------|
E|-----------------|-----------------|
 |
 | A5  C5  D5        A5   C5 D5
E|-----------------|-----------------|
B|---------3-------|-3---------------|
G|-2---5---2-------|-2---5---2-------|
D|-2---5---0-------|-0---5---2-------|
A|-0---3-----------|-----3---0-------|
E|-----------------|-----------------|
 |
 |
E|-----8---10~~~~~-|---------------------|
B|-10--------------|-8b10--8b10--8b10~~~~|
G|-----------------|---------------------|
D|-----------------|---------------------|
A|-----------------|---------------------|
E|-----------------|---------------------|

Guitar Solo 2A:

Angus (Overdub):

E|-----8---10~~~~~~|-10--8-----------|
B|-10--------------|--------10~~~~~~~|
G|-----------------|-----------------|
D|-----------------|-----------------|
A|-----------------|-----------------|
E|-----------------|-----------------|

E|-----------------------------------|
B|------10---10----10-13-10-13h15~~~~|
G|-9-12----12---12-------------------|
D|-----------------------------------|
A|-----------------------------------|
E|-----------------------------------|

E|--------------------------------|
B|-8b10~~~~~~8b10~~~~~~8b10~~~~~~\|
G|--------------------------------|
D|--------------------------------|
A|--------------------------------|
E|--------------------------------|

Angus and Malcolm (Rhythm):

   A5  C5  D5        A5   C5 D5
E|-----------------|-----------------|
B|---------3-------|-3---------------|
G|-2---5---2-------|-2---5---2-------|
D|-2---5---0-------|-0---5---2-------|
A|-0---3-----------|-----3---0-------|
E|-----------------|-----------------|
 |                                    x2
 | A5  C5  D5        A5   C5 D5
E|-----------------|-----------------|
B|---------3-------|-3---------------|
G|-2---5---2-------|-2---5---2-------|
D|-2---5---0-------|-0---5---2-------|
A|-0---3-----------|-----3---0-------|
E|-----------------|-----------------|

Guitar Solo 2B (Outro)

Angus (Overdub):

   T.P.----------------------------------------------|
E|-------------------|---------17--------------------|
B|-20----------------|-15b17------17-20-20b22~~~~----|
G|-21----------------|-------------------------------|
D|-------------------|-------------------------------|
A|---------------12\\|-------------------------------|
E|-------------------|-------------------------------|

E|-12-12-12-14-12-12-12-12-12-12-12---\-|
B|-13-13-13-13-13-13-13-13-13-13-13---\-|
G|--------------------------------------|
D|--------------------------------------|
A|--------------------------------------|
E|--------------------------------------|

E|-12-12-12-14-12-12-12-12-12-12-12---\-|
B|-13-13-13-13-13-13-13-13-13-13-13---\-|
G|--------------------------------------|
D|--------------------------------------|
A|--------------------------------------|
E|--------------------------------------|

    T.P.-----------------------------------|
E|-----------------------------------------|
B|-/20-------------------------------------|
G|-/21-------------------------------------|
D|-----------------------------------------|
A|-----------------------------------------|
E|-----------------------------------------|

E|------------------------------|
B|-10-13-10-10--16~~~-15~~~-13b-|
G|------------------------------|
D|------------------------------|
A|------------------------------|
E|------------------------------|

E|-----------------------------------|
B|-20b22~~~~----5-8------------------|
G|------------------7b9~~~~5---------|
D|---------------------------7-5b7~~~|
A|-----------------------------------|
E|-----------------------------------|

Angus and Malcolm (Rhythm):

   A C               A C               A C               A C
E|-----------------|-----------------|-----------------|-----------------|
B|---5-----8-------|---5-----8-------|---5-----8-------|---5-----8-------|
G|---5-----8--7-5--|---5-----8--7-5--|---5-----8--7-5--|---5-----8--7-5--|
D|-7-5-7-7-8--7--75|-7-5-7-7-8--7--75|-7-5-7-7-8--7--75|-7-5-7-7-8--7--75|
A|-0-3-0-0-6-05----|-0-3-0-0-6-05----|-0-3-0-0-6-05----|-0-3-0-0-6-05----|
E|-----------------|-----------------|-----------------|-----------------|
 |
 |  A C               A C               A C                A C
E|-----------------|-----------------|-----------------|-----------------|
B|-----------------|-----------------|-----------------|-----------------|
G|---5-----8757-5--|---5-----8787-5--|---5-----8787-5--|---5-----8787-5--|
D|-7-5-7-7-8757--75|-7-5-7-7-8787--75|-7-5-7-7-8787--75|-7-5-7-7-8757--75|
A|-0-0-0-0---------|-0-0-0-0---------|-0-0-0-0---------|-0-0-0-0---------|
E|-----------------|-----------------|-----------------|-----------------|

   A C               A C               A C               A C
E|-----------------|-----------------|-----------------|-----------------|
B|---5-----8-------|---5-----8-------|---5-----8-------|---5-----8-------|
G|---5-----8--7-5--|---5-----8--7-5--|---5-----8--7-5--|---5-----8--7-5--|
D|-7-5-7-7-8--7--75|-7-5-7-7-8--7--75|-7-5-7-7-8--7--75|-7-5-7-7-8--7--75|
A|-0-3-0-0-6-05----|-0-3-0-0-6-05----|-0-3-0-0-6-05----|-0-3-0-0-6-05----|
E|-----------------|-----------------|-----------------|-----------------|
 |
 |  A C               A C               A C                A C
E|-----------------|-----------------|-----------------|-----------------|
B|-----------------|-----------------|-----------------|-----------------|
G|---5-----8757-5--|---5-----8787-5--|---5-----8787-5--|---5-----8787-5--|
D|-7-5-7-7-8757--75|-7-5-7-7-8787--75|-7-5-7-7-8787--75|-7-5-7-7-8757--75|
A|-0-0-0-0---------|-0-0-0-0---------|-0-0-0-0---------|-0-0-0-0---------|
E|-----------------|-----------------|-----------------|-----------------|

   A C                       Eb5  D5   C5  A5
E|-----------------|-----------------|-----------------|-----------------|
B|-----------------|-----------------|-----------------|-----------------|
G|-2-5-2-----------|-2-5-2---8---7---|-5---2---22222222|22222222222222222|
D|-2-5-2-----------|-2-5-2-2-8---7---|-5---2---22222222|22222222222222222|
A|-0-3-0-----------|-0-3-0-0-6---5---|-3---0---00000000|00000000000000000|
E|-----------------|-----------------|-----------------|-----------------|
 |                x3
 |  A C                      Eb5 D5    C5  A5
E|-----------------|-----------------|-----------------|-----------------|
B|-----------------|-----------------|-----------------|-----------------|
G|---5-----8757-5--|-2-5-2-2-8---7---|-5---2---22222222|22222222222222222|
D|-7-5-7-7-8757--75|-2-5-2-2-8---7---|-5---2---22222222|22222222222222222|
A|-0-0-0-0---------|-0-3-0-0-6---5---|-3---0---00000000|00000000000000000|
E|-----------------|-----------------|-----------------|-----------------|

                     A5
E|-----------------|-----------------|
B|-----------------|-----------------|
G|-----------------|-2---------------|
D|-----------------|-2---------------|
A|-----------------|-0---------------|
E|-----------------|-----------------|
 |
 |                   A5
E|-----------------|-----------------|
B|-----------------|-----------------|
G|-----------x\\\\\|-2---------------|
D|-----------x\\\\\|-2---------------|
A|-----------x\\\\\|-0---------------|
E|-----------------|-----------------|
comments
print report bad tab
29 comments total. Showing first comments.
0 reply
playinbass1432 wrote on December 22 2008, 02:17 pm

Fucking UG turned my formatting to shit. Fuck.

0 reply
marcelaguiar wrote on December 22 2008, 04:51 pm

how? it looks right to me...
in fact it might just be the best tab on this site

0 reply
playinbass1432 wrote on December 22 2008, 05:11 pm

The overdubs in Anything Goes and the dot in RNR Train. lol. Thanks though. Glad you like the tab. It took me a ****ing month.

I want to post or [tab]
guest
You may want to rate the tab now too:
select rating
Please do not post tabs as comments. Select "correction" instead!