Oops, an error
Loading. Please wait.

Blow Up Your Video Tab

ver1
ver1

Album

More versions @911Tabs.com
8,049 views 6 this week
6 commentsread comments
1 2 3 4 5
accurate
x 8
add to favorites launch autoscroll
font size
0
reset
Autoscroll
+/-
esc
set tempo
stop
Contributor
WARNING: You are trying to view
                                    content from Ultimate-Guitar.com
                                    in an unauthorized application,
                                    which is prohibited.

                                    Please use an official Ultimate
                                    Guitar Tabs application for iPhone,
                                    iPad or Android to access legitimate
                                    chords, guitar, bass, and drum tabs
                                    from Ultimate-Guitar.com database.

                                    Type "ultimate guitar tabs" in Apple
                                    App Store's or Android Market's
                                    search to find the application.
Blow Up Your Video Album

                                            Heatseeker
 Clean
 (Malcolm)
 ----------------------------------|
 ----------------------------------|
 -----8-8----6-6----8-8----6-6-----|
 -----8-8----6-6----8-8----6-6-----|
 ---6------8------6------6------6--|
 --6------8------6------6------6---|

 Distortion
 Let Ring....
 ------------|
 ------------|
 ------------|
 --8~~~~~~~--
 --8~~~~~~~--
 --6~~~~~~~--

 Riff A
 ----------------------|
 ----------------------|
 ----------------------|
 ---8-8---8-8-8-8---8--|x4
 ---8-8---8-8-6-8p6-6--|
 --6-----6-------------|

 Angus
 Riff B1
 ---------------------|
 ------5-5-5-5-5-5-5--|
 --2-4-4-4-4-4-4-4-4--|
 --2-4-2-2-2-2-2-2-2--|x2
 --0-2----------------|
 ---------------------|

 Malcolm
 Riff B2
 --5------------------|
 --5------------------|
 --2-4-9-9-9-9-9-9-9--|
 --2-4-9-9-9-9-9-9-9--|x2
 --0-2-7-7-7-7-7-7-7--|
 ------0-0-0-0-0-0-0--|

 Play Riff A x2

 Verse
 ------------------------|
 ------------------------|
 ------------------------|
 ------------------------|
 --9-x-9-x-9-x-11-x-x-9--|
 --7-x-7-x-7-x-7--x-x-7--|

 Play Riff B1/B2 multiple times

 Play Riff A for chorus

 ------------------------------------------|
 ------------------------------------------|
 --7--7-4-5--7-4-5--7-4-5--7-4-5--5-2-2-4--|
 --7--7-4-5--7-4-5--7-4-5--7-4-5--5-2-2-4--|
 --5--5-2-3--5-2-3--5-2-3--5-2-3--3-0-0-2--|
 ------------------------------------------|

 Play Verse And Chorus Again

 Solo
 ---------------------------------------------------|
 ---------------------------------------------------|
 ------<4>-----0h2h3-0h2h3-<3>-0h2h3-3p2p0--2--2--0-|
 ------------------------------------------4--4--4--|
 --2-2-----2-2--------------------------------------|
 ---------------------------------------------------|

 ----------------7-10p7-7------------------------------|
 ----------10b-10--------10p7-7--------9b-9b-7---------|
 -------------------------------9p7-7b-9b-9b-7-9-7-9-9-|
 --0-4-<4>---------------------------------------------|
 ------------------------------------------------------|
 ------------------------------------------------------|

 -----------------------------17-17---17-17---17-17---|
 --12-12-9--9--7-9b-9b--17b-17-----17b-----17b--------|
 --13-13-11-11-7-9b-9b--------------------------------|
 -----------------------------------------------------|
 -----------------------------------------------------|
 -----------------------------------------------------|

 -----17-17---17b--|
 --17b-----17b-----|
 ------------------|
 ------------------|
 ------------------|
 ------------------|

 Play Riff A x3

 U.B..........
 --7--7--7--7---17b--|
 --10-10-10-10-------|
 --------------------|
 --------------------|
 --------------------|
 --------------------|

 End In Ad Lib Solo


                                    That's The Way I Wanna Rock 'N' Roll

e---------------|-----------------|-------------|
B---------------|-----------------|-------------|
G---------------|-----------------|-------------|
D---2-----------|-2---------------|-------------|
A---0-0-4-5-7-0-|-0-0-4-5-6-7-0---|-------------|
E---------------|-----------------|-------------|

---------------|
---------------|
------5--7-----|
------5--7-----|
---0--3--5-----|
---------------|

------3-------------|
------3----3----3---|
-2----0----2----0---|
-2----0----0----0---|
-0------------------|
------3----2----3---|

e-----------|-------------|-----------|-------------|-----------|
B-----------|-------------|---3-3-3---|-------------|---3-3-3---|
G---2-2-2---|-------------|---0-0-0---|-------------|---2-2-2---|
D---2-2-2---|-------------|---0-0-0---|-------------|---0-0-0---|
A---0-0-0---|---4-5-6-7-0-|-----------|---4-5-6-7-0-|-----------|
E-----------|-------------|---3-3-3---|-------------|---2-2-2---|

e--------------|-----------|-------------|-----------|
B--------------|---3-3-3---|-------------|-----------|
G--------------|---0-0-0---|-------------|----2------|
D--------------|---0-0-0---|-------------|----2------|
A----4-5-6-7-0-|-----------|---4-5-6-7-0-|----0------|
E--------------|---3-3-3---|-------------|-----------|

e-----------------------------------------|---------------------|
B-----------------------------------------|---------------------|
G---5---7-5---7-5-7---10-7---7-10-10-10---|-2-------------------|
D---5---7-5---7-5-7---10-7---7-10-10-10---|-2-------------------|
A---3---5-3---5-3-5---8--5---5--8--8--8---|-0-------------------|
E-----------------------------------------|---------------------|

Solo
|-----5^---------------------------------------3^--3----------------------|
|---------5-8-5-8-----5-----------------------------5-3-5-3---------------|
|-----------------5-7---5-7-5------------------------------4-2-0---0------|
|-----------------------------5-7-5--7~~~~-----------------------2-0------|
|----------------------------------7--------------------------------------|
|-------------------------------------------------------------------3~~~~-|

----------------------------------------------------15------------------|
--3^---5~~-3----/7~~5----9^~------------------15-17----15-17------------|
--3^---5~~-3----/7~~5----9^~----7---------------------------16-14-------|
-----5-------5--------7-9---7-9-----------------------------------------|
------------------------------------------------------------------------|
------------------------------------------------------------------------|

---------------------------15-17b---------------------------------------|
-15-12----12-15-15-12---12----------------------------------------------|
-------14-------------14------------------------------------------------|
------------------------------------------------------------------------|
------------------------------------------------------------------------|
----------------------------------------------------5~~~~~~~~~~~~~------|

-----------------------------5--------/5^~~~---------5-8----5-8-----5-8--8-|
-----------------------------5-7-5---------------5-8----5-8-----5-8-----5--|
-------------------------------7-5-----------------------------------------|
------7-\-----7-\------7~~~\-----------------------------------------------|
---------------------------------------------------------------------------|
---------------------------------------------------------------------------|

e----------------------------|----------------------------|
B----------------------------|----------------------------|
G----------------------------|----------------------------|
D----------------------------|-----2-3-5-----2-2-3-4-5----|
A-0-0-4-5-7-0---4-4-5-6-7-0--|-3-3-------3-------------3--|
E----------------------------|----------------------------|

e------------------------------|---------------------------|
B------------------------------|---------------------------|
G------------------------------|---------------------------|
D---------2-------------0-2----|-----2-3-5-----2-2-3-4-5---|
A-0-0-3-4---0---0-3-3-4-----0--|-3-3-------3-------------3-|
E------------------------------|---------------------------|

e----------------------------|-----|
B----------------------------|-----|
G----------------------------|-2---|
D-0-0-4-5-7-0---4-4-5-6-7-0--|-2---|
A----------------------------|-0---|
E----------------------------|-----|

--8b-8b-8b-------8-5-----5--------------|
---------------------8-5---8-5----------|
-------------------------------7-5------|
-----------------------------------5-7--|
-------------------------------------7--|
-------------------------------------5--|


                                                     Meanstreak

 Tuning: Standard

e-----------------------|
B---4~6--4-4-4-4--4-6---|
G---5~5--5-5-5-5--5-5---|
D-----------------------|
A-----------------------|
E-----------------------|

e---------------------|------------------------|
B---------------------|------------------------|
G---------------------|------------------------|
D-----6-7-------------|----6-7-----------------|
A---8-----8--6-8-6-8--|--8-----8--6-5---6-5----|
E---------------------|---------------8-----8--|

|-----------|
|-----------|
|-----------|
|-----------|
|--8~~~-\---|
|-----------|

e----------|----------------------------|
B----------|----------------------------|
G----------|--------10------8-----------|
D-----8----|--------10------8-------10--|
A-----8----|--------8-------6-------10--|
E-----6----|------------------------8---|

e----------------------------------------------|
B----------------------------------------------|
G-----------------------------8------------6---|
D-----8-------6-------3-------8------------6---|
A-----8-------6-------3-------6------------4---|
E-----6-------4-------1------------------------|

 SOLO

-----------------------------------------------------------------------------------------------|
----6b--6b-6b-6b-6b-6b-------------------------------------------------------------------------|
-----------------------------------------------------------------------------------------------|
--------------------------------------10-8-6------8b-r-5----5-8-8-6-8-6-8-8-8---------12-12~~--|
--------------------------<6><6>-8~~~--------8~~~--------8--------------------8----13----------|
-----------------------------------------------------------------------------------------------|

----------------------------------------------10--x-10-10-14-10-14-10-14-10-14-10-14-10-14-10--|
------------------------------------11---11b--------10-----------------------------------------|
-----12b10~~\--10-12-12-10-12-10-10------------------------------------------------------------|
--/--------------------------------------------------------------------------------------------|
-----------------------------------------------------------------------------------------------|
-----------------------------------------------------------------------------------------------|

-13-10b-\---14b~~~~-20b-r-17---17-----------------------------------------10-13-10----10-15----|
-----------------------------20---20-19-18-17--12-15-12---------------13b----------13-----15---|
--------------------------------------------------------14---------------------------------15--|
-----------------------------------------------------------12~~\-x\----------------------------|
-----------------------------------------------------------------x\----------------------------|
-----------------------------------------------------------------------------------------------|

--------------------------------------10-13-10----10-13----18b-15-15-17-15-------------------|
--15-15~~-14-12------------8b------13----------13-------13----------------17-15\12--12-13-12-|
----------------14-12------8b~---------------------------------------------------------------|
----------x\---------------------------------------------------------------------------------|
----------x\-------------------3\------------------------------------------------------------|
---------------------------------------------------------------------------------------------|

------------------------13-10----10--------------------------11----------------------------------|
------------------10-13-------13----10---13-10------6/\------13b-r-------16b~~~--18-18-16-18-18--|
-----------------------------------------------12-------------------x\---------------------------|
-------6-8----------------------------------------------------------x\---------------------------|
---8-8-----8~~\-----------------------------------------------------x\---------------------------|
-------------------------------------------------------------------------------------------------|

----------------------16------13~~~~\-|--------------------------------|
-16-18-18-16-18-18--16---18b----------|---------------------/6-6-6-6-8-|
--------------------------------------|---------------------/7-7-7-7-7-|
--------------------------------------|---6-7-----------6-7------------|
--------------------------------------|-8----8-6-8-6-8~~---------------|
--------------------------------------|--------------------------------|

--13b~~10----10----------------------------------------------|
----------13----13-10----------------------------------------|
----------------------12-10\6-----8--------------------------|
------------------------------8-6---6-8-6-------------x-\-3--|
------------------------------------------7~~-9~~~~~--x-\-3--|
------------------------------------------------------x-\-1--|

                                                Go Zone

e--------------------|----------------|--------------|
B--------------------|----------------|--------------|
G--------------------|----------------|--------------|
D----7---5-----------|---7---5--------|--------------|
A------------7~~~~~~-|----------7--5--|--3-----------|
E--------------------|----------------|-----5--3--0--|

e-------------|---------|
B---3-3-3-----|--3-3----|
G---2-2-2-2---|--2-2-2--|
D---0-0-0-2---|--0-0-2--|
A---------0---|------0--|
E-------------|---------|

e-------------------------------------------|
B---2-3-3-----------------------------------|
G---2-2-2-2-------0-2-------0-2---0h2-0h2---|
D---0-0-0-2-------0-2-------0-2---0h2-0h2---|
A---------0-------0-0-------0-0---0---0-----|
E-------------------------------------------|

e------------------|-------------------|-------------------|-----------------------|
B------------------|-------------------|---8-8-8---8---8---|----8-8-8---8----------|
G---5-5-5---5--(5)~|~~--5-5-5---5--(7)~|~~-7-7-7---7--(7)~~|~---7-7-7---7--7--2----|
D---5-5-5---5-5-5--|----5-5-5---5-5-7--|---5-5-5-7-5-7-5---|----5-5-5-7-5--7--2----|
A---3-3-3---3-5-3--|----3-3-3---3-5-5--|---5-----5---5-----|----5-----5----5--0----|
E---------3---3----|----------3---3----|-------------------|-----------------------|

 --------------------------------------------------------------------|
-5-5-3-2-3-2-3-2-5-5-3-2-3-2-3-2-5-5-3-2-3-2-3-2-5-5-3-2-3-2-3-2-----|
-2-2-2-2-2-2-2-2-2-2-2-2-2-2-2-2-2-2-2-2-2-2-2-2-2-2-2-2-2-2-2-2-----|
---------------------------------------------------------------------|
---------------------------------------------------------------------|
---------------------------------------------------------------------|

--15b-~~~~-15-13-12----12---------------------------------|
--------------------15----15--12-14-12-15-12~-------------|
------------------------------12-12-12-12-12~-14b(15)-----|
----------------------------------------------------------|
------------------------------------------------------/---|
----------------------------------------------------------|

---------------------------------------------------------------------------------------------|
--14b(15)-15-15--12-15-14-12----12-----------------------------------------------------------|
-----------------------------14----14------------------------------------------------/7-9-7--|
--------------------------------------11-12-12----11------12b~~-----<7>-5----<9>~~~----------|
-----------------------------------------------12----12----------/--------<7>----------------|
---------------------------------------------------------------------------------------------|

-----------5-2-0---0---------------------------------------------------------------------------|
-----------------2--------------------------------------------------15b-12-15-12-15b12--15-15--|
----7----------------2~~~~---------------------------------------------------------------------|
--9---9----------------------0-2-0-----0-------------------------------------------------------|
------------------------------------2b---r0----------------------------------------------------|
------------------------------------------------7-7---7\---7-7--7\-----------------------------|

--3-5b~~r-3-0-------------------------------------------------------------------------------|
--------------3-5~~-------------------------------------------------------------------------|
--------------------2-/7-9b~~r-7---7----------7-9b-r7---7--------7/12-9-7---7---------------|
---------------------------------9---7~~---------------9---7~~-------------9---9--7~~~~~~~--|
------------------------------------------/-\-----------------------------------------------|
--------------------------------------------------------------------------------------------|


                                          Kissin' Dynamite

 E|----------------|-------------3-----|
B|----5---3-3--5--|----5---3-3--3------|
G|----4---2-2--4--|----4---2-2--0------|
D|----2---0-0--2--|----2---0-0--0------|
A|--2---2---------|--2---2-------------|
E|----------------|--------------------|x2

E|----------------|-----------------|
B|----5----3-3-5--|----5---3-3-/5~~-|
G|--4-4--2---2-4--|--4-4---2-2-/4~~-|
D|----------------|-----------------|
A|----------------|-----------------|
E|----------------|-----------------|x2


Riff 1
	E----------------------|---------------------|
	B----------------------|---------------------|
	G------9-----7--7------|------9-----7--7--9--|
	D---9--9-----7--7--5---|------9-----7--7--9--|
	A---9--7-----5--5--5---|------7-----5--5--7--|
	E---7--0--0--------3---|---7--0---0-------0--|
	  Guitar 2 (after chorus)
	E----------------------|---------------------0--|
	B------------3--3--3---|------------3--3-----0--|
	G---4--1-----2--2--0---|---4--1-----2--2--1--1--|
	D---4--2-----0--0--0---|---4--2-----0--0--2-----|
	A---2--2---------------|---2--2-----------2-----|
	E------0--0--------3---|------0---0-------0-----| repeat

Main Riff
	Guitar 1                        (every third bar is a A instead of E)
		E----------------------------|    |--------------------|
		B----------------------------|    |---3-------3--------|
		G-------------------------(2)|    |---2---2---2---2----|
		D---2--0-----2---2-0----2-(2)|    |---0---2---0---2----|
		A---------2--2-------2--2-(0)|    |-------0-------0----|
		E------------0----------0----|x4  |--------------------|
	Guitar 2
		E----------------------------|    |--------------------|
		B----------------------------|    |--------------------|
		G----------------------------|    |--------------------|
		D-----------------------2----|    |---2---0------------|
		A---7-^5~-2------7^5-2--2----|    |-----------2---0----|
		E------------0----------0----|x4  |--------------------|


CHORUS
  Guitar 1
       pm. . . .        . . . . .
E|--------------------------------------------------|
B|--------------------------------------------------|
G|---4-------------------------------4----4-4-4-4-4-|
D|---4---4-4-4-4-----2---------------4----4-4-4-4-4-|
A|---2---2-2-2-2-----2----2-2-2-2----2----2-2-2-2-2-|
E|-------------------0----0-0-0-0-------------------|
  Guitar 2
E|--------------------------------------------------|
B|--------------------------------------------------|
G|---4---------------1---------------4--------------|
D|---4---------------2---------------4--------------|
A|---2---------------2---------------2--------------|
E|-------------------0------------------------------|


SOLO
E|-------------------------------------------------------------------------12b-----------------|
B|----------------------------/12-12b~~---------------/12b-b-b-b-b-------------15-12-----------|
G|--x\-----------------------------------9-12-9----9--------------12-----------------14-12-----|
D|--x\------------------------------------------12------------------14~~~------------------12--|
A|--x\-/7~~~~~~~~~~~~~~~~-7\-------------------------------------------------------------------|
E|---------------------------------------------------------------------------------------------|

E|------------------12-12-12-12----------------------------------------------------------------|
B|--------15-12-----12-12-12-12-12-15-12-------------------------------------------------------|
G|--14-12--------12----------------------14-12------------12-14-12-14---------------------7---9|
D|---------------------------------------------14-12-14-12------------14-12-x\-/------------9--|
A|--------------------------------------------------------------------------x\-/---5---7-------|
E|--------------------------------------------------------------------------x\-/-0---0---------|

E|----------------------------------------------------------------5-5---7b~~~-/14b~~~-15-17-17-|
B|--3^5^3^5^3^5^3^5^3^0-----------7^5/3^0-----3-3-3-\-----------------8---------------17-17-17-|
G|----------------------2/4\2-0------------/4--------------------------------------------------|
D|---------------------------------------------------------------------------------------------|
A|-----------------------------------------------------0-2-2-0-2-------------------------------|
E|---------------------------------------------------------------------------------------------|

E|-15-17-17-17---15-17-17-17-----15-17-17-15-17-17----17-17------------------------------------|
B|-17-17-17-17---17-17-17-17--17----------17-------17-17-17------------------------------------|
G|------------------------------------------------------------12-14-12----12-------------------|
D|---------------------------------------------------------------------14----14-12----12-14----|
A|---------------------------------------------------------------------------------14----------|
E|---------------------------------------------------------------------------------------------|

E|--------------------------||
B|--------------------------||
G|--------------------------||
D|--12-14-12----------------||
A|-----------12-4-12-14~~~--||
E|--------------------------||


E|---------------------------------------------------------------------------------------------|
B|---------------------------------------------------------------------------------------------|
G|------------------------------------4-------------------------------------4------------------|
D|------------------------------------4-------------------------------------4------------------|
A|------------------------------------2-------------------------------------2------------------|
E|---------------------------------------------------------------------------------------------|
  Feel like kissing dynamite"
E|------------------------||
B|------------------------||
G|------------------------||
D|-----4--4--4--------4---||
A|--4--2--2--2--4--2--2---||
E|------------------------||
Solo 2           repeat                repeat
E|-----------------------||-------------------||
B|-----------------------||-------------------||
G|---/7---------7b-------||--7--------/7------||
D|------9-9-9------9-9---||----9-7-9-----9-9--||
A|-----------------------||-------------------||
E|-----------------------||-------------------||


                                         Nick Of Time


e------------------ ---------------|
B------------------ ---------------|
G------------------ ---------------|
D--2-2-2-2-2-2-2-2- --5--5--7--7---|
A------------------ --2--3--4--5---|
E------------------ ---------------|

e--------------------------------|
B--------------------------------|
G---9--7--x-7----x------x--------|
D---9--7--x-7--5-x-5--7-x-4--5---|
A---7--5--x-5--5-x-5--7-x-4--5---|
E-0------------3---3--5---2--3---|

e---------------------------12-12-12-12-12-12--------------------------------------------|
B---------------------------12-12-12-12-12-12---13-13-13-13-13-13------------------------|
G---------------------------------------------5-12-12-12-12-12-12--7------4---5---6---7--|
D---2----------------------2------------------5--------------------7------4---5---6---7--|
A---2----------------------2------------------3--------------------5----0-2-0-3-0-4-0-5--|
E---0----------------------0-------------------------------------------------------------|


e-----7---7---7---8--8----7--5--5------------------------------------------------------------|
B--------------------------------------------------------------------------------------------|
G--/7---7---7---7------7--------------7-7-7-7-7-7-7-7-7-7-7-7-7-7-7--------4---5---6---7-----|
D-------------------------------------7-7-7-7-7-7-7-7-7-7-7-7-7-7-7--------4---5---6---7-----|
A-------------------------------------5-5-5-5-5-5-5-5-5-5-5-5-5-5-5------0-2-0-3-0-4-0-5-0---|
E--------------------------------------------------------------------------------------------|

                                 Some Sin For Nuthin'

e------------------ ---------------|
B------------------ ---------------|
G------------------ ---------------|
D--2-2-2-2-2-2-2-2- --5--5--7--7---|
A------------------ --2--3--4--5---|
E------------------ ---------------|

e--------------------------------|
B--------------------------------|
G---9--7--x-7----x------x--------|
D---9--7--x-7--5-x-5--7-x-4--5---|
A---7--5--x-5--5-x-5--7-x-4--5---|
E-0------------3---3--5---2--3---|

e---------------------------12-12-12-12-12-12--------------------------------------------|
B---------------------------12-12-12-12-12-12---13-13-13-13-13-13------------------------|
G---------------------------------------------5-12-12-12-12-12-12--7------4---5---6---7--|
D---2----------------------2------------------5--------------------7------4---5---6---7--|
A---2----------------------2------------------3--------------------5----0-2-0-3-0-4-0-5--|
E---0----------------------0-------------------------------------------------------------|


e-----7---7---7---8--8----7--5--5------------------------------------------------------------|
B--------------------------------------------------------------------------------------------|
G--/7---7---7---7------7--------------7-7-7-7-7-7-7-7-7-7-7-7-7-7-7--------4---5---6---7-----|
D-------------------------------------7-7-7-7-7-7-7-7-7-7-7-7-7-7-7--------4---5---6---7-----|
A-------------------------------------5-5-5-5-5-5-5-5-5-5-5-5-5-5-5------0-2-0-3-0-4-0-5-0---|
E--------------------------------------------------------------------------------------------|


                                        Ruff Stuff

E-------------------------------------------------------------------|
B-------------------------------------------------------------------|
G-------------------------------------------------------------------|
D--------------------6---------------------------6------------------|
A--3--4--3--1--1--3--4--3--4---3--4--3--1--1--3--4--3--4------------|
E-------------------------------------------------------------------|

--------------------------------------------------------------------|
--------------------------------------------------------------------|
-------------------------------------------------------------6------|
--------------------6---------------------------6---------6--6------|
--3--4--3--1--1--3--4--3--4---3--4--3--1--1--3--4--3--4---6--4------|
----------------------------------------------------------4---------|

Verse:
E-------------------------------------------------------------------------------|
B-------------------------------------------------------------------------------|
G--6--6--6--6--6-6----6--6--6--6--6-6----6--6--6--6--6-6----6--6--6--6--6-6-----|
D--6--6--6--6--6-6----6--6--6--6--6-6----6--6--6--6--6-6----6--6--6--6--6-6-----|
A--3--4--3--4--3-4----3--4--3--4--3-4----3--4--3--4--3-4----3--4--3--4--3-4-----|
E-------------------------------------------------------------------------------|

---------------------------------------------|
---------------------------------------------|
--6--6--6--6--6-6----6--6--6--6--6-6---------|
--6--6--6--6--6-6----6--6--6--6--6-6---------|
--3--4--3--4--3-4----3--4--3--4--3-4---------|
---------------------------------------------|

--------------------------------------------------------------|
--------------------------------------------------------------|
--------------------------------------------------------------|
--------------------6---------------------------6-------------|
--3--4--3--1--1--3--4--3--4---3--4--3--1--1--3--4--3--4-------|
--------------------------------------------------------------|

--------------------------------------------------------------|
--------------------------------------------------------------|
--------------------------------------------------------------|
--------------------6---------------------------6-------------|
--3--4--3--1--1--3--4--3--4---3--4--3--1--1--3--4--3--4-------|
--------------------------------------------------------------|

Pre-Chorus:
E-------------------------|
B-------------------------|
G--8----6-----------------|
D--8----6-----4-----------|
A--6----4-----4-----------|
E-------------2-----------|

Intro/Intro Verse:
E-------------------------------------------------------------------|
B-------------------------------------------------------------------|
G-------------------------------------------------------------------|
D--------------------6---------------------------6------------------|
A--3--4--3--1--1--3--4--3--4---3--4--3--1--1--3--4--3--4------------|
E-------------------------------------------------------------------|

--------------------------------------------------------------------|
--------------------------------------------------------------------|
-------------------------------------------------------------6------|
--------------------6---------------------------6---------6--6------|
--3--4--3--1--1--3--4--3--4---3--4--3--1--1--3--4--3--4---6--4------|
----------------------------------------------------------4---------|

Verse:
E-------------------------------------------------------------------------------|
B-------------------------------------------------------------------------------|
G--6--6--6--6--6-6----6--6--6--6--6-6----6--6--6--6--6-6----6--6--6--6--6-6-----|
D--6--6--6--6--6-6----6--6--6--6--6-6----6--6--6--6--6-6----6--6--6--6--6-6-----|
A--3--4--3--4--3-4----3--4--3--4--3-4----3--4--3--4--3-4----3--4--3--4--3-4-----|
E-------------------------------------------------------------------------------|

---------------------------------------------|
---------------------------------------------|
--6--6--6--6--6-6----6--6--6--6--6-6---------|
--6--6--6--6--6-6----6--6--6--6--6-6---------|
--3--4--3--4--3-4----3--4--3--4--3-4---------|
---------------------------------------------|

--------------------------------------------------------------|
--------------------------------------------------------------|
--------------------------------------------------------------|
--------------------6---------------------------6-------------|
--3--4--3--1--1--3--4--3--4---3--4--3--1--1--3--4--3--4-------|
--------------------------------------------------------------|

--------------------------------------------------------------|
--------------------------------------------------------------|
--------------------------------------------------------------|
--------------------6---------------------------6-------------|
--3--4--3--1--1--3--4--3--4---3--4--3--1--1--3--4--3--4-------|
--------------------------------------------------------------|

Pre-Chorus:
E-------------------------|
B-------------------------|
G--8----6-----------------|
D--8----6-----4-----------|
A--6----4-----4-----------|
E-------------2-----------|

Chorus:
E-------------------------------------------------------------------------|
B-------------------------------------------------------------------------|
G-----6---------------------6---------------------6---------------------6-|
D--6--6------------------6--6------------------6--6------------------6--6-|
A--6--4----3-4-3---------6--4----3-4-3---------6--4----3-4-3---------6--4-|
E--4-----4-------4-2-4~--4-----4-------4-2-4~--4-----4-------4-2-4~--4----|


                                     Two's Up


 E-----------------------------------------------|
B------4-3--4-3-3^4^3--------4-3--4-3-3-4^3------|
G---5--3-3--3-3------3----3--3-3--3-3-3----3-----|
D---5---------------------3----------------------|
A---3---------------------1----------------------|
E------------------------------------------------|

E------------------------------------|
B----4-3-------4-3------4-3-----4-3--|
G----3-3-------3-3------3-3-----3-3--|
D--3--------5--------6-------8-------|
A--3--------5--------6-------8-------|
E--1--------3--------4-------6-------|


          pick the G-sting, use fingers for the B and E strings
E---------8-8-8-8-8-8-8-8-6-6-6-5-5-5-5----|
B---------8-8-8-8-8-8-8-8-6-6-6-6-6-6-6----|
G---5-----5-5-5-5-5-5-5-5-5-5-5-5-5-5-5-5--|
D---5--------------------------------------|
A---3--------------------------------------|
E------------------------------------------| repeat
                    both guitars
E|---------------------||----------------------3------------||
B|---------------------||----------------------3--------3---||
G|----------5-5-5-5-5--||------5---------------0------0-----||
D|------5-5-5-5-5-5-5--||----5-----6---5---3-x-0----0-------||
A|--3-3-3-3-3-3-3-3-3--||--3-------6---5---3-x--------------||
E|---------------------||----------4---3---1-x-3------------||

E---------------------------------------------|
B------4-3--4-3-3^4^3--------4-3--4-3-3-4^3---|
G---5--3-3--3-3------3----3--3-3--3-3-3----3--|
D---5---------------------3-------------------|
A---3---------------------1-------------------|
E---------------------------------------------|

E------------------------------------|
B----4-3-------4-3------4-3-----4-3--|
G----3-3-------3-3------3-3-----3-3--|
D--3--------5--------6-------8-------|
A--3--------5--------6-------8-------|
E--1--------3--------4-------6-------|

E|------------------------|------------------|------------|---------------|
B|------------------------|------------------|------------|---------------|
G|---5--5--5--5---5--5--3-|-5-5-5-5--5-5-5-5-|-5-5-5-5-3--|---------------|
D|---5--5--5--5---5--5--3-|-5-5-5-5--5-5-5-5-|-5-5-5-5-3--|---------------|
A|---3--3--3--3---3--0--1-|-3-3-3-3--3-3-3-3-|-3-3-0-0-1--|--1--3---------|
E|------------------------|------------------|------------|--------1------|


RIFF                                                                            P.M . . . . . .
E|----------------------------------|--------------------------------------|
B|----------------------------------|--------------------------------------|
G|---5------------------------8--8--|--5-----------------------------------|
D|---5-----3-5----5-6----6-8--8--8--|--5--3-5---5-6---6-8------------------|
A|---3-----3-5----5-6----6-8--6--6--|--3--3-5---5-6---6-8-----------3<5>6--|
E|---------1-3----3-4----4-6--------|-----1-3---3-4---4-6----0-4-6---------|

E|------------------------------------------|
B|------------------------------------------|
G|----5-----------------------------8---8---|
D|----5-----3--5------5--6----6--8--8---8---|
A|----3-----3--5------5--6----6--8--6---6---|
E|----------1--3------3--4----4--6----------|

E|--------------------------------------------------|
B|--------------------------------------------------|
G|----5-------------------------------8---8---8---8-|
D|----5-------3--5-----5--6----6--8---8---8---8---8-|
A|----3-------3--5-----5--6----6--8---6---6---6---6-|
E|------------1--3-----3--4----4--6-----------------|


PRE CHORUS
E|------------------------------------------------||
B|-------4---3---4---3-----------4---3---4---3----||
G|-------3---3---3---3-----------3---3---3---3----||
D|---3----------------------5---------------------||
A|---3----------------------5---------------------||
E|---1----------------------3---------------------||

Bit BEfore solo
                                               MUTE
E|-------------------------------------------------------------------------|
B|-------4------4------4-----4------4--------------------------------------|
G|-----5------5------5-----5------5----------------------------------------|
D|---5------5------5-----5------5------5-5-5-5-5-5-5-5-5-5-5-5-5-5-5-5-----|
A|-3------3------3-----3------3--------5-5-5-5-5-5-5-5-5-5-5-5-5-5-5-5-----|
E|------(4---3---1---3)----------------3-3-3-3-3-3-3-3-3-3-3-3-3-3-3-3-----|

SOLO

E|--------------------------------------|
B|--------------------------------------|
G|--10--8--10------------7---------5----|
D|--10--8--10----7^8^9-------x-7-x------|
A|---------------------9----------------|
E|--------------------------------------|

E|------------------------------------12-12b---------------|
B|------------13b--10------------------------15-12---------|
G|10--8--10-----------12-10---9x/-\---------------12-14----|
D|10--8--10---------------------------------------------14-|
A|---------------------9-----------------------------------|
E|---------------------------------------------------------|

     F                         x2                G                      x2  then F x1, G x1
*|------------------------------------------| |--------------------------------------| |-------|
*|------------------------------------------| |--------------------------------------| |-------|
*|--10--8--10----8---10--\------------------| |--12-10--12---10----12----------------| |-15-15-|
*|--10--8--10----8---10--\------------------| |--12-10--12---10----12------------3---| |-15-15-|
*|---8--6---8----6----8--\--------------3---| |--10--8--10----8----10----0-0-4-6-----| |-13-13-|
*|-----------------------------0-0-4-6------| |--------------------------------------| |-------|
Then rythem plays that other bit


E|-------------------12-15b-15^12-----------12-14-15----11-13-11---12-15b-14-12----------------|
B|---------13b~~~~~---------------12--12-13-------------------------------------14-12-13~~~~---|
G|--x\-----------------------------------------------------------------------------------------|
D|--x\-/---------------------------------------------------------------------------------------|
A|---------------------------------------------------------------------------------------------|
E|---------------------------------------------------------------------------------------------|

E|--15--17b-r-15-12----12--------15-17b--15b-15b-15-15-15-15-15-15-15-15-15-15-15-15-15-15-15--|
B|------------------15----15---15----------------------------------------17--17--17--17--17----|
G|---------------------------------------------------------------------------------------------|
D|---------------------------------------------------------------------------------------------|
A|---------------------------------------------------------------------------------------------|
E|---------------------------------------------------------------------------------------------|

tapping
    T              T                 T               T             T
E|-19-15^14^12-| |--------------| |-------------| |-----------| |----------|
B|-------------| |-19-15^14^12--| |-------------| |--14-11^9--| |--12-7^5--|
G|-------------| |--------------| |--14-12^-10--| |-----------| |----------|
D|-------------| |--------------| |-------------| |-----------| |----------|
A|-------------| |--------------| |-------------| |-----------| |----------|
E|-------------| |--------------| |-------------| |-----------| |----------|
 Pm. . . . . .
E|----------------------------------------------------------10^12~~---15b--15b-15b-15b-15b-15--|b~~\
B|-----------4~~~~-----12b12b--9---------------10^12^13---12-----------------------------------|
G|--5--3--0-----------------------11--8~~~\----------------------------------------------------|
D|---------------------------------------------------------------------------------------------|
A|---------------------------------------------------------------------------------------------|
E|---------------------------------------------------------------------------------------------|

 END BIT            FADE IN (free time)
E|---------------3-------------------------------------------|
B|------------4----------------------------------------------|
G|---------5---------------5-5-5-5-5-5-5-5-5-5-5-5-5-5-5-5-5-|
D|------5------------------5-5-5-5-5-5-5-5-5-5-5-5-5-5-5-5-5-|
A|---3---------------------3-3-3-3-3-3-3-3-3-3-3-3-3-3-3-3-3-|
E|-----------------------------------------------------------|


                       This Means War


 e---------3----3---------|
B---------3----3----------|
G---------2----0----------|
D----2----0----0---2------|
A----2---------2---2------|
E----0---------3---0------|

e----------------------|-----------------|
B----------------------|-----------------|
G----------------------|-----------------|
D---5^0-4^0-2^0--------|--0-2^0-4^0-5^0--|
A-0--------------------|-----------------|
E----------------------|-----------------|

e------------------------------------------------|
B------------------------------------------------|
G---2--------------------------------------------|
D---2--------------------------------------------|
A---0--------------------------------------------|
E------------------------------------------------|

e-----|-------------|
B-----|-------------|
G--2--|--2--2--2----|
D--2--|--2--2--2----|
A--0--|--0--0--0----|
E-----|-------------|

e---------2--3-----|--------------------|-------2--3--------|----------|
B---------3--3-----|--------------------|-------3--3--------|----2-----|
G---1-----2--0-----|----7----5-10--7----|---1---2--0--------|----2-----|
D---2-----0--0--2--|----7----5-10--7----|---2---0--0----2---|----2-----|
A---2-----------2--|----5----3--8--5----|---2-----------2---|----0-----|
E---0--------3--0--|--------------------|---0------3----0---|----------|

e------------------|--------------------|-------------------|
B---9~~----12---9~~|----7~~-5-10--7~~---|--7~~-7-12--7~~~---|
G---9~~-7--12---9~~|----7~~~5-10--7~~--x|/-7~~-7-12--7~~~---|
D-------7----------|-------------------x|/------------------|
A------------------|-------------------x|/------------------|
E------------------|--------------------|---------------0---|
Solo
e---------------------12-----12~~~-12---------------------------------------------------------|
B--------15b(17)~~-15-----15----------15-12----12---------------------------------------------|
G-------------------------------------------14---14-12-14-12-----------------x\---------------|
D--x\------------------------------------------------------------------------x\---------------|
A--x\------------------------------------------------------------------------x\---------------|
E--x\---------------------------------------------------------12~~\-/~~12b---x\---------------|

e-----------------------12----12--12-12b-|----------------------------|
B--15b(17)--15-12-12-15----15------------|----------------------------|
G----------------------------------------|----------------------------|
D----------------------------------------|---x\-----------------------|
A----------------------------------------|---x\-----------------------|
E----------------------------------------|0--whammy bar and scraping--|
comments
print report bad tab
6 comments total. Showing first comments.
0 reply
ibanez87 wrote on July 27 2005, 12:00 am

dude, you made nick of time and some sin for nuthin' the same!

0 reply
mikedeit wrote on July 28 2005, 12:00 am

i see that you did a lot of other albums, but i think BLOW UP YOU VIDEO is your best album tab yet! and yes, i admit it, your back in black album tab is waaaaay better than mine, because i only did the basic riffs. Five Stars for BLOW UP YOUR VIDEO.

0 reply
ibanez87 wrote on August 4 2005, 12:00 am

whadda ya tlaking about? Heatseeker is the best song on the album and the tab SUCKS.

I want to post or [tab]
guest
You may want to rate the tab now too:
select rating
Please do not post tabs as comments. Select "correction" instead!