Oops, an error
Loading. Please wait.

Blow Up Your Video Tab

ver2
ver2

Album

More versions @911Tabs.com
6,181 views 3 this week
2 commentsread comments
1 2 3 4 5
excellent!
x 5
Autoscroll
+/-
esc
set tempo
stop
Contributor
WARNING: You are trying to view
                                    content from Ultimate-Guitar.com
                                    in an unauthorized application,
                                    which is prohibited.

                                    Please use an official Ultimate
                                    Guitar Tabs application for iPhone,
                                    iPad or Android to access legitimate
                                    chords, guitar, bass, and drum tabs
                                    from Ultimate-Guitar.com database.

                                    Type "ultimate guitar tabs" in Apple
                                    App Store's or Android Market's
                                    search to find the application.
Blow Up Your Video by AC/DC (1988)
album tab by Voytazz

Songs

HEATSEEKER
THAT'S THE WAY I WANNA ROCK'N'ROLL
MEANSTREAK
GO ZONE
KISSIN'DYNAMITE
NICK OF TIME
SOME SIN FOR NUTHIN'
RUFF STUFF
TWO'S UP
THIS MEANS WAR


Heatseeker


  E5                                                                        B5
e|----------------------------------------------------------0-----0---0-----|
b|-x-----5----------------5----------------5--5--5--5-------0-----0---0-----|
g|-x-4---4-4--4--4--2--4--4-4--4--4--2--4--4--4--4--4--0-1--------1---1---4-|
D|-x-4---2-2--2--2--2-------2--2--2--2--------2--2--2----------x--------0-4-|
A|-x-2---------------------------------------------------------x--------0-2-|
E|-x------------------------------------------------------------------------|

Pattern 1:
  B
e|--------------------------------------------------------------------------|
b|--------------------------------------------------------------------------|
g|--4-----4---4--4-----4-4--4--4--4-----4--4----4-----4---4--4----4--4-4-4--|
D|--2--4--4---4--2--4--4-4--4--4--2--4--4--4----2--4--4---4--2--4-4--4-4-4--|
A|2---------2----------2-----------------------2---------2---------2--------|
E|--------------------------------------------------------------------------|
          end P1
e|-------------|
b|-------------|
g|-4-----4--4--|
D|-2--4--4--4--|
A|-------------|
E|-------------|

Pattern 2:
   A   B   E                      A    Bsus4 E
e|-5------------------------------5-----------------------------------------|
b|-5---4---9-----9--9---9-9-9--9--5-----5----9----9--9---9--9--9--9---------|
g|-2---4---9-----9--9---9-9-9--9--2-----4----9----9--9---9--9--9--9---------|
D|-2---4---9-----9--9---9-9-9--9--2-----4----9----9--9---9--9--9--9---------|
A|-0---2---7-----7--7---7-7-7--7--0-----2----7----7--7---7--7--7--7---------|
E|---------0-----0--0---0-0-0--0-------------0----0--0---0--0--0--0---------|

Pattern 3: E5-Rock-Feel...

e|-------------------------------------------------------------------|
b|-------------------------------------------------------------------|
g|-4-----4-----4-----6-----4-------4-----4-----4-----6-----4---------|
D|-2-2-2-2-2-2-2-2-2-2-2-2-2-2-2-2-2-2-2-2-2-2-2-2-2-2-2-2-2-2-2-2---|
A|-------------------------------------------------------------------|
E|-------------------------------------------------------------------|


Heat-seek-er,...

e|---------------------------------------------------------------------------|
b|---------------------------------------------------------------------------|
g|---4-----4----4--4-----4--4--4--4--4-----5--7----7--7--4--5--7--7--7-4-5---|
D|---2--4--4----4--2--4--4--4--4--4--2--4--5--7----7--7--4--5--7--7--7-4-5---|
A|-2---------2-----------2-----------------3--5----5--5--2--3--5--5--5-2-3---|
E|---------------------------------------------------------------------------|
                                      ...down,
e|-------------------------------------------|
b|-------------------------------------------|
g|-7---4--5--7---4--5--7---4--2-----2--2--4--|
D|-7---4--5--7---4--5--7---4--2-----2--2--4--|
A|-5---2--3--5---2--3--5---2--0-----0--0--2--|
E|-------------------------------------------|

Solo:     ph                            b     b ph
e|--------------------------------------------------------------------------|
b|---------------------0-2--3----2--0-2--3--2--<3>------0--2--3----0--2-3-0-|
g|-------<4>----------------------------------------------------------------|
D|--------------------------------------------------------------------------|
A|-2--2--------2---2--------------------------------------------------------|
E|--------------------------------------------------------------------------|
                                                               ph      b
e|--------------------------------------------------------------------------|
b|---3--0----3--0----------------------------------------------------10-12--|
g|2--------2-------2-----------------------------4------4------<4>----------|
D|--------------------4--2--0--4--2--0--4--2--0-----------------------------|
A|--------------------------------------------------------------------------|
E|--------------------------------------------------------------------------|
                                                            ~~~~~~~      b
e|---------------7--10-7-9-7-9-7----7---------------------------------------|
b|-----------19------------------10----10--7----7----------------------9-10-|
g|-------------------------------------------10---9-7---------------7--9-10-|
D|-----------------------------------------------------9---9----------------|
A|--------------------------------------------------------------------------|
E|--------------------------------------------------------------------------|
  r    b      b                                                  b   r
e|--------------------------------------------------------------------------|
b|-9-9--10--9--10--------------------------------------12--10---9--10--9-10-|
g|-9-9--10--9--10--7-----------------------------------13--11---9--10--9-10-|
D|-----------------------9-------7-7-7-7-7--9-4-0--0------------------------|
A|---------------------------9----------------------------------------------|
E|--------------------------------------------------------------------------|
           b    r          b      b             b          b      b      b
e|---------------------------------------12----------17------------17----17-|
b|9--7--9---10--9--7--9--9--10--9--10--------17-19-----17--19--17-19--17-19-|
g|-9--7--9---10--9--7--9--9--10--9--10--------------------------------------|
D|--------------------------------------------------------------------------|
A|--------------------------------------------------------------------------|
E|--------------------------------------------------------------------------|
                      b      b      b      b
e|-17--17--17--17------17-----17-----17-----17---\----|
b|-19--19--19--19---17-19--17-19--17-19--17-19---\----|
g|----------------------------------------------------|
D|----------------------------------------------------|
A|----------------------------------------------------|
E|----------------------------------------------------|
    w/patt1                               ub     ub     ub     ub      b ~~~~~~
e|------------------------|-----------|-----7------7------7-------7--17-19|
b|------------------------|-----------|-10-12--10-12--10-12---10-12-------|
g|----4----4-----4--4--4--|-----------|-----------------------------------|
D|----2--4-4-----4--2--4--|-----------|-----------------------------------|
A|-2----------2--------2--|-----------|-----------------------------------|
E|------------------------|-----------|-----------------------------------|

ending Solo-...
     ub      ub          ub       ub           ub    ~~~~~~~ ~~~~~~  ~~~~~~
e|----19------19----------19-------19-----------19------------------------|
b|-22-24---22-24---22--22-24----22-24----22--22-24------------------------|
g|---------------------------------------------------4-------2------------|
D|------------------------------------------------------------------4-----|
A|------------------------------------------------------------------------|
E|------------------------------------------------------------------------|
     b      ~~~~~~~~~~~~~~~~~~~~~
e|-----------------------------------|
b|-----------------------------------|
g|-----------------------------------|
D|-----------------------------------|     Rock On!
A|-5--6-----2------------------------|
E|-----------------------------------|

:::::::::::::::::::::::::::::::::::::::::::::::::::::::::::::


Thats The Way I Wanna Rock N Roll

Tuning: Standard

e---------------|-----------------|-------------|
B---------------|-----------------|-------------|
G---------------|-----------------|-------------|
D---2-----------|-5---------------|-------------|
A---0-0-4-5-7-0-|-3--4-5-6-7-0----|-------------|
E---------------|-----------------|-------------|

---------------|
---------------|
------5--7-----|
------5--7-----|
---0--3--5-----|
---------------|

------3-------------|
------3----3----3---|
-2----0----2----0---|
-2----0----0----0---|
-0------------------|
------3----2----3---|

e-----------|-------------|-----------|-------------|-----------|
B-----------|-------------|---3-3-3---|-------------|---3-3-3---|
G---2-2-2---|-------------|---0-0-0---|-------------|---2-2-2---|
D---2-2-2---|-------------|---0-0-0---|-------------|---0-0-0---|
A---0-0-0---|---4-5-6-7-0-|-----------|---4-5-6-7-0-|-----------|
E-----------|-------------|---3-3-3---|-------------|---2-2-2---|

e--------------|-----------|-------------|-----------|
B--------------|---3-3-3---|-------------|-----------|
G--------------|---0-0-0---|-------------|----2------|
D--------------|---0-0-0---|-------------|----2------|
A----4-5-6-7-0-|-----------|---4-5-6-7-0-|----0------|
E--------------|---3-3-3---|-------------|-----------|

e-----------------------------------------|---------------------|
B-----------------------------------------|---------------------|
G---5---7-5---7-5-7---10-7---7-10-10-10---|-2-------------------|
D---5---7-5---7-5-7---10-7---7-10-10-10---|-2-------------------|
A---3---5-3---5-3-5---8--5---5--8--8--8---|-0-------------------|
E-----------------------------------------|---------------------|

Solo
|-----5^------------------------------------||--3^--3----------------------|
|---------5-8-5-8-----5---------------------||-------5-3-5-3---------------|
|-----------------5-7---5-7-5---------------||--------------4-2-0---0------|
|-----------------------------5-7-5--7~~~~--||--------------------2-0------|
|----------------------------------7--------||-----------------------------|
|-------------------------------------------||-----------------------3------|

-------------------------------------------||---------15-------------------|
--3^---5~~-3----/7~~5----9^~---------------||---15-17----15-17-------------|
--3^---5~~-3----/7~~5----9^~----7----------||-----------------16-14--------|
-----5-------5--------7-9---7-9------------||------------------------------|
-------------------------------------------||------------------------------|
-------------------------------------------||------------------------------|

---------------------------15-17b----------|-----------|--------------------|
-15-12----12-15-15-12---12-----------------||------------------------------|
-------14-------------14-------------------||------------------------------|
-------------------------------------------||------------------------------|
-------------------------------------------||------------------------------|
-------------------------------------------||---------5~~~~~~~~~~~~~-------|

-----------------------------5---------/5^~~~---------5-8----5-8-----5-8---8-|
-----------------------------5-7-5-----------------5-8----5-8-----5-8-----5--|
-------------------------------7-5-------------------------------------------|
------7-\-----7-\------7~~~\-------------------------------------------------|
-----------------------------------------------------------------------------|
-----------------------------------------------------------------------------|

e----------------------------|----------------------------|
B----------------------------|----------------------------|
G----------------------------|----------------------------|
D----------------------------|-----2-3-5-----2-2-3-4-5----|
A-0-0-4-5-7-0---4-4-5-6-7-0--|-3-3-------3-------------3--|
E----------------------------|----------------------------|

e------------------------------|---------------------------|
B------------------------------|---------------------------|
G------------------------------|---------------------------|
D---------2-------------0-2----|-----2-3-5-----2-2-3-4-5---|
A-0-0-3-4---0---0-3-3-4-----0--|-3-3-------3-------------3-|
E------------------------------|---------------------------|

e----------------------------|-----|
B----------------------------|-----|
G----------------------------|-2---|
D-0-0-4-5-7-0---4-4-5-6-7-0--|-2---|
A----------------------------|-0---|
E----------------------------|-----|

--8b-8b-8b-------8-5-----5--------------|
---------------------8-5---8-5----------|
-------------------------------7-5------|
-----------------------------------5-7--|
-------------------------------------7--|
-------------------------------------5--|

Notation used
b-bend
\-slide
^-bend(also)
~-vibrato

::::::::::::::::::::::::::::::::::::::::::

MEANSTREAK

Tuning: Standard

e-----------------------|
B---4~6--4-4-4-4--4-6---|
G---5~5--5-5-5-5--5-5---|
D-----------------------|
A-----------------------|
E-----------------------|

e---------------------|------------------------|
B---------------------|------------------------|
G---------------------|------------------------|
D-----6-7-------------|----6-7-----------------|
A---8-----8--6-8-6-8--|--8-----8--6-5---6-5----|
E---------------------|---------------8-----8--|

|-----------|
|-----------|
|-----------|
|-----------|
|--8~~~-\---|
|-----------|

e----------|----------------------------|
B----------|----------------------------|
G----------|--------10------8-----------|
D-----8----|--------10------8-------10--|
A-----8----|--------8-------6-------10--|
E-----6----|------------------------8---|

e----------------------------------------------|
B----------------------------------------------|
G-----------------------------8------------6---|
D-----8-------6-------3-------8------------6---|
A-----8-------6-------3-------6------------4---|
E-----6-------4-------1------------------------|

SOLO

-----------------------------------------------------------------------------|
--6b6b6b6b6b6b---------------------------------------------------------------|
-----------------------------------------------------------------------------|
--------------------------10-8-6------8b-r-5----5-8-8-6-8-6-8-8-8---12-12~---|
----------------<6><6>-8~~~--------8~~~--------8-------------8----13---------|
-----------------------------------------------------------------------------|

--------------------------------10x10-10-14-10-14-10-14-10-14-10-14-10-14-10-|
---------------------------11--11b-10----------------------------------------|
12b10~\10-12-12-10-12-10-10--------------------------------------------------|
--/--------------------------------------------------------------------------|
-----------------------------------------------------------------------------|
-----------------------------------------------------------------------------|

13-10b-\---14b~~~~-20b-r-17---17-----------------------------10-13-10-1015---|
----------------------------20---20-19-18-17--12-15-12-----13b-------13--15--|
---------------------------------------------------------14---------------15-|
-----------------------------------------------------------12~~\-x\----------|
-----------------------------------------------------------------x\----------|
-----------------------------------------------------------------------------|

--------------------------------------10-13-10----10-13----18b-15-15-17-15-------------------|
--15-15~~-14-12------------8b------13----------13-------13----------------17-15\12--12-13-12-|
----------------14-12------8b~---------------------------------------------------------------|
----------x\---------------------------------------------------------------------------------|
----------x\-------------------3\------------------------------------------------------------|
---------------------------------------------------------------------------------------------|

--------------13-10----10----------------------11----------------------------|
--------10-13-------13----10---13-10------6/\--13b-r-16b~~~-18-18-16-18-18---|
-------------------------------------12-------------------x\-----------------|
----6-8----------------------------------------------------------x\----------|
8-8-----8~~\-----------------------------------------------------x\----------|
-----------------------------------------------------------------------------|

----------------------16------13~~~~\-|--------------------------------|
-16-18-18-16-18-18--16---18b----------|---------------------/6-6-6-6-8-|
--------------------------------------|---------------------/7-7-7-7-7-|
--------------------------------------|---6-7-----------6-7------------|
--------------------------------------|-8----8-6-8-6-8~~---------------|
--------------------------------------|--------------------------------|

--13b~~10----10----------------------------------------------|
----------13----13-10----------------------------------------|
----------------------12-10\6-----8--------------------------|
------------------------------8-6---6-8-6-------------x-\-3--|
------------------------------------------7~~-9~~~~~--x-\-3--|
------------------------------------------------------x-\-1--|

Notation used:
b-bend
~-vibrato
x\-pick scratch
/-slide
<8>-pinch harmonic
x-muted note
r-release

Notation used
~-vibrato
/-slide

:::::::::::::::::::::::::::::::::::

GO ZONE

Tuning: Standard

e--------------------|----------------|--------------|
B--------------------|----------------|--------------|
G--------------------|----------------|--------------|
D----7---5-----------|---7---5--------|--------------|
A------------7~~~~~~-|----------7--5--|--3-----------|
E--------------------|----------------|-----5--3--0--|

e-------------|---------|
B---3-3-3-----|--3-3----|
G---2-2-2-2---|--2-2-2--|
D---0-0-0-2---|--0-0-2--|
A---------0---|------0--|
E-------------|---------|

e-------------------------------------------|
B---2-3-3-----------------------------------|
G---2-2-2-2-------0-2-------0-2---0h2-0h2---|
D---0-0-0-2-------0-2-------0-2---0h2-0h2---|
A---------0-------0-0-------0-0---0---0-----|
E-------------------------------------------|

e------------------|-------------------|-------------------|-----------------------|
B------------------|-------------------|---8-8-8---8---8---|----8-8-8---8----------|
G---5-5-5---5--(5)~|~~--5-5-5---5--(7)~|~~-7-7-7---7--(7)~~|~---7-7-7---7--7--2----|
D---5-5-5---5-5-5--|----5-5-5---5-5-7--|---5-5-5-7-5-7-5---|----5-5-5-7-5--7--2----|
A---3-3-3---3-5-3--|----3-3-3---3-5-5--|---5-----5---5-----|----5-----5----5--0----|
E---------3---3----|----------3---3----|-------------------|-----------------------|


------------------------------------------------------------------|
-5-5-3-2-3-2-3-2-5-5-3-2-3-2-3-2-5-5-3-2-3-2-3-2-5-5-3-2-3-2-3-2--|
-2-2-2-2-2-2-2-2-2-2-2-2-2-2-2-2-2-2-2-2-2-2-2-2-2-2-2-2-2-2-2-2--|
------------------------------------------------------------------|
------------------------------------------------------------------|
------------------------------------------------------------------|

--15b-~~~~-15-13-12----12---------------------------------|
--------------------15----15--12-14-12-15-12~-------------|
------------------------------12-12-12-12-12~-14b(15)-----|
----------------------------------------------------------|
------------------------------------------------------/---|
----------------------------------------------------------|

---------------------------------------------------------------------------------------------|
--14b(15)-15-15--12-15-14-12----12-----------------------------------------------------------|
-----------------------------14----14------------------------------------------------/7-9-7--|
--------------------------------------11-12-12----11------12b~~-----<7>-5----<9>~~~----------|
-----------------------------------------------12----12----------/--------<7>----------------|
---------------------------------------------------------------------------------------------|

-----------5-2-0---0---------------------------------------------------------------------------|
-----------------2--------------------------------------------------15b-12-15-12-15b12--15-15--|
----7----------------2~~~~---------------------------------------------------------------------|
--9---9----------------------0-2-0-----0-------------------------------------------------------|
------------------------------------2b---r0----------------------------------------------------|
------------------------------------------------7-7---7\---7-7--7\-----------------------------|

--3-5b~~r-3-0-------------------------------------------------------------------------------|
--------------3-5~~-------------------------------------------------------------------------|
--------------------2-/7-9b~~r-7---7----------7-9b-r7---7--------7/12-9-7---7---------------|
---------------------------------9---7~~---------------9---7~~-------------9---9--7~~~~~~~--|
------------------------------------------/-\-----------------------------------------------|
--------------------------------------------------------------------------------------------|

Notation used:
b-bend
~-vibrato
/-slide
r-release
<1>-pinch harmonic
(15)-ghost note

:::::::::::::::::::::::::::::::::::::::::::::::::

KISSIN' DYNAMITE


AC/DC
Kissin' Dynamite

INTRO

Guitar 1
E|----------------|-------------3---|
B|----5---3-3--5--|----5---3-3--3---|
G|----4---2-2--4--|----4---2-2--0---|
D|----2---0-0--2--|----2---0-0--0---|
A|--2---2---------|--2---2----------|
E|----------------|-----------------|x2

E|----------------|-----------------|
B|----5----3-3-5--|----5---3-3-/5~~-|
G|--4-4--2---2-4--|--4-4---2-2-/4~~-|
D|----------------|-----------------|
A|----------------|-----------------|
E|----------------|-----------------|x2


Riff 1
	E----------------------|---------------------|
	B----------------------|---------------------|
	G------9-----7--7------|------9-----7--7--9--|
	D---9--9-----7--7--5---|------9-----7--7--9--|
	A---9--7-----5--5--5---|------7-----5--5--7--|
	E---7--0--0--------3---|---7--0---0-------0--|
	  Guitar 2 (after chorus)
	E----------------------|---------------------0--|
	B------------3--3--3---|------------3--3-----0--|
	G---4--1-----2--2--0---|---4--1-----2--2--1--1--|
	D---4--2-----0--0--0---|---4--2-----0--0--2-----|
	A---2--2---------------|---2--2-----------2-----|
	E------0--0--------3---|------0---0-------0-----| repeat

Main Riff
	Guitar 1                        (every third bar is a A instead of E)
		E----------------------------|    |--------------------|
		B----------------------------|    |---3-------3--------|
		G-------------------------(2)|    |---2---2---2---2----|
		D---2--0-----2---2-0----2-(2)|    |---0---2---0---2----|
		A---------2--2-------2--2-(0)|    |-------0-------0----|
		E------------0----------0----|x4  |--------------------|
	Guitar 2
		E----------------------------|    |--------------------|
		B----------------------------|    |--------------------|
		G----------------------------|    |--------------------|
		D-----------------------2----|    |---2---0------------|
		A---7-^5~-2------7^5-2--2----|    |-----------2---0----|
		E------------0----------0----|x4  |--------------------|


CHORUS
  Guitar 1
       pm. . . .        . . . . .
E|--------------------------------------------------|
B|--------------------------------------------------|
G|---4-------------------------------4----4-4-4-4-4-|
D|---4---4-4-4-4-----2---------------4----4-4-4-4-4-|
A|---2---2-2-2-2-----2----2-2-2-2----2----2-2-2-2-2-|
E|-------------------0----0-0-0-0-------------------|
  Guitar 2
E|--------------------------------------------------|
B|--------------------------------------------------|
G|---4---------------1---------------4--------------|
D|---4---------------2---------------4--------------|
A|---2---------------2---------------2--------------|
E|-------------------0------------------------------|


SOLO
E|-------------------------------------------------------------------------12b-----------------|
B|----------------------------/12-12b~~---------------/12b-b-b-b-b-------------15-12-----------|
G|--x\-----------------------------------9-12-9----9--------------12-----------------14-12-----|
D|--x\------------------------------------------12------------------14~~~------------------12--|
A|--x\-/7~~~~~~~~~~~~~~~~-7\-------------------------------------------------------------------|
E|---------------------------------------------------------------------------------------------|

E|------------------12-12-12-12----------------------------------------------------------------|
B|--------15-12-----12-12-12-12-12-15-12-------------------------------------------------------|
G|--14-12--------12----------------------14-12------------12-14-12-14---------------------7---9|
D|---------------------------------------------14-12-14-12------------14-12-x\-/------------9--|
A|--------------------------------------------------------------------------x\-/---5---7-------|
E|--------------------------------------------------------------------------x\-/-0---0---------|

E|----------------------------------------------------------------5-5---7b~~~-/14b~~~-15-17-17-|
B|--3^5^3^5^3^5^3^5^3^0-----------7^5/3^0-----3-3-3-\-----------------8---------------17-17-17-|
G|----------------------2/4\2-0------------/4--------------------------------------------------|
D|---------------------------------------------------------------------------------------------|
A|-----------------------------------------------------0-2-2-0-2-------------------------------|
E|---------------------------------------------------------------------------------------------|

E|-15-17-17-17---15-17-17-17-----15-17-17-15-17-17----17-17------------------------------------|
B|-17-17-17-17---17-17-17-17--17----------17-------17-17-17------------------------------------|
G|------------------------------------------------------------12-14-12----12-------------------|
D|---------------------------------------------------------------------14----14-12----12-14----|
A|---------------------------------------------------------------------------------14----------|
E|---------------------------------------------------------------------------------------------|

E|--------------------------||
B|--------------------------||
G|--------------------------||
D|--12-14-12----------------||
A|-----------12-4-12-14~~~--||
E|--------------------------||


E|---------------------------------------------------------------------------------------------|
B|---------------------------------------------------------------------------------------------|
G|------------------------------------4-------------------------------------4------------------|
D|------------------------------------4-------------------------------------4------------------|
A|------------------------------------2-------------------------------------2------------------|
E|---------------------------------------------------------------------------------------------|
  Feel like kissing dynamite"
E|------------------------||
B|------------------------||
G|------------------------||
D|-----4--4--4--------4---||
A|--4--2--2--2--4--2--2---||
E|------------------------||
Solo 2           repeat                repeat
E|-----------------------||-------------------||
B|-----------------------||-------------------||
G|---/7---------7b-------||--7--------/7------||
D|------9-9-9------9-9---||----9-7-9-----9-9--||
A|-----------------------||-------------------||
E|-----------------------||-------------------||


_________________________________________

NICK OF TIME

    Tuning: Standard

e------------------ ---------------|
B------------------ ---------------|
G------------------ ---------------|
D--2-2-2-2-2-2-2-2- --5--5--7--7---|
A------------------ --2--3--4--5---|
E------------------ ---------------|

e--------------------------------|
B--------------------------------|
G---9--7--x-7----x------x--------|
D---9--7--x-7--5-x-5--7-x-4--5---|
A---7--5--x-5--5-x-5--7-x-4--5---|
E-0------------3---3--5---2--3---|

e---------------------------12-12-12-12-12-12--------------------------------------------|
B---------------------------12-12-12-12-12-12---13-13-13-13-13-13------------------------|
G---------------------------------------------5-12-12-12-12-12-12--7------4---5---6---7--|
D---2----------------------2------------------5--------------------7------4---5---6---7--|
A---2----------------------2------------------3--------------------5----0-2-0-3-0-4-0-5--|
E---0----------------------0-------------------------------------------------------------|


e-----7---7---7---8--8----7--5--5------------------------------------------------------------|
B--------------------------------------------------------------------------------------------|
G--/7---7---7---7------7--------------7-7-7-7-7-7-7-7-7-7-7-7-7-7-7--------4---5---6---7-----|
D-------------------------------------7-7-7-7-7-7-7-7-7-7-7-7-7-7-7--------4---5---6---7-----|
A-------------------------------------5-5-5-5-5-5-5-5-5-5-5-5-5-5-5------0-2-0-3-0-4-0-5-0---|
E--------------------------------------------------------------------------------------------|



::::::::::::::::::::::::::::::::::::::::::::::

SOME SIN FOR NUTHIN'

Tuning: Standard


e-------------------  ---------3------|
B-------------------  ---3--5--3--5~~-|
G---7--9--12--9~~---  ---2--4-----4~~-|
D---7--9--12--------  ----------------|
A-------------------  ----------------|
E-------------------  ----------------|

e---------------------------------------------------------------------|
B---------------------------------------------------------------------|
G---7----9-----------------------7-x-7---9----------------------------|
D---7----9-------5-----7---------7-x-7---9------5------7------9-------|(\)
A---5----7-------5-----7---------5-x-5---7------5------7------9-------|(\)
E--------------0-3---0-5---------------------0--3---0--5---0--7-------|(\)

e---------------------------------------------------------------------------------|
B---3------------3---------------3---3----------3---------------------------------|
G---2------------0-----2---------2---2----------0------2------4-------------------|(\)
D---0----2-------0-----2---------0---0---2------0------2------4-------------------|(\)
A--------2-------------0-----------------2-------------0------2-------------------|(\)
E--------0-----0-3---0-------------------0---0--3---0------0----------------------|
    e-----------------------------------------------------------------------------|
B---------------3-------------------------3-------------------------3-------------|
G---------------2-------------------------2-------------------------2-------------|
D---2-----------0------------2------------0------------2------------0-------------|
A---2------------------------2-------------------------2--------------------------|
E---0------------------------0-------------------------0--------------------------|

-------------|----------------------------------------------------------------|
-------------|----------------------------------------------------------------|
---5-----4---|-------7---9---------------------7--7--9------------------------|
---5-----4---|-------7---9------5------7-------7--7--9-----5-----7-----9------|
---3-----2---|-----x-5---7------5------7-------5--5--7-----5-----7-----9------|
-------------|---------------0--3---0--5----------------0--3--0--5--0--7------|

e------------------|
B------------------|
G---7--9--12--9~~~-|
D---7--9--12--9~~~-|
A------------------|
E------------------|

::::::::::::::::::::::::::::::::::::
RUFF STUFF

b - bend
/ - slide
b; - bend and return to note
that you are bending(dont use picking hand)
~ - vibrato

"The Mighty" Angus Young - Lead
              Malcolm Young - Rhythm


Intro
eb---------------------------------|
Bb---------------------------------|
Gb---------------------------------|
Db---------------------------------|Angus
Ab---0-4-5-4-2--0-4-0-5-----0-4-5--|
Eb---------------------------------|
                                             Both Parts x4
eb---------------------------------|
Bb---------------------------------|
Gb---------------------------------|Malcolm
Db-----7-7-7-4----7---7-------7-7--|
Ab---0-4-5-4-2--0-4-0-5-----0-4-5--| silently & going louder
Eb---------------------------------|

:::::::::::::::::::::::::::::::::::::::::::::::::

eb------------|
Bb---3--------|
Gb-2-2--------|          x1
Db-2-0--------|Angus
Ab-0----------|
Eb---2--------|
                     RUFF STUFF!

eb------------|
Bb------------|          x1
Gb---7--------|Malcolm
Db-7-7--------|
Ab-7-5--------|
Eb-5----------|

::::::::::::::::::::::::::::::::::::::::::
Verse
eb-----------------------|
Bb------3-----3-----3----|Both guitars
Gb---2--2--2--2---2-2----|repeat pattern
Db---2--0--2--0---2-0----|  x6 (after second time the lyrics goes on)
Ab---0-----0------0------|
Eb-----------------------|
::::::::::::::::::::::::::::::::::::::::
Lick
eb---------------------------------|
Bb---------------------------------|
Gb---------------------------------|
Db---------------------------------|Angus
Ab---0-4-5-4-2--0-4-0-5-----0-4-5--|
Eb---------------------------------|
                                             x4
eb---------------------------------|
Bb---------------------------------|
Gb---------------------------------|Malcolm
Db-----7-7-7-4----7---7-------7-7--|
Ab---0-4-5-4-2--0-4-0-5-----0-4-5--|
Eb---------------------------------|
::::::::::::::::::::::::::::::::::::::::::::::::::::::
Bridge

eb--------------------------------------|--------------|
Bb--------------------------------------|--------------|
Gb----9------------------7--------------|--------------|
Db----9------------------7-7-7-7-7-7----|---5----------|
Ab----7-7-7-7-7-7-7-7-7--5-5-5-5-5-5----|---5----------|both guitars x1
Eb----0-0-0-0-0-0-0-0-0-----------------|---3----------|
::::::::::::::::::::::::::::::::::::::::::::::::::
    CHORUS
               "Ruff stuff"

chorus a
eb----------------------------------------|
Bb------------------3---------------------|
Gb-------------2----2---------------------|Angus
Db-------------2----0---------------------|
Ab-------------0---------0-4-5-4----------|
Eb------------------2------------5-3-5----|


eb----------------------------------------|
Bb----------------------------------------|
Gb------------------7---------------------|Malcolm
Db-------------7----7---------------------|
Ab-------------7----5---------------------|
Eb-------------5--------------------------|


  chorus b            Ruff Stuff
eb----------------------------------------|
Bb------------------3---------------------|
Gb-------------2----2---------------------|Angus
Db-------------2----0---------------------|
Ab-------------0---------0-4-5-4----------|
Eb------------------2------------5-3b;----|


eb----------------------------------------|
Bb----------------------------------------|
Gb------------------7---------------------|Malcolm
Db-------------7----7---------------------|
Ab-------------7----5---------------------|
Eb-------------5--------------------------|


  chorus c           Ruff Stuff
eb----------------------------------------|
Bb------------------3---------------------|
Gb-------------2----2---------------------|Angus
Db-------------2----0---------------------|
Ab-------------0------------5-------------|
Eb------------------2-----0-3-------------|


eb----------------------------------------|
Bb----------------------------------------|
Gb------------------7---------------------|Malcolm
Db-------------7----7-------5-------------|
Ab-------------7----5-----2-5-------------|
Eb-------------5----------0-3-------------|

As chorus play:
1x chorus a
1x chorus b
1x chorus a
1x chorus c
:::::::::::::::::::::::::::::::::::::::::::
then repeat
verse x6
lick x4
bridge x1
chorus patterns

   solo
eb----------------------------------------|
Bb-----/-8-8-8-8-8-8-----/-8--8-8-8-8-----|
Gb-----/-9-9-9-9-9-9-----/-9--9-9-9-9-----| x3
Db--------------------7---------------7---|
Ab----------------------------------------|
Eb----------------------------------------|


eb---------------------------------|
Bb---------------------------------|
Gb--------4b-------4--------4~~----|
Db--5-3-6------5-3------5-3--------|
Ab----------4b-------3b------------|
Eb---------------------------------|
Thats all i have  from solo , I ll post more


After solo repeat lick x4  stop at the third
4-note of Angus Pattern( at third 6
                                  4 chord of Mal pattern and let it ring


eb------------|
Bb---3--------|
Gb-2-2--------|          x1
Db-2-0--------|Angus
Ab-0----------|
Eb---2--------|
                     RUFF STUFF!

eb------------|
Bb------------|          x1
Gb---7--------|Malcolm
Db-7-7--------|
Ab-7-5--------|
Eb-5----------|

Then Angus hits:
Intro
eb---------------------------------|
Bb---------------------------------|
Gb---------------------------------|
Db---------------------------------|Angus
Ab---0-4-5-4--0--2--4~~------------|
Eb---------------------------------|

Repeat chorus riffs
and play Verse x4

Angus End
eb---------------------------------|
Bb---------------------------------|
Gb-------2b------------------------|
Db---2-4---------------------------|
Ab----------4b---------------------|
Eb---------------------------------|

eb---------------------------------|
Bb---------------------------------|
Gb-------2~------------------------|
Db--2-4----------------------------|
Ab---------------------------------|
Eb---------------------------------|


:::::::::::::::::::::::::::::::::::::::::::::::::::::;;;;;;;;;

TWO'S UP

E---------------------------------------------|
B------4-3--4-4---3----------4-3--4-4---3-----|
G---5--3-3--3-3-3---------3--3-3--3-3-3-------|
D---5---------------------3-------------------|
A---3---------------------1-------------------|
E---------------------------------------------|

E------------------------------------|
B----4-3-------4-3------4-3-----4-3--|
G----3-3-------3-3------3-3-----3-3--|
D--3--------5--------6-------8-------|
A--3--------5--------6-------8-------|
E--1--------3--------4-------6-------|

               pick the G-sting, use fingers for the B and E strings
E---------8-8-8-8-8-8-8-8-6-6-6-5-5-5-5----|
B---------8-8-8-8-8-8-8-8-6-6-6-6-6-6-6----|
G---5-----5-5-5-5-5-5-5-5-5-5-5-5-5-5-5-5--|
D---5--------------------------------------|
A---3--------------------------------------|
E------------------------------------------| repeat
                    both guitars
E|---------------------||----------------------3------------||
B|---------------------||----------------------3--------3---||
G|----------5-5-5-5-5--||------5---------------0------0-----||
D|------5-5-5-5-5-5-5--||----5-----6---5---3-x-0----0-------||
A|--3-3-3-3-3-3-3-3-3--||--3-------6---5---3-x--------------||
E|---------------------||----------4---3---1-x-3------------||

E---------------------------------------------|
B------4-3--4-4---3----------4-3--4-4---3-----|
G---5--3-3--3-3-3---------3--3-3--3-3-3-------|
D---5---------------------3-------------------|
A---3---------------------1-------------------|
E---------------------------------------------|

E------------------------------------|
B----4-3-------4-3------4-3-----4-3--|
G----3-3-------3-3------3-3-----3-3--|
D--3--------5--------6-------8-------|
A--3--------5--------6-------8-------|
E--1--------3--------4-------6-------|

E|------------------------|------------------|------------|---------------|
B|------------------------|------------------|------------|---------------|
G|---5--5--5--5---5--5--3-|-5-5-5-5--5-5-5-5-|-5-5-5-5-3--|---------------|
D|---5--5--5--5---5--5--3-|-5-5-5-5--5-5-5-5-|-5-5-5-5-3--|---------------|
A|---3--3--3--3---3--0--1-|-3-3-3-3--3-3-3-3-|-3-3-0-0-1--|--1--3---------|
E|------------------------|------------------|------------|--------1------|


RIFF                                                                            P.M . . . . . .
E|----------------------------------|--------------------------------------|
B|----------------------------------|--------------------------------------|
G|---5------------------------8--8--|--5-----------------------------------|
D|---5-----3-5----5-6----6-8--8--8--|--5--3-5---5-6---6-8------------------|
A|---3-----3-5----5-6----6-8--6--6--|--3--3-5---5-6---6-8-----------3<5>6--|
E|---------1-3----3-4----4-6--------|-----1-3---3-4---4-6----0-4-6---------|

E|------------------------------------------|
B|------------------------------------------|
G|----5-----------------------------8---8---|
D|----5-----3--5------5--6----6--8--8---8---|
A|----3-----3--5------5--6----6--8--6---6---|
E|----------1--3------3--4----4--6----------|

E|--------------------------------------------------|
B|--------------------------------------------------|
G|----5-------------------------------8---8---8---8-|
D|----5-------3--5-----5--6----6--8---8---8---8---8-|
A|----3-------3--5-----5--6----6--8---6---6---6---6-|
E|------------1--3-----3--4----4--6-----------------|


PRE CHORUS
E|------------------------------------------------||
B|-------4-3-4-4--3--------------4-3-4-4--3-------||
G|-------3-3-3-3-3---------------3-3-3-3-3--------||
D|---3----------------------5---------------------||
A|---3----------------------5---------------------||
E|---1----------------------3---------------------||

Bit BEfore solo
                                               MUTE
E|-------------------------------------------------------------------------|
B|-------4------4------4-----4------4--------------------------------------|
G|-----5------5------5-----5------5----------------------------------------|
D|---5------5------5-----5------5------5-5-5-5-5-5-5-5-5-5-5-5-5-5-5-5-----|
A|-3------3------3-----3------3--------5-5-5-5-5-5-5-5-5-5-5-5-5-5-5-5-----|
E|------(4---3---1---3)----------------3-3-3-3-3-3-3-3-3-3-3-3-3-3-3-3-----|

SOLO

E|--------------------------------------|
B|--------------------------------------|
G|--10--8--10------------7---------5----|
D|--10--8--10----7^8^9-------x-7-x------|
A|---------------------9----------------|
E|--------------------------------------|

E|------------------------------------12-12b---------------|
B|------------13b--10------------------------15-12---------|
G|10--8--10-----------12-10---9x/-\---------------12-14----|
D|10--8--10---------------------------------------------14-|
A|---------------------9-----------------------------------|
E|---------------------------------------------------------|

     F                         x2                G                      x2  then F x1, G x1
*|------------------------------------------| |--------------------------------------| |-------|
*|------------------------------------------| |--------------------------------------| |-------|
*|--10--8--10----8---10--\------------------| |--12-10--12---10----12----------------| |-15-15-|
*|--10--8--10----8---10--\------------------| |--12-10--12---10----12------------3---| |-15-15-|
*|---8--6---8----6----8--\--------------3---| |--10--8--10----8----10----0-0-4-6-----| |-13-13-|
*|-----------------------------0-0-4-6------| |--------------------------------------| |-------|
Then rythem plays that other bit


E|-------------------12-15b-15^12-----------12-14-15----11-13-11---12-15b-14-12----------------|
B|---------13b~~~~~---------------12--12-13-------------------------------------14-12-13~~~~---|
G|--x\-----------------------------------------------------------------------------------------|
D|--x\-/---------------------------------------------------------------------------------------|
A|---------------------------------------------------------------------------------------------|
E|---------------------------------------------------------------------------------------------|

E|--15--17b-r-15-12----12--------15-17b--15b-15b-15-15-15-15-15-15-15-15-15-15-15-15-15-15-15--|
B|------------------15----15---15----------------------------------------17--17--17--17--17----|
G|---------------------------------------------------------------------------------------------|
D|---------------------------------------------------------------------------------------------|
A|---------------------------------------------------------------------------------------------|
E|---------------------------------------------------------------------------------------------|

tapping
    T              T                 T               T             T
E|-19-15^14^12-| |--------------| |-------------| |-----------| |----------|
B|-------------| |-19-15^14^12--| |-------------| |--14-11^9--| |--12-7^5--|
G|-------------| |--------------| |--14-12^-10--| |-----------| |----------|
D|-------------| |--------------| |-------------| |-----------| |----------|
A|-------------| |--------------| |-------------| |-----------| |----------|
E|-------------| |--------------| |-------------| |-----------| |----------|
 Pm. . . . . .
E|----------------------------------------------------------10^12~~---15b--15b-15b-15b-15b-15--|b~~\
B|-----------4~~~~-----12b12b--9---------------10^12^13---12-----------------------------------|
G|--5--3--0-----------------------11--8~~~\----------------------------------------------------|
D|---------------------------------------------------------------------------------------------|
A|---------------------------------------------------------------------------------------------|
E|---------------------------------------------------------------------------------------------|

 END BIT            FADE IN (free time)
E|---------------3-------------------------------------------|
B|------------4----------------------------------------------|
G|---------5---------------5-5-5-5-5-5-5-5-5-5-5-5-5-5-5-5-5-|
D|------5------------------5-5-5-5-5-5-5-5-5-5-5-5-5-5-5-5-5-|
A|---3---------------------3-3-3-3-3-3-3-3-3-3-3-3-3-3-3-3-3-|
E|-----------------------------------------------------------|

      :::::::::::::::::::::::::::::::::::::::::::::::::

THIS MEANS WAR!


Tuning: Standard

e---------3----3-------|
B---------3----3-------|
G---------2----0-------|
D----2----0----0---2---|
A----2---------2---2---|
E----0---------3---0---|

e----------------------|-----------------|
B----------------------|-----------------|
G----------------------|-----------------|
D---5^0-4^0-2^0--------|--0-2^0-4^0-5^0--|
A-0--------------------|-----------------|
E----------------------|-----------------|

e------------------------------------------------|
B------------------------------------------------|
G---2--------------------------------------------|
D---2--------------------------------------------|
A---0--------------------------------------------|
E------------------------------------------------|

e-----|-------------|
B-----|-------------|
G--2--|--2--2--2----|
D--2--|--2--2--2----|
A--0--|--0--0--0----|
E-----|-------------|

e---------2--3-----|--------------------|-------2--3--------|----------|
B---------3--3-----|--------------------|-------3--3--------|----2-----|
G---1-----2--0-----|----7----5-10--7----|---1---2--0--------|----2-----|
D---2-----0--0--2--|----7----5-10--7----|---2---0--0----2---|----2-----|
A---2-----------2--|----5----3--8--5----|---2-----------2---|----0-----|
E---0--------3--0--|--------------------|---0------3----0---|----------|

e------------------|--------------------|-------------------|
B---9~~----12---9~~|----7~~-5-10--7~~---|--7~~-7-12--7~~~---|
G---9~~-7--12---9~~|----7~~~5-10--7~~--x|/-7~~-7-12--7~~~---|
D-------7----------|-------------------x|/------------------|
A------------------|-------------------x|/------------------|
E------------------|--------------------|---------------0---|
Solo
e---------------------12-----12~~~-12---------------------------------------------------------|
B--------15b(17)~~-15-----15----------15-12----12---------------------------------------------|
G-------------------------------------------14---14-12-14-12-----------------x\---------------|
D--x\------------------------------------------------------------------------x\---------------|
A--x\------------------------------------------------------------------------x\---------------|
E--x\---------------------------------------------------------12~~\-/~~12b---x\---------------|

e-----------------------12----12--12-12b-|----------------------------|
B--15b(17)--15-12-12-15----15------------|----------------------------|
G----------------------------------------|----------------------------|
D----------------------------------------|---x\-----------------------|
A----------------------------------------|---x\-----------------------|
E----------------------------------------|0--whammy bar and scraping--|


ENJOY!
comments
print report bad tab
2 comments total.
+2 reply
fuel77 wrote on January 1 2009, 09:24 am

must of taken u ages 2 do this

0 reply
Maniac1075 wrote on December 8 2010, 09:12 pm

I highly doubt it took him anything, seeing as how Heatseeker is lifted straight from the official, yet completely WRONG, Amsco tablature books. And the rest of them, he stole from ME. http://www.oocities.com/maniac1075/tabs/blowupmyvideo1x.txt look familiar?

I want to post or [tab]
guest
You may want to rate the tab now too:
select rating
Please do not post tabs as comments. Select "correction" instead!