Oops, an error
Loading. Please wait.

For Those About To Rock Bass Tab

ver2
ver2

Whole song

More versions @911Tabs.com
1,115 views 12 this week
no commentswrite comment
1 2 3 4 5
excellent!
x 1
add to favorites launch autoscroll
font size
0
reset
Autoscroll
+/-
esc
set tempo
stop
WARNING: You are trying to view
                                    content from Ultimate-Guitar.com
                                    in an unauthorized application,
                                    which is prohibited.

                                    Please use an official Ultimate
                                    Guitar Tabs application for iPhone,
                                    iPad or Android to access legitimate
                                    chords, guitar, bass, and drum tabs
                                    from Ultimate-Guitar.com database.

                                    Type "ultimate guitar tabs" in Apple
                                    App Store's or Android Market's
                                    search to find the application.
-----------------------------------------------------------------------------
         FOR THOSE ABOUT TO ROCK (WE SALUTE YOU) LIVE - AC/DC
-----------------------------------------------------------------------------

This is the version of the song from 1991's "Live at Donnington."

Tabbed By: A sad, strange little man.
e-mail: I don't have one.

Tuning: Standard

  Intro (0:42)
G|----------------------------------------------------------------|
D|-5-----4--7-----------------------------------------------------|
A|-----------7----------------------------------------------------|
E|----------------------------------------------------------------|

G|-------------------------------------------------------------------|
D|-------------------------------------------12p11p9-----------------|
A|-2-0-------------------2-0-------------------------12\11-9-7-5\4-3-|
E|--------3--02b--0---------------3---2b--0--------------------------|

G|-------------------------------------------------------------------|
D|-------------------------------------------------------------------|
A|-2-0--------------------2-0----------------------------------------|
E|--------3---2b--0--------------3--02b--0-------------------------5-|

  Verse
G|--------------------------------------|
D|--------------------------------------| \  Repeat
A|--------------------------------------| /    3x
E|-7x7x7x7x5x5x5x5-0-----0-----3b---0---|

G|------------------------------------------|
D|------------------------------------------|
A|------------------------------------------|
E|-7x7x7x7x5x5x5x5-0-----0---0-3b---0-2-3-5-|

  Chorus
G|--------------------------------------------------------------------------|
D|--------------------------------------------------------------------------|
A|-2-0-------------------2-0------------------------------------------------|
E|--------3---2b--0--------------3--02b--0--------------------------------5-|

  Verse
G|--------------------------------------|
D|--------------------------------------|
A|--------------------------------------|
E|-7x7x7x705x5x5x5-0-----0-----3b---0---|

G|------------------------------------------|
D|------------------------------------------|
A|------------------------------------5\4\3\|
E|-7x7x7x705x5x5x5-0-----0---0-3b---0-------|

  Chorus
G|------------------------------------------------------------------------|
D|------------------------------------------------------------------------|
A|-2-0------------------2-0-----------------5\4---------------------------|
E|--------3---2--0--------------3---2b--0-------7-5\3-2-0-2-3-5-----------|

G|-------22---------------------------------------------------------------|
D|---------2--------------------------------------------------------------|
A|-2-0------0-------------------2-0---------------------------------------|
E|-------------3--32--0--------------------3--x2b--0----------------------|

  Guitar solo
G|-------------------------------------------------------|
D|-------------------------------------------------------|
A|-------------------------------------------------------|
E|-0-3h5-5-5-5----5-5----5----5-3h5-5-5-5----5-5----5----|

G|---------------------------------------------------------------|
D|--------------------------------------------4---x-5----5-------|
A|--------------------------------------5h6/7---7----------5-5--5|
E|-3h5-5-5-5----5-5----5------5-3h5-5-5--------------------------|

G|------------------------------------------------------|
D|-5/7-7-7-7----5-5----------5/7-7-7-7----5-5-----------|
A|------------7-------5-5---------------7-------5-5-----|
E|------------------------------------------------------|

G|-----------------------------------------------------------------|
D|-5/7-7-7-7---4---x-5----5-4-4---5-5/7-7-7-7----------------------|
A|-----------7---7---------------------------7---------------------|
E|--------------------------------------------5-4-3-3----3-2-0-5-6-|

  Verse
G|--------------------------------------|
D|--------------------------------------|
A|--------------------------------------|
E|-7x7x7x705x5x5x5-0-----0-----3b---0---|

G|--------------------------------------|
D|--------------------------------------|
A|--------------------------------------|
E|-7x7x7x7x5x5x5x5-0-----0---0-3b---0---|

  Bridge
G|---------------------|
D|---------------------| \  Repeat
A|--------------5------| /    3x
E|-7------3--3-----5---|

G|----------------------|
D|----------------------|
A|----------------------|
E|-7--------------------|

G|-------------------------------------------------------------------|
D|-------------------------------------------------------------------|
A|-------------------2-----3-3-4-5---------------------4-----5-6-7-7-|
E|-3---3-3-3-3-3---3---3-3---------5-5-5-4h5-5-5-5---5---5-5---------|

  Chorus
G|-----------------------------------------------------------------|
D|-------------------------7-6-------------------------------------|
A|-------------------7-8-9-----9-0--------2-2-2-5-5-5--------------|
E|-7-7-7-7-7-7-7-7-7---------------3----3-------------5--5-5-5-5-5-|

G|---------------------------------------------------------------------|
D|---------------7------6----------------------------------------------|
A|--------------------------/9-7\6-----------2-2-2-5-------------------|
E|-7-7-7-7-7-7-7----7-7---7--------7\--3-3-3---------5-5-2---2-3-3-4-5-|

G|---------------------------------------------------------------------|
D|---------------------------------------------------------------------|
A|-------------------5\4-----7-5\4h5---------2-2-2-5-5-5---------------|
E|-6/7-7-7-7-7-7-7-7-----4/6--------7--3---3-------------5-----5-5-5-5-|

G|--------------------------------------------------------------------|
D|---------------7-------6---7-6/7------------------------------------|
A|---------------------------------9---------2-2-2-5-5-5--------------|
E|-7-7-7-7-7-7-7---7-7-7---7---------0-3---3-------------2--2-3-3-5-5-|

G|-------------------------------------------------------------------|
D|---------------8/9---8-7-------------------------------------------|
A|-------------------------9-7\5\2---------2-2-2-5-5-5---------------|
E|/7-7-7-7-7-7-7-------------------5-3---3-------------5---5-5-5-5-5-|

G|-----------------------------------------------------------------|
D|---------------------------------------------------4-4-4-5-5-6/7-|
A|-----------------5---4-7-5-4/5---------2-2-2-5-5-5---------------|
E|-7-7-7-7-7-5-6-7---7-----------7-3---3---------------------------|

G|-----------------------------------------------------------------|
D|-------------------------7-6-9-----------------------------------|
A|-------------------7-8-9---------------2-2-2-5---5---------------|
E|-7---7-7-7-7-7-7-7-------------0-3---3-------------5---5-5-5-5-5-|

G|---------------------------------------------------------------------|
D|---------------7-----6-------------------------------4-4-4-5-5-6-7///|
A|--------------------------9-7\6---------2-2-2-5----5-----------------|
E|-7-7-7-7-7-7-7---7-7---7--------7-3---3------------------------------|

G|-----------------------------------------------------------------|
D|///9-9-9-9-8-8-7-7-----------------------------------------------|
A|-------------------9-8-7-6-------------2-2-2-5---5---------------|
E|---------------------------7-5-0-3---3-------------5---5-5-5-5-6-|

G|-------------------------------------------------------------------|
D|-----------------7h9-9--9p7----9p7---------------------------------|
A|----------------------------9------9------------5------------------|
E|-7-7-7-7-7-6-7-7----------------------3----3---------5-----5-0-2-0-|

G|-------------------------------------------------------------------|
D|---------------------------7---7p5---5-----5---------7-------------|
A|--------2-2-2-5---5------5---------7------------5------------------|
E|-3----3-------------5----------------------------------------------|

  Outro
G|-------------------------------------------------------------------------|
D|-------------------------------------------------------------------------|
A|-------------------------------------------------------------------------|
E|-7----7777777777777777777777777777777777777777777777777777777777777777777|

G|-------------------------------------------------------------------------|
D|-------------------------------------------------------------------------|
A|-------------------------------------------------------------------------|
E|5555555555555555555555555555555555555555555555555555555555555555555555555|

G|-------------------------------------------------------------------------|
D|-------------------------------------------------------------------------|
A|-------------------------------------------------------------------------|
E|3333333333333333333333333333333333333333333333333333333333333333333333333|

G|-------------------------------------------------------------------------|
D|-------------------------------------------------------------------------|
A|-------------------------------------------------------------------------|
E|2222222222222222222222222222222222222222222222222222222222222222222222222|

G|-------------------------------------------------------------------------|
D|-------------------------------------------------------------------------|
A|-------------------------------------------------------------------------|
E|0000000000000000000000000000000000000000000000000000000000000000000000000|

G|-------------------------------------------------------------------------|
D|-------------------------------------------------------------------------|
A|-------------------------------------------------------------------------|
E|-7----7777777777777777777777777777777777777777777777777777777777777777777|

G|-------------------------------------------------------------------------|
D|------------------------------------------------------------------9--9--9|
A|-------------------------------------------------------------------------|
E|777777777777777777777777777777777777777777777777777777777777777777-77-77-|

G|---------|
D|---------|
A|---------|
E|-7-------|
comments
We did not receive enough feedback on this tab! Please rate:
print report bad tab
1 2 3 4 5
I want to post or [tab]
guest
You may want to rate the tab now too:
select rating
Please do not post tabs as comments. Select "correction" instead!