Oops, an error
Loading. Please wait.

Get It Hot Tab

ver3
ver3

Solo

Whole song

More versions @911Tabs.com
6,269 views 21 this week
no commentswrite comment
1 2 3 4 5
excellent!
x 5
add to favorites launch autoscroll
font size
0
reset
Autoscroll
+/-
esc
set tempo
stop
Contributor
Difficulty
Tuning
intermediate
D# G# C# F# A# D#
WARNING: You are trying to view
                                    content from Ultimate-Guitar.com
                                    in an unauthorized application,
                                    which is prohibited.

                                    Please use an official Ultimate
                                    Guitar Tabs application for iPhone,
                                    iPad or Android to access legitimate
                                    chords, guitar, bass, and drum tabs
                                    from Ultimate-Guitar.com database.

                                    Type "ultimate guitar tabs" in Apple
                                    App Store's or Android Market's
                                    search to find the application.
#----------------------------------PLEASE NOTE---------------------------------#
#This file is the author's own work and represents their interpretation of the #
#song. You may only use this file for private study, scholarship, or research. #
#------------------------------------------------------------------------------##

                                   GET IT HOT
                              As recorded by AC/DC
                      (From the 1979 Album HIGHWAY TO HELL)


The other tabs here are shocking.

Words by Bon Scott

Music by Angus&Malcolm Young
Transcribed by Brian Murtagh

Gtr I (D# G# C# F# A# D#) - 'Malcolm'
Gtr II (D# G# C# F# A# D#) - 'Angus'
Gtr III (D# G# C# F# A# D#) - 'Overdub'

 Intro
  Moderate Rock Q=132
 1/4     4/4
  Gtr I
  E E      q   q   Q.       E    q   q   Q.       E
|-----||----------------------|----------------------||
|-----||o---------------------|---------------------o||
|-----||----------------------|----------------------||
|---4-||---6---4------------4-|--6---4------------4--||
|---2-||o--2---2------------2-|--2---2------------2-o||
|-----||----------------------|----------------------||
|
| Gtr II
| Q        q   q   E   E E  E    q   q   E   E E  E
|-----||----------------------|----------------------||
|-----||o---------------------|---------------------o||
|-----||--13--11--13--11---11-|-13--11--13--11---11--||
|-----||---9---9---9---9----9-|--9---9---9---9----9--||
|-----||o---------------------|---------------------o||
|-----||----------------------|----------------------||
|
| Gtr III
| Q        q   q   Q.       E    q   q   Q.       E
|-----||----------------------|----------------------||
|-----||o--5---4------------4-|--5---4------------4-o||
|-----||---4---4------------4-|--4---4------------4--||
|-----||---6---4------------4-|--6---4------------4--||
|-----||o---------------------|---------------------o||
|-----||----------------------|----------------------||


   4/4
    Gtr I
     q   q   Q.       E    q   q   Q.       E
||----------------------|----------------------||
||o---------------------|---------------------o||
||----------------------|----------------------||
||---6---4------------4-|--6---4------------4--||
||o--2---2------------2-|--2---2------------2-o||
||----------------------|----------------------||
|
|   Gtr II
|    q   q   E   E E  E    q   q   E   E E  E
||----------------------|----------------------||
||o---------------------|---------------------o||
||--13--11--13--11---11-|-13--11--13--11---11--||
||---9---9---9---9----9-|--9---9---9---9----9--||
||o---------------------|---------------------o||
||----------------------|----------------------||
|
|   Gtr III
|    q   q   Q.       E    q   q   Q.       E
||----------------------|----------------------||
||o--5---4------------4-|--5---4------------4-o||
||---4---4------------4-|--4---4------------4--||
||---6---4------------4-|--6---4------------4--||
||o---------------------|---------------------o||
||----------------------|----------------------||


   Verse
                          1.,2.,3.
    Gtr I
     q   q   Q.        E    q    q    Q.       E  4x
||-----------------------|------------------------||
||o----------------------|-----------------------o||
||-----------------------|------------------------||
||---6---4-------------4-|--6----4-------------4--||
||o--2---2-------------2-|--2----2-------------2-o||
||-----------------------|------------------------||
|
|   Gtr II
|                ~~~
|    q   q   E   Q.         E E  E E  H           4x
||-----------------------|------------------------||
||o--5---4---x---7-------|--5-4--5-4-------------o||
||---4---4---x-----------|--4-4--4-4--------------||
||---6---4---x---7-------|--6-4--6-4--------------||
||o----------------------|-----------------------o||
||-----------------------|------------------------||
|
|   Gtr III
|    q   q   E   E  E  E    q    q    E   E E  E  4x
||-----------------------|------------------------||
||o----------------------|-----------------------o||
||--13--11--13--11----11-|-13---11---13--11---11--||
||---9---9---9---9-----9-|--9----9----9---9----9--||
||o----------------------|-----------------------o||
||-----------------------|------------------------||


  4.
 3/4               4/4
  Gtr I
                          PM           PM
   q    q   E E     +E  E E  E  +E   E E  E    +E  E q   q     E  E  3x
|---------------||--------------------------|------------------------||
|---------------||o-------------------------|-----------------------o||
|---------------||-----------2--(2)--2------|------------------------||
|--6----4-----2-||--(2)-2----2--(2)--2----4-|--(4)-4-6---4--------x--||
|--2----2-----2-||o-(2)-2----0--(0)--0-0--2-|--(2)-2-2---2--------x-o||
|-------------0-||--(0)-0-0-----------------|------------------------||
|
| Gtr II
|                                               ~~~~
|  E E  E E E E     +E  E E  E  +E   E E  E    +Q    E E E E   E  E  3x
|---------------||--------------------------|------------------------||
|--5-4--5-4-----||o---------10-(10)-10----7-|--(7)---5-4-5-4--------o||
|--4-4--4-4---9-||--(9)-9-x--9--(9)--9------|--------4-4-4-4------9--||
|--6-4--6-4---9-||--(9)-9-x--7--(7)--7----7-|--(7)---6-4-6-4------9--||
|-------------7-||o-(7)-7-x-----------------|---------------------7-o||
|---------------||--------------------------|------------------------||
|
| Gtr III
|  q    q   E E     +E  E E  E  +E   E E  E    +H.            +E  E  3x
|---------------||--------------------------|------------------------||
|---------------||o---------10-(10)-10-x-12-|-(12)-----------(12)-x-o||
|-13---11-----9-||--(9)-9-x--9--(9)--9-x-11-|-(11)-----------(11)-x--||
|--9----9-----9-||--(9)-9-x--7--(7)--7-x--9-|--(9)------------(9)-x--||
|-------------7-||o-(7)-7-x-----------------|-----------------------o||
|---------------||--------------------------|------------------------||


                                             Chorus
  Gtr I
        PM           PM                                  PM
   E  E E  E  +E   E E  E    +H.      E E     q  q  Q.   E  5x
|-------------------------|---------------||----------------||
|-------------------------|---------------||o--------------o||
|----------2--(2)--2------|---------------||----------------||
|--2--2----2--(2)--2----4-|--(4)--------4-||--6--4----------||
|--2--2----0--(0)--0-0--2-|--(2)--------2-||o-2--2-------2-o||
|--0--0-0-----------------|---------------||----------------||
|
| Gtr II
| +E  E E  E  +E   E E  E    +H.      E E     q  q  Q.   E  5x
|-------------------------|---------------||----------------||
|---------10-(10)-10---12-|-(12)--------4-||o-5--4-------4-o||
|-(9)-9-x--9--(9)--9---11-|-(11)--------4-||--4--4-------4--||
|-(9)-9-x--7--(7)--7----9-|--(9)--------4-||--6--4-------4--||
|-(7)-7-x-----------------|---------------||o--------------o||
|-------------------------|---------------||----------------||


 3/4        4/4               4/4
  Gtr I
                 PM
  q  q  Q    E E E E E E E E   H.      E E
|----------|-----------------|-------------|
|----------|-----------------|-------------|
|----------|-------2-------4-|-4---------4-|
|-6--4-----|-2-2---2---2---4-|-4---------4-|
|-2--2-----|-2-2---0---2---2-|-2---------2-|
|----------|-0-0-0-----0-----|-------------|
|
| Gtr II
|                PM
| q  q  Q    E E E E E E E E   H.      E E
|----------|-----------------|-------------|
|-5--4-----|-----------------|-------------|
|-4--4-----|-------2-------4-|-4---------4-|
|-6--4-----|-2-2---2---2---4-|-4---------4-|
|----------|-2-2---0---2---2-|-2---------2-|
|----------|-0-0-0-----0-----|-------------|


   Verse
                         1.,2.,3.
    Gtr I
     E  E  q   q   E  E    Q      q    q    E  E  4x
||----------------------|-------------------------||
||o---------------------|------------------------o||
||----------------------|-------------------------||
||---------6---4---6--4-|---------6----4-------4--||
||o-----2--2---2---2--2-|---------2----2-------2-o||
||----------------------|-------------------------||
|
|   Gtr II
|                     ~~~~~~~~
|   +E  E  q   q   E  E   +Q      E E  E E  E  E  4x
||----------------------|-------------------------||
||o-----4--5---4---x--7-|-(7)-----5-4--5-4-------o||
||--(4)-4--4---4---x----|---------4-4--4-4-----4--||
||--(4)-4--6---4---x--7-|-(7)-----6-4--6-4-----4--||
||o-(2)-----------------|----------------------2-o||
||----------------------|-------------------------||
|
|   Gtr III
|    Q     q   q   E  E    E   E  q    q    E  E  4x
||----------------------|-------------------------||
||o---------------------|------------------------o||
||--------13--11--13-11-|-----11-13---11---13-11--||
||---------9---9---9--9-|------9--9----9----9--9--||
||o---------------------|------------------------o||
||----------------------|-------------------------||


  4.
  Gtr I
                               PM           PM
  Q     q    q   E E     +E  E E  E  +E   E E  E    +E  E q   q     E  E  3x
|--------------------||--------------------------|------------------------||
|--------------------||o-------------------------|-----------------------o||
|--------------------||-----------2--(2)--2------|------------------------||
|-------6----4-----2-||--(2)-2----2--(2)--2----4-|--(4)-4-6---4--------2--||
|-------2----2-----2-||o-(2)-2----0--(0)--0-0--2-|--(2)-2-2---2--------2-o||
|------------------0-||--(0)-0-0-----------------|---------------------0--||
|
| Gtr II
| ~                                                  ~~~~
| Q     E E  E E E E     +E  E E  E  +E   E E  E    +Q    E E E E   E  E  3x
|--------------------||--------------------------|------------------------||
|-7-----5-4--5-4-----||o---------10-(10)-10----7-|--(7)---5-4-5-4--------o||
|-------4-4--4-4---9-||--(9)-9-x--9--(9)--9------|--------4-4-4-4------9--||
|-7-----6-4--6-4---9-||--(9)-9-x--7--(7)--7----7-|--(7)---6-4-6-4------9--||
|------------------7-||o-(7)-7-x-----------------|---------------------7-o||
|--------------------||--------------------------|------------------------||
|
| Gtr III
| E  E  q    q   E E     +E  E E  E  +E   E E  E    +H.            +E  E  3x
|--------------------||--------------------------|------------------------||
|--------------------||o---------10-(10)-10-x-12-|-(12)-----------(12)---o||
|---11-13---11-----9-||--(9)-9-x--9--(9)--9-x-11-|-(11)-----------(11)-9--||
|----9--9----9-----9-||--(9)-9-x--7--(7)--7-x--9-|--(9)------------(9)-9--||
|------------------7-||o-(7)-7-x-----------------|---------------------7-o||
|--------------------||--------------------------|------------------------||


                                           Chorus
  Gtr I
      PM           PM                                  PM
  E E E  E  +E   E E  E    +H.      E E     q  q  Q.   E  5x
|-----------------------|---------------||----------------||
|-----------------------|---------------||o--------------o||
|--------2--(2)--2------|---------------||----------------||
|-2-2----2--(2)--2----4-|--(4)--------4-||--6--4----------||
|-2-2----0--(0)--0-0--2-|--(2)--------2-||o-2--2-------2-o||
|-0-0-0-----------------|---------------||----------------||
|
| Gtr II
| E E E  E  +E   E E  E    +H.      E E     q  q  Q.   E  5x
|-----------------------|---------------||----------------||
|-------10-(10)-10---12-|-(12)--------4-||o-5--4-------4-o||
|-9-9-x--9--(9)--9---11-|-(11)--------4-||--4--4-------4--||
|-9-9-x--7--(7)--7----9-|--(9)--------4-||--6--4-------4--||
|-7-7-x-----------------|---------------||o--------------o||
|-----------------------|---------------||----------------||


 3/4
  Gtr I
                 PM
  q  q  Q    E E E E E E E E   W
|----------|-----------------|------|
|----------|-----------------|------|
|----------|-------2-------4-|-4----|
|-6--4-----|-2-2---2---2---4-|-4----|
|-2--2-----|-2-2---0---2---2-|-2----|
|----------|-0-0-0-----0-----|------|
|
| Gtr II
|                PM
| q  q  Q    E E E E E E E E   W
|----------|-----------------|------|
|-5--4-----|-----------------|------|
|-4--4-----|-------2-------4-|-4----|
|-6--4-----|-2-2---2---2---4-|-4----|
|----------|-2-2---0---2---2-|-2----|
|----------|-0-0-0-----0-----|------|


 Guitar Solo
  Gtr I
                     PM           PM
         Q           E  Q     +E  E E      +Q    Q         E      E  E E
|----------------------------------------|-----------------------------------|
|----------------------------------------|-----------------------------------|
|-----------------------2-----(2)---4----|-(4)---4---------4------4----------|
|--------2--------------2-----(2)---4----|-(4)---4---------4------4----2-----|
|--------2--------------0-----(0)-0-2----|-(2)---2---------2------2----2-----|
|--------0-----------0-------------------|-----------------------------0-----|
|
| Gtr II
| a     +E  +E      +Q    +Q      E E      +E  E E     +E  E     +E  E E
|---------------------------------7------|-----7-----------------------------|
|-9b9.5-(9)r(9)b9.5-(9)---(9)-----7------|-----7-9b9.5-(9)-7b7.5-(7)---7b7.5-|
|-9b9.5-(9)-(9)b9.5-(9)---(9)-------9b11-|-(9)---9b9.5-(9)-7b7.5-(7)---7b7.5-|
|----------------------------------------|---------------------------9-------|
|----------------------------------------|-----------------------------------|
|----------------------------------------|-----------------------------------|


  Gtr I
        PM          PM
  +Q    E  Q   +E   E E   +Q   Q       E  E E E
|-----------------------|---------------------------|
|-----------------------|---------------------------|
|----------2---(2)----4-|-(4)--4-------4--4---------|
|-(2)------2---(2)----4-|-(4)--4-------4--4---2-----|
|-(2)------0---(0)--0-2-|-(2)--2-------2--2---2-----|
|-(0)---0---------------|---------------------0-----|
|
| +E  E E  E E  E   E E   +Q   Q      +Q    E E
|-----------------------|-------------------7-------|
|-(7)-7-7----7--7-----7-|-(7)---------------7-------|
|-(7)-7-7----7--7-----7-|-(7)--9b9.5--(9)-----9b9.5-|
|---------/9-------/9---|---------------------------|
|-----------------------|---------------------------|
|-----------------------|---------------------------|


  Gtr I
        PM                  PM
  +Q    E      Q    +E      E   E         +Q   Q    E E E E
|--------------------------------------|--------------------|
|--------------------------------------|--------------------|
|--------------2----(2)---------4------|--(4)--4----4-4-----|
|-(2)----------2----(2)---------4------|--(4)--4----4-4---2-|
|-(2)----------0----(0)-----0---2------|--(2)--2----2-2---2-|
|-(0)---0------------------------------|------------------0-|
|
|                                                         ~
| +E  E E     +E  E  E     +E   E         +Q   E  E E E E E
|-----7-----------7------------10b10.5-|-(10)--7----7-------|
|-----7-----------7--9b9.5-(9)---------|---------10---9-7-9-|
|-(9)---9b9.5-(9)----9b9.5-(9)---------|------------------9-|
|--------------------------------------|--------------------|
|--------------------------------------|--------------------|
|--------------------------------------|--------------------|


  Gtr I
       PM        PM
  +Q   E Q   +E  E E       +H.             +E  E
|------------------------|-----------------------|
|------------------------|-----------------------|
|--------2---(2)---4-----|-(4)-------------(4)---|
|-(2)----2---(2)---4-----|-(4)-------------(4)-4-|
|-(2)----0---(0)-0-2-----|-(2)-------------(2)-2-|
|-(0)--0-----------------|-----------------------|
|
|  ~~~
|  Q   E E E  E  E E       +Q   +Q   +Q     E  E
|------7-----------------|-----------------------|
|--9---7---9p=7----9b9.5-|-(9)--(9)--(9)\------7-|
|--9-------9p=7----9b9.5-|-(9)--(9)--(9)\------7-|
|--------9-------9-------|-----------------------|
|------------------------|-----------------------|
|------------------------|-----------------------|


   Out-Chorus
    Gtr I
                                 PM              PM
            q      q       Q.    E   q  q  Q.    E  3x
||---------------------------------|----------------||
||o--------------------------------|---------------o||
||---------------------------------|----------------||
||----------6------4---------------|-6--4-----------||
||o---------2------2-------------2-|-2--2--------2-o||
||---------------------------------|----------------||
|
|   Gtr II
|                                    ~~~~~
|   a      +E  +E  Q      +E  Q  E   Q  H      E E  3x
||---------------------------------|----------------||
||o-9b9.5==(9)r(9)-7b7.5--(7)------|-------------7-o||
||--9b9.5==(9)r(9)-7b7.5--(7)------|-------------7--||
||-------------------------------7-|-9--9-----------||
||o--------------------------------|---------------o||
||---------------------------------|----------------||
|
|   Gtr III
|           q      q       Q.    E   q  q  Q.    E  3x
||---------------------------------|----------------||
||o---------5------4-------------4-|-5--4--------4-o||
||----------4------4-------------4-|-4--4--------4--||
||----------6------4-------------4-|-6--4--------4--||
||o--------------------------------|---------------o||
||---------------------------------|----------------||


  Gtr I
                               PM                 PM
          q      q       Q.    E   q  q  Q.       E
|--------------------------------|------------------|
|--------------------------------|------------------|
|--------------------------------|------------------|
|---------6------4---------------|-6--4-------------|
|---------2------2-------------2-|-2--2-----------2-|
|--------------------------------|------------------|
|
| Gtr II
|                                  ~~~~~    ~~~~~~
| a      +E  +E  Q      +Q   E E   Q  Q  E  E +E  E
|--------------------------------|------------------|
|-9b9.5==(9)r(9)-7b7.5--(7)------|------------------|
|-9b9.5==(9)r(9)-7b7.5--(7)------|------------------|
|------------------------------7-|-9--9--7--9-(9)-7-|
|--------------------------------|------------------|
|--------------------------------|------------------|
|
| Gtr III
|         q      q       Q.    E   q  q  Q.       E
|--------------------------------|------------------|
|---------5------4-------------4-|-5--4-----------4-|
|---------4------4-------------4-|-4--4-----------4-|
|---------6------4-------------4-|-6--4-----------4-|
|--------------------------------|------------------|
|--------------------------------|------------------|


  Gtr I
                 PM                                    PM
  q  q  Q.       E           q      q         Q.       E
|------------------|-------------------------------------|
|------------------|-------------------------------------|
|------------------|-------------------------------------|
|-6--4-------------|---------6------4--------------------|
|-2--2-----------2-|---------2------2------------------2-|
|------------------|-------------------------------------|
|
| Gtr II
| ~~~~~
| Q  Q  E  E +E  E   a      +E  +E  E     +E  E  E +E  E
|----------7-(7)-7-|-----------------------------7-(7)-7-|
|----------7-(7)-7-|-9b9.5==(9)r(9)-7b7.5-(7)----7-(7)-7-|
|------------------|-9b9.5==(9)r(9)-7b7.5-(7)------------|
|-9--9--9----------|--------------------------9----------|
|------------------|-------------------------------------|
|------------------|-------------------------------------|
|
| Gtr III
| q  q  Q.       E           q      q         Q.       E
|------------------|-------------------------------------|
|-5--4-----------4-|---------5------4------------------4-|
|-4--4-----------4-|---------4------4------------------4-|
|-6--4-----------4-|---------6------4------------------4-|
|------------------|-------------------------------------|
|------------------|-------------------------------------|


  Gtr I
                                    PM                                    PM
          q      q         Q.       E           q      q         Q.       E
|-------------------------------------|-------------------------------------|
|-------------------------------------|-------------------------------------|
|-------------------------------------|-------------------------------------|
|---------6------4--------------------|---------6------4--------------------|
|---------2------2------------------2-|---------2------2------------------2-|
|-------------------------------------|-------------------------------------|
|
| Gtr II
| a      +E  +E  E     +E  E  E +E  E   a      +E  +E  E     +E  E  E +E  E
|-----------------------------7-(7)-7-|-----------------------------7-(7)-7-|
|-9b9.5==(9)r(9)-7b7.5-(7)----7-(7)-7-|-9b9.5==(9)r(9)-7b7.5-(7)----7-(7)-7-|
|-9b9.5==(9)r(9)-7b7.5-(7)------------|-9b9.5==(9)r(9)-7b7.5-(7)------------|
|--------------------------9----------|--------------------------9----------|
|-------------------------------------|-------------------------------------|
|-------------------------------------|-------------------------------------|
|
| Gtr III
|         q      q         Q.       E           q      q         Q.       E
|-------------------------------------|-------------------------------------|
|---------5------4------------------4-|---------5------4------------------4-|
|---------4------4------------------4-|---------4------4------------------4-|
|---------6------4------------------4-|---------6------4------------------4-|
|-------------------------------------|-------------------------------------|
|-------------------------------------|-------------------------------------|


                                    PM                                    PM
          q      q         Q.       E           q      q         Q.       E
|-------------------------------------|--------------------------------------|
|-------------------------------------|--------------------------------------|
|-------------------------------------|--------------------------------------|
|---------6------4--------------------|---------6------4---------------------|
|---------2------2------------------2-|---------2------2------------------2--|
|-------------------------------------|--------------------------------------|
|
| a      +E  +E  E     +E  E  E +E  E   a      +E  +E  E     +E  E  E +E  E
|-----------------------------7-(7)-7-|-----------------------------7-(7)-7--|
|-9b9.5==(9)r(9)-7b7.5-(7)----7-(7)-7-|-9b9.5==(9)r(9)-7b7.5-(7)----7-(7)-7--|
|-9b9.5==(9)r(9)-7b7.5-(7)------------|-9b9.5==(9)r(9)-7b7.5-(7)-------------|
|--------------------------9----------|--------------------------9-----------|
|-------------------------------------|--------------------------------------|
|-------------------------------------|--------------------------------------|
|
|         q      q         Q.       E           q      q         Q.       E
|-------------------------------------|--------------------------------------|
|---------5------4------------------4-|---------5------4------------------4--|
|---------4------4------------------4-|---------4------4------------------4--|
|---------6------4------------------4-|---------6------4------------------4--|
|-------------------------------------|--------------------------------------|
|-------------------------------------|--------------------------------------|


  Gtr I
                         PM         PM
   q    q      Q.        E   E    E E E    E E E    E   W          +W
|--------------------------|--------------------------|----------|--------*|
|--------------------------|--------------------------|----------|--------*|
|--------------------------|----------2-------------4-|-4--------|-(4)----*|
|--6----4------------------|-2----2---2------2------4-|-4--------|-(4)----*|
|--2----2----------------2-|-2----2---0------2------2-|-2--------|-(2)----*|
|--------------------------|-0----0-0--------0--------|----------|--------*|
|
| Gtr II
| +E  E E    E E  E    E E   E    E E E    E E E    E   W          +W
|-(7)-7------7-7-------7-7-|------7-7------7-7------7-|-7--------|-(7)----*|
|-(7)-7------7-7-------7-7-|------7-7------7-7------7-|-7--------|-(7)----*|
|-------9b11------9b11-----|-9b11-----9b11-----9b11---|----------|--------*|
|--------------------------|--------------------------|----------|--------*|
|--------------------------|--------------------------|----------|--------*|
|--------------------------|--------------------------|----------|--------*|


Duration Legend
---------------
W - whole; H - half; Q - quarter; E - 8th; S - 16th; T - 32nd; X - 64th; a - acciaccatura
+ - note tied to previous; . - note dotted; .. - note double dotted
Uncapitalized letters represent notes that are staccato (1/2 duration)
Irregular groupings are notated above the duration line
Duration letters will always appear directly above the note/fret number it represents the
duration for.  Duration letters with no fret number below them represent rests.  Multi-
bar rests are notated in the form Wxn, where n is the number of bars to rest for.  Low
melody durations appear below the staff

Tablature Legend
----------------
 h   - hammer-on
 p   - pull-off
 b   - bend
 pb  - pre-bend
 r   - bend release (if no number after the r, then release immediately)
 /\  - slide into or out of (from/to "nowhere")
 s   - legato slide
 S   - shift slide
  - natural harmonic
[n]  - artificial harmonic
n(n) - tapped harmonic
 ~   - vibrato
 tr  - trill
 T   - tap
 TP  - trem. picking
 PM  - palm muting
\n/  - tremolo bar dip; n = amount to dip
 \n  - tremolo bar down
 n/  - tremolo bar up
/n\  - tremolo bar inverted dip
 =   - hold bend; also acts as connecting device for hammers/pulls
 <>  - volume swell (louder/softer)
 x   - on rhythm slash represents muted slash
 o   - on rhythm slash represents single note slash

Misc Legend
-----------
 |  - bar
||  - double bar
||o - repeat start
o|| - repeat end
*|  - double bar (ending)
 :  - bar (freetime)
 $  - Segno
 &  - Coda
Tempo markers -  = BPM(8/16=s8/s16), where s8 = swing 8ths, s16 = swing 16ths


comments
print report bad tab
I want to post or [tab]
guest
You may want to rate the tab now too:
select rating
Please do not post tabs as comments. Select "correction" instead!