Oops, an error
Loading. Please wait.

Go Down Tab

ver2
ver2

Whole song

Interactive

More versions @911Tabs.com
5,532 views 9 this week
1 commentread comment
1 2 3 4 5
accurate
x 3
Autoscroll
+/-
esc
set tempo
stop
Contributor
Difficulty
intermediate
Hey! There's an official Ultimate Guitar app which is ideal
for learning songs when you're away from computer. Get the app
WARNING: You are trying to view
                                    content from Ultimate-Guitar.com
                                    in an unauthorized application,
                                    which is prohibited.

                                    Please use an official Ultimate
                                    Guitar Tabs application for iPhone,
                                    iPad or Android to access legitimate
                                    chords, guitar, bass, and drum tabs
                                    from Ultimate-Guitar.com database.

                                    Type "ultimate guitar tabs" in Apple
                                    App Store's or Android Market's
                                    search to find the application.
AC/DC - "Go Down"  




LEGEND

/  slide up
\  slide down
v  vibrato
~  hold note
h  hammeron
p  pulloff
b  bend
r  release
.  palm mute
*  pinch harmonic
'  slight pinch harmonic
x  mute note


Tune down about a quarter step


Intro (Both Angus and Malcolm)

e|-------------------------------------------------------------------------|
B|-------------------------------------------------------------------------|
G|-2-5-2--------2-5-2--------2-5-2----2-5-2------5-2----5-2----5-2----5-2--|
D|-2-5-2--------2-5-2--------2-3-2----2-5-2------5-2----5-2----5-2----5-2--|
A|-0-3-0--------0-3-0--------0-3-0----0-3-0----0-3-0--0-3-0--0-3-0--0-3-0--|
E|-------------------------------------------------------------------------|

e|------------------|
B|------------------|
G|--5-0h2-2------2--|
D|--5-0h2-2-.--.-2-.|
A|0-3-0~~-0-0--0-0-0|
E|------------------|



Verse

Angus
e|-------------------------------------------------------------------------|
B|--------'------'----------'------'----------'------'----------'------'---|
G|--------2------2----------2------2----------2------2----------2------2---|
D|--------2------2----------2------2----------2------2----------2------2---| x6
A|-------------------------------------------------------------------------|
E|-------------------------------------------------------------------------|
Malcolm
e|-------------------------------------------------------------------------|
B|-------------------------------------------------------------------------|
G|-0--0h2-2------2---0-2----2------2---0--0h2-2------2---0-2----2------2---|
D|-0--0h2-2-.--.-2-.-0-2----2-.--.-2-.-0--0h2-2-.--.-2-.-0-2----2-.--.-2-.-| x6
A|-0--0~~-0-0--0-0-0-0-0----0-0--0-0-0-0--0~~-0-0--0-0-0-0-0----0-0--0-0-0-|
E|-------------------------------------------------------------------------|


Angus
e|-------------------------------------------------------------------------|
B|--------'------'----------'------'----------'------'----------'------'---|
G|--------7------7----------7------7----------7------7----------7------7---|
D|--------7------7----------7------7----------7------7----------7------7---|
A|-------------------------------------------------------------------------|
E|-------------------------------------------------------------------------|
Malcolm
e|-------------------------------------------------------------------------|
B|-------------------------------------------------------------------------|
G|-5--5/7-7------7---5--5/7-7------7---5--5/7-7------7---5--5/7-7------7---|
D|-5--5/7-7-x--x-7-x-5--5/7-7-x--x-7-x-5--5/7-7-x--x-7-x-5--5/7-7-x--x-7-x-|
A|-3--3/5-5-x--x-5-x-3--3/5-5-x--x-5-x-3--3/5-5-x--x-5-x-3--3/5-5-x--x-5-x-|
E|-------------------------------------------------------------------------|


Angus
e|-------------------------------------------------------------------------|
B|--------'------'----------'------'----------'------'----------'------'---|
G|--------9------9----------9------9----------9------9----------9------9---|
D|--------9------9----------9------9----------9------9----------9------9---|
A|-------------------------------------------------------------------------|
E|-------------------------------------------------------------------------|
Malcolm
e|-------------------------------------------------------------------------|
B|-------------------------------------------------------------------------|
G|-7--7/9-9------9---7--7/9-9------9---7--7/9-9------9---7--7/9-9------9---|
D|-7--7/9-9-x--x-9-x-7--7/9-9-x--x-9-x-7--7/9-9-x--x-9-x-7--7/9-9-x--x-9-x-|
A|-5--5/7-7-x--x-7-x-5--5/7-7-x--x-7-x-5--5/7-7-x--x-7-x-5--5/7-7-x--x-7-x-|
E|-------------------------------------------------------------------------|



Chorus (Both Angus and Malcolm)
e|-------------------------------------------------------------------------|
B|-------------------------------------------------------------------------|
G|-5-2----2--2----5-2----2--2----5-2----2--2----5-2----2--2----5-2----2--2-|
D|-5-2----2--2----5-2----2--2----5-2----2--2----5-2----2--2----5-2----2--2-|
A|-3-0--0-0--0--0-3-0--0-0--0--0-3-0--0-0--0--0-3-0--0-0--0--0-3-0--0-0--0-|
E|-------------------------------------------------------------------------|

e|-------------------------------------------------------------------------|
B|-------------------------------------------------------------------------|
G|---5-2----2--2----5-2----5-2----5-2--------------------------------------|
D|---5-2----2--2----5-2----5-2----5-2--------------------------------------|
A|-0-3-0--0-0--0--0-3-0--0-3-0--0-3-0--------------------------------------|
E|-------------------------------------------------------------------------|



Play the verse and the chorus again



Solo

Malcolm (Rhythm for solo)
e|---------------|
B|---------------|
G|---5-2----2--2-|
D|---5-2----2--2-| x16
A|-0-3-0--0-0--0-|
E|---------------|

e|---------------|
B|---------------|
G|---5-7----7--7-|
D|---5-7----7--7-| x4
A|-3-3-5--5-5--5-|
E|---------------|

e|---------------|
B|---------------|
G|---7-9----9--9-|
D|---7-9----9--9-| x4
A|-5-5-7--7-7--7-|
E|---------------|

e|-------|
B|-------|
G|---5-2-|
D|---5-2-| x7
A|-0-3-0-|
E|-------|


Angus
e|-----------------------------------------------5------------------------------------------------|
B|-------'-----------------------------------------5-8-----5-----------------10--12b14--.-12b14-.-|
G|-7b9~~~9b10---------5b6-.-7-5--.-7-.-5-.-------------7b9---7b9r7/9v---9h11------------0-------0-|
D|-------------x-7-7------7------7---7---7-7-7v---------------------------------------------------|
A|------------------------------------------------------------------------------------------------|
E|------------------------------------------------------------------------------------------------|

e|----------------------------------------------12------------12----------------------------------|
B|12b14r12-12p10--.-10----10--13p12p10-12-12b14~~~~r12-12b14~~~~~r12------------------------------|
G|---------------11----11---------------------------------------------ect...-for-about-23-times---|
D|------------------------------------------------------------------------------------------------|
A|------------------------------------------------------------------------------------------------|
E|------------------------------------------------------------------------------------------------|

e|------------------------------------------------------------------------------------------------|
B|-14r12p10-13b15-12b14-12p10----10v-14p10-10v\---15b17--13---------'-------------7-10-------10---|
G|----------------------------11----------------------------14--12-12-11-9---9b11-----------------|
D|--------------------------------------------------------------------------------------9/11------|
A|------------------------------------------------------------------------------------------------|
E|------------------------------------------------------------------------------------------------|

e|-------------17-17----17--------------------------------------------------------*---------------|
B|12b14-10\----------17----17-20b22-20b22v--20-17-------17-----------------------20-------20------|
G|------------------------------------------------19b20----19-17-----------19b21----19b21----19b21|
D|---------------------------------------------------------------19-19v\--------------------------|
A|------------------------------------------------------------------------------------------------|
E|------------------------------------------------------------------------------------------------|

e|------------------------------------------------------------------------------------------------|
B|-20-------20----------13p10-------------------------13p10---------------------------------------|
G|----19b21-19b21v----x---------------------------------------------------5b7---------------------|
D|-------------------------------10p7----------10p7-----------10p7--------------------------------|
A|------------------------------------------------------------------------------------------------|
E|---------------------------------------8p5-------------------------8p5--------------------------|



Interlude

Angus
e|-------------------------------------------------------------------------|
B|-------------------------------------------------------------------------|
G|------------------------------------7b9--7--5v---------------------------|
D|------------------------------------------------7------7--7--7v----------|
A|-------------------------------------------------------------------------|
E|-------------------------------------------------------------------------|
Malcolm
e|-------------------------------------------------------------------------|
B|-------------------------------------------------------------------------|
G|-2------2----------2------2----------2------2----------2------2----------|
D|-2------2----------2------2----------2------2----------2------2----------|
A|-0------0----------0------0----------0------0----------0------0----------|
E|-------------------------------------------------------------------------|


Angus
e|-------------------------------------------------------------------------|
B|-------------------------------------------------------------------------|
G|---------------------------------------'---------------------------------|
D|-------------------------------------7-7---7v----------7--7--7v\---------|
A|-------------------------------------------------------------------------|
E|-------------------------------------------------------------------------|
Malcolm
e|-------------------------------------------------------------------------|
B|-------------------------------------------------------------------------|
G|-2------2----------2------2----------2------2----------2------2----------|
D|-2------2----------2------2----------2------2----------2------2----------|
A|-0------0----------0------0----------0------0----------0------0----------|
E|-------------------------------------------------------------------------|


Angus
e|-------------------------------------------------------------------------|
B|-'------'----------'------'-----------------8b10-------------------------|
G|-2------2----------2------2-------7--7--------------7--5------7b9--------|
D|-2------2----------2------2----------------------------------------------|
A|-------------------------------------------------------------------------|
E|-------------------------------------------------------------------------|
Malcolm
e|-------------------------------------------------------------------------|
B|-------------------------------------------------------------------------|
G|-2------2----------2------2----------2------2----------2------2----------|
D|-2------2----------2------2----------2------2----------2------2----------|
A|-0------0----------0------0----------0------0----------0------0----------|
E|-------------------------------------------------------------------------|


Angus
e|-------------------------------------------------------------------------|
B|-'------'----------'------'----------------------------------------------|
G|-2------2----------2------2----------------------------------------------|
D|-2------2----------2------2----------7--7--7v-------5--7--7--7\----------|
A|-------------------------------------------------------------------------|
E|-------------------------------------------------------------------------|
Malcolm
e|-------------------------------------------------------------------------|
B|-------------------------------------------------------------------------|
G|-2------2----------2------2----------2------2----------2------2----------|
D|-2------2----------2------2----------2------2----------2------2----------|
A|-0------0----------0------0----------0------0----------0------0----------|
E|-------------------------------------------------------------------------|


Angus
e|-------------------------------------------------------------------------|
B|------------8-8b10-----------------------------8-8-8b10------------------|
G|-------------------------------------------------------------------------|
D|-------------------------------------------------------------------------|
A|-------------------------------------------------------------------------|
E|-------------------------------------------------------------------------|
Malcolm
e|-------------------------------------------------------------------------|
B|-------------------------------------------------------------------------|
G|-2------2----------2------2----------2------2----------2------2----------|
D|-2------2----------2------2----------2------2----------2------2----------|
A|-0------0----------0------0----------0------0----------0------0----------|
E|-------------------------------------------------------------------------|


Angus
e|------------7-7b9-----------------------------9r7p5--7b9b10r9------------|
B|---------------------------------------------------x---------------------|
G|-------------------------------------------------------------------------|
D|-------------------------------------------------------------------------|
A|-------------------------------------------------------------------------|
E|-------------------------------------------------------------------------|
Malcolm
e|-------------------------------------------------------------------------|
B|-------------------------------------------------------------------------|
G|-2------2----------2------2----------2------2----------2------2----------|
D|-2------2----------2------2----------2------2----------2------2----------|
A|-0------0----------0------0----------0------0----------0------0----------|
E|-------------------------------------------------------------------------|


Angus
e|-10b12v------------10b12v-----10b12-----------------------------13b15----|
B|-----------------------------8 times---------------------------6 times---|
G|--------------------------and slide down---------------------------------|
D|----------------------------on last one----------------------------------|
A|-------------------------------------------------------------------------|
E|-------------------------------------------------------------------------|
Malcolm
e|-------------------------------------------------------------------------|
B|-------------------------------------------------------------------------|
G|-2------2----------2------2----------2------2----------2------2----------|
D|-2------2----------2------2----------2------2----------2------2----------|
A|-0------0----------0------0----------0------0----------0------0----------|
E|-------------------------------------------------------------------------|


Angus
e|-------------14b16-----------------20b22-20b22-22r20p17------------------|
B|------------4 times------------------------------------20p17-20b22-20b22v|
G|-----------and slide-----------------------------------------------------|
D|------------down on------------------------------------------------------|
A|-------------last--------------------------------------------------------|
E|-------------------------------------------------------------------------|
Malcolm
e|-------------------------------------------------------------------------|
B|-------------------------------------------------------------------------|
G|-2------2----------2------2----------2------2------2--2--2--2------------|
D|-2------2----------2------2----------2------2------2--2--2--2------------|
A|-0------0----------0------0----------0------0------0--0--0--0------------|
E|-------------------------------------------------------------------------|


Angus
e|-------------------------------------------------------------------------|
B|------'------'----------'------'-----------------------------------------|
G|------7------7----------7------7----------'------'----------'------'-----|
D|------7------7----------7------7----------2------2----------2------2-----|
A|------------------------------------------2------2----------2------2-----|
E|-------------------------------------------------------------------------|
Malcolm
e|-------------------------------------------------------------------------|
B|-------------------------------------------------------------------------|
G|-5/7--7------7----7-----7------7-----------------------------------------|
D|-5/7--7------7----7-----7------7-----0-2--2------2----2-----2------2-----|
A|-3/5--5-5--5-5----5-5---5-5--5-5-----0-2--2------2----2-----2------2-----|
E|-------------------------------------0-0--0-0--0-0----0-0---0-0--0-0-----|



Ending Chorus (Both Angus and Malcolm)

e|-------------------------------------------------------------------------|
B|-------------------------------------------------------------------------|
G|-5-2----2--2----5-2----2--2----5-2----2--2----5-2----2--2----5-2----2--2-|
D|-5-2----2--2----5-2----2--2----5-2----2--2----5-2----2--2----5-2----2--2-|___
A|-3-0--0-0--0--0-3-0--0-0--0--0-3-0--0-0--0--0-3-0--0-0--0--0-3-0--0-0--0-|   |
E|-------------------------------------------------------------------------|   |
                                                                               |_ x2
e|-------------------------------------------------------------------------|   |  
B|-------------------------------------------------------------------------|   |
G|---5-2----2--2----5-2----5-2----5-2----2--2------------------------------|___|
D|---5-2----2--2----5-2----5-2----5-2----2--2------------------------------|
A|-0-3-0--0-0--0--0-3-0--0-3-0--0-3-0--0-0--0--0---------------------------|
E|-------------------------------------------------------------------------|

e|-------------------------------------------------------------------------|
B|-------------------------------------------------------------------------|
G|-5-2----2--2----5-2----2--2----5-2----5-2----5-2-------------------------|
D|-5-2----2--2----5-2----2--2----5-2----5-2----5-2-------------------------| x3
A|-3-0--0-0--0--0-3-0--0-0--0--0-3-0--0-3-0--0-3-0--0----------------------|
E|-------------------------------------------------------------------------|
 


Outro

Angus                            *                            *  *
e|-------------------------------20-17----------------*-------20-17--------|
B|--------------------------------------13-10---------13-10----------13-10-|
G|-------------------------------------------------------------------------|
D|---------------------------------------------10-7------------------------|
A|-------------------------------------------------------------------------|
E|-------------------------------------------------------------------------|
Malcolm
e|-------------------------------------------------------------------------|
B|-------------------------------------------------------------------------|
G|-5-2----2--2----5-2----2--2----5-2----5-2----5-2----5-2-----5-2----5-2---|
D|-5-2----2--2----5-2----2--2----5-2----5-2----5-2----5-2-----5-2----5-2---|
A|-3-0--0-0--0--0-3-0--0-0--0--0-3-0--0-3-0--0-3-0--0-3-0--0--3-0--0-3-0--0|
E|-------------------------------------------------------------------------|



Angus
e|-------------------------------------------------------------------------|
B|------------8b10-----------8--5------------------------------------------|
G|---------------------------------7--5vvvvvv\2/4--------------------------|
D|-------------------------------------------------------------------------|
A|-------------------------------------------------------------------------|
E|-------------------------------------------------------------------------|
Malcolm
e|-------------------------------------------------------------------------|
B|-------------------------------------------------------------------------|
G|-5-2-----------------------------------------2---------------------------|
D|-5-2-----------------------------------------2---------------------------|
A|-3-0-----------------------------------------0---------------------------|
E|-------------------------------------------------------------------------|
comments
We did not receive enough feedback on this tab! Please rate:
print report bad tab
1 2 3 4 5
1 comment total.
0 reply
Fepo wrote on December 20 2013, 02:09 pm

Looks very good....i give accurate :)

I want to post or [tab]
guest
You may want to rate the tab now too:
select rating
Please do not post tabs as comments. Select "correction" instead!