Oops, an error
Loading. Please wait.

Let There Be Rock Tab

ver1
ver1

Album

Whole song

Interactive

More versions @911Tabs.com
95,427 views 57 this week
5 commentsread comments
1 2 3 4 5
worth learning
x 7
Autoscroll
+/-
esc
set tempo
stop
Contributor
Hey! There's an official Ultimate Guitar app which is ideal
for learning songs when you're away from computer. Get the app
WARNING: You are trying to view
                                    content from Ultimate-Guitar.com
                                    in an unauthorized application,
                                    which is prohibited.

                                    Please use an official Ultimate
                                    Guitar Tabs application for iPhone,
                                    iPad or Android to access legitimate
                                    chords, guitar, bass, and drum tabs
                                    from Ultimate-Guitar.com database.

                                    Type "ultimate guitar tabs" in Apple
                                    App Store's or Android Market's
                                    search to find the application.
Let There Be Rock Album

                                                     Go Down

 Main Intro Riff
 ------------|
 ------------|
 ------2-----|
 ------2-----|
 --0-3-0-----|
 ------------|

 Verse Riff
 ------------------|
 ------------------|
 --2-2-----2---0---|
 --2-2-----2---0---|
 --0---0-0---0-----|
 ------------------|

 Play Main Riff

                                                       Dog Eat Dog

 Intro Riff
 -----------|
 ------3----|
 ----2-2----|
 --2-2-0----|x2
 --2-0------|
 --0--------|

 Riff A
 ------------------------------|
 ------------3----------3------|
 ------2-----2----------2--2---|
 --2---2-----0----------0--2---|
 --2---0-0-0---------------0---|
 --0-0---------0-0-0-0---------|

                                                      Let There Be Rock

 Riff A
 ----------------------------------------------|
 ----------------------------------------------|
 --0-----------0---------0---2---0-------------|
 --0-2-2-------0-2-------0-2-2-2-0-2-2---------|x4
 ----2-2---------2---------2-0-2---2-2---------|
 --3-0-0-0-0-0-3-0-0-0-0-3-0---0-3-0-0-0-0-0---|

 Chorus Riff
 ------------|
 ------------|
 --2-2-x-x---|
 --2-2-x-x---|
 --0-0-x-x---|
 ------------|

 Guitar Solo 1
 --------------------------------------------------------|
 --------------------------------------------------------|
 --7-7-7\-7-7-7\---5-7-7(9)-7-5----5-7-7(9)-7-5-7-7(9)-7-|
 -----------------7---------------7----------7--------7--|
 --------------------------------------------------------|
 --------------------------------------------------------|

 ------------ |-------|   |------|   --------------17------------------|
 ---5-5----5- |-------|   |------|   --------20(22)--20-17-------------|
 --7----7-7-- |--5-5--|   |--7-7-|   ---7\6---------------17-17--19-17-|
 ------------ |-7-----|x16|-9----|x11--9---x-------------------19------|
 ------------ |-------|   |------|   -------x--------------------------|
 ------------ |-------|   |------|   ----------------------------------|

 ------------------------------------------------------|
 ----8-10-10-8-10-10-8-10-10-8-10-10-8-10-10-8-10-10---|
 ------------------------------------------------------|
 --19--------------------------------------------------|
 ------------------------------------------------------|
 ------------------------------------------------------|

 Guitar solo 2
 -----------  ---------------------------------------------------------|
 -----------  ---------------------------------------------------------|
 -----------  ---------------------------------------------------------|
 -----------x8----------2-2-4-4-5-5-4-4-2-2--------------2-2-4-4-5-5-4-|
 -0-0-3-4---  -0-0-3h4-4--------------------4-4-0-0-3h4-4--------------|
 -----------  ---------------------------------------------------------|

 ----------------------------------------------------------------------|
 ----------------------------------------------------------------------|
 ----------------------------------------------------------------------|
 --4-2-2------------4-4-6-6-7-7-6-6-4-4------------4-4-6-6-7-7-6-6-4-4-|
 -------4-4-2-2-/6-6-------------------6-6-2-2-/6-6--------------------|
 ----------------------------------------------------------------------|

 -8-------    --8----|
 --10----------------|
 ----11--------------|
 ---------x10--------|
 --------------------|
 --------------------|

                                         Bad Boy Boogie

 ---------------------------------------------------|
 -------------3----------3--------------------------|
 -2-2-2-2---2-2-5-2-2--2-2--5-2-2-2-2-2--2-2-2-2----|
 -2-2-2-2---2-2-5-2-2--2-2--5-2-2-2-2-2--2-2-2-2----|
 -0-0-0-0---0---0-0-0--0----0-0-0-0-0-0--0-0-0-0----|
 ---------------------------------------------------|

 -------------------------------------------|
 --------------3---------3------------------|
 --2-2-2-2-2-2-2--5-2--2-2--5-2-2-2-2-2-----|
 --2-2-2-2-2-2-2--5-2--2-2--5-2-2-2-2-2-----|
 --0-0-0-0-0-0----0-0--0----0-0-0-0-0-0-----|
 -------------------------------------------|


                                                      Overdose


 Eb|---------2----------------|   Eb|---------2---------0-----|
Bb|-------0--------0---------|   Bb|-------0---------0--------|
Gb|-----2--------------------|   Gb|-----2---------1----------|
Db|-------------1------------|   Db|--------------------------|
Ab|---2---------2------------|   Ab|---2----------------------|
Eb|--------------------(1)---|   Eb|-------------0------------|

      B7        E

Eb|---------2---------0---0---|
Bb|-------0---------0-----0---|
Gb|-----2---------1-------1---|
Db|-----------------------2---|
Ab|---2-------------------2---|
Eb|-------------0---------0---|

Guitar I (Angus)

      B7        E

Eb|---------2---------0---|
Bb|-------0---------0-----|
Gb|-----2---------1-------| play 4 times
Db|-----------------------|
Ab|---2-------------------|
Eb|-------------0---------|

Guitar II (Malcolm)

      B5        E5

Eb|---------------------------|
Bb|---------------------------|
Gb|---4-----------------------| play 4 times
Db|---4---------2-------------|
Ab|---2---------2-------------|
Eb|-------------0-------------|

Rhythm:

Guitars I and II

      B5  D5  E

Eb|---------------|
Bb|-------3-------|
Gb|---4---2---1---|
Db|---4---0---2---|
Ab|---2-------2---|
Eb|-----------0---|

Pre-solo:

Guitars I and II

      B5                    E   D

Eb|---------------|   Eb|-------2---|
Bb|---------------|   Bb|-------3---|
Gb|---4---4-4-4---|   Gb|---1---2--o| play 3 times
Db|---4---4-4-4---|   Db|---2---0--o|
Ab|---2---2-2-2---|   Ab|---2-------|
Eb|---------------|   Eb|---0-------|

      E     D

Eb|---------2---2---2---|
Bb|---------3---3---3---|
Gb|---1-----2---2---2---|
Db|---2-----0---0---0---|
Ab|---2-----------------|
Eb|---0-----------------|


                            Hell Ain't A Bad Place To Be

 e---3---2---3---2---3-2---------------------|
B---3---3---3---3---3-3----------------------|
G---0---2---0---2---0-2---2------------------|
D---0---0---0---0---0-0---2------------------|
A---x---x---x---x---x-x---0------------------|
E---3---2---3---2---3-2----------------------|


e---3---2---3---2---3-2-------------------|
B---3---3---3---3---3-3-------------------|
G---0---2---0---2---0-2---2---------------|
D---0---0---0---0---0-0---2---------------|
A---x---x---x---x---x-x---0---------------|
E---3---2---3---2---3-2-------------------|


e---3---2---3---2---3-2-------------------|
B---3---3---3---3---3-3-------------------|
G---0---2---0---2---0-2---2---------------|
D---0---0---0---0---0-0---2---------------|
A---x---x---x---x---x-x---0---------------|
E---3---2---3---2---3-2-------------------|


e---3---2---3---2---3-2-------------------|
B---3---3---3---3---3-3-------------------|
G---0---2---0---2---0-2---2---------------|
D---0---0---0---0---0-0---2---------------|
A---x---x---x---x---x-x---0---------------|
E---3---2---3---2---3-2-------------------|

e-------------------------------------------|------------------------|
B-------------------------------------------|------------------------|play
G-------------------------------------------|------------------------|line two
D---5--------4--------5--------4--------5-4-|-5h7-7-7----------------|2x
A---0--0--0--0--0--0--0--0--0--0--0--0--0-0-|-0(0)0-0--0--0--0--0----|
E-------------------------------------------|------------------------|

e-------------------------------------------|------------------------|
B-------------------------------------------|------------------------|
G-------------------------------------------|------------------------|
D---5--------4--------5--------4--------5-4-|-5h7-7-7----------------|
A---0--0--0--0--0--0--0--0--0--0--0--0--0-0-|-0(0)0-0--0--0--0--0----|
E-------------------------------------------|------------------------|

e-------------------------------------------|------------------------|
B-------------------------------------------|------------------------|
G-------------------------------------------|------------------------|
D---5--------4--------5--------4--------5-4-|-5h7-7-7----------------|
A---0--0--0--0--0--0--0--0--0--0--0--0--0-0-|-0(0)0-0--0--0--0--0----|
E-------------------------------------------|------------------------|

e-------------------------------------------|------------------------|
B-------------------------------------------|------------------------|
G-------------------------------------------|------------------------|
D---5--------4--------5--------4--------5-4-|-5h7-7-7----------------|
A---0--0--0--0--0--0--0--0--0--0--0--0--0-0-|-0(0)0-0--0--0--0--0----|
E-------------------------------------------|------------------------|

e--2-----3-----2------3-3-3-3--2-----|
B--3-----3-----3------3-3-3-3--3-----|
G--2-----0-----2------0-0-0-0--2-----|
D--0-----0-----0------0-0-0-0--0-----|
A--x-----x-----x------x-x-x-x--x-----|
E--2-----3-----2------3-3-3-3--2-----|

e------------------------3-----------|
B------------------------3-----------|
G----------2-------------0-----------|
D--2-------2-------2-----0-----------|
A--2-------0-------2-----x-----------|
E--0---------------0-----3-----------|

e-------------------------------------------|------------------------|
B-------------------------------------------|------------------------|
G-------------------------------------------|------------------------|
D---5--------4--------5--------4--------5-4-|-5h7-7-7----------------|
A---0--0--0--0--0--0--0--0--0--0--0--0--0-0-|-0(0)0-0--0--0--0--0----|
E-------------------------------------------|------------------------|

e-------------------------------------------|------------------------|
B-------------------------------------------|------------------------|
G-------------------------------------------|------------------------|
D---5--------4--------5--------4--------5-4-|-5h7-7-7----------------|
A---0--0--0--0--0--0--0--0--0--0--0--0--0-0-|-0(0)0-0--0--0--0--0----|
E-------------------------------------------|------------------------|

e-------------------------------------------|------------------------|
B-------------------------------------------|------------------------|
G-------------------------------------------|------------------------|
D---5--------4--------5--------4--------5-4-|-5h7-7-7----------------|
A---0--0--0--0--0--0--0--0--0--0--0--0--0-0-|-0(0)0-0--0--0--0--0----|
E-------------------------------------------|------------------------|

e-------------------------------------------|------------------------|
B-------------------------------------------|------------------------|
G-------------------------------------------|------------------------|
D---5--------4--------5--------4--------5-4-|-5h7-7-7----------------|
A---0--0--0--0--0--0--0--0--0--0--0--0--0-0-|-0(0)0-0--0--0--0--0----|
E-------------------------------------------|------------------------|

e--2-----3-----2------3-3-3-3--2-----|
B--3-----3-----3------3-3-3-3--3-----|
G--2-----0-----2------0-0-0-0--2-----|
D--0-----0-----0------0-0-0-0--0-----|
A--x-----x-----x------x-x-x-x--x-----|
E--2-----3-----2------3-3-3-3--2-----|

e------------------------3-----------|
B------------------------3-----------|
G----------2-------------0-----------|
D--2-------2-------2-----0-----------|
A--2-------0-------2-----x-----------|
E--0---------------0-----3-----------|

Solo

e---------------------------|repeat
B---------------------------|over and
G---------------------------|over again
D--7~-7~-7~-7~-7~-7~-7~-7~--|
A---------------------------|
E---------------------------|

e------------------------------------------5---------------------------------|
B--------------------------------------------8p5---------8b(10)-(10)-(10)-(1-|
G----------------9--7~--7~7~--7~7~--7~7~---------7p5-------------------------|
D-x-------10--7~-------------------------------------7/----------------------|
A---x------------------------------------------------------------------------|
E-----x----------------------------------------------------------------------|

e-----------------------------------------------------------|
B-10-10/\-10-10/\-10-10/\-10-10--13-13~~~-13b(15)r13-10~~~--|
G-----------------------------------------------------------|
D-----------------------------------------------------------|
A-----------------------------------------------------------|
E-----------------------------------------------------------|

e---------------15----15-----------15---------|
B-15b-15b-15-17----17----17-17--17----17--17--|
G---------------------------------------------|
D---------------------------------------------|
A---------------------------------------------|
E---------------------------------------------|

e--17-17~~~~--17-17-17-17~~~~~~~----|
B-----------------------------------|
G-----------------------------------|
D-----------------------------------|
A-----------------------------------|
E-----------------------------------|

e--2-----3-----2------3-3-3-3--2-----|
B--3-----3-----3------3-3-3-3--3-----|
G--2-----0-----2------0-0-0-0--2-----|
D--0-----0-----0------0-0-0-0--0-----|
A--x-----x-----x------x-x-x-x--x-----|
E--2-----3-----2------3-3-3-3--2-----|

e------------------------3-----------|
B------------------------3-----------|
G----------2-------------0-----------|
D--2-------2-------2-----0-----------|
A--2-------0-------2-----x-----------|
E--0---------------0-----3-----------|

e-------------------------------------------|------------------------|
B-------------------------------------------|------------------------|
G-------------------------------------------|------------------------|
D---5--------4--------5--------4--------5-4-|-5h7-7-7----------------|
A---0--0--0--0--0--0--0--0--0--0--0--0--0-0-|-0(0)0-0--0--0--0--0----|
E-------------------------------------------|------------------------|

e-------------------------------------------|------------------------|
B-------------------------------------------|------------------------|
G-------------------------------------------|------------------------|
D---5--------4--------5--------4--------5-4-|-5h7-7-7----------------|
A---0--0--0--0--0--0--0--0--0--0--0--0--0-0-|-0(0)0-0--0--0--0--0----|
E-------------------------------------------|------------------------|

e-------------------------------------------|------------------------|
B-------------------------------------------|------------------------|
G-------------------------------------------|------------------------|
D---5--------4--------5--------4--------5-4-|-5h7-7-7----------------|
A---0--0--0--0--0--0--0--0--0--0--0--0--0-0-|-0(0)0-0--0--0--0--0----|
E-------------------------------------------|------------------------|

e-------------------------------------------|------------------------|
B-------------------------------------------|------------------------|
G-------------------------------------------|------------------------|
D---5--------4--------5--------4--------5-4-|-5h7-7-7----------------|
A---0--0--0--0--0--0--0--0--0--0--0--0--0-0-|-0(0)0-0--0--0--0--0----|
E-------------------------------------------|------------------------|

e----------------------------------------------|
B----------------------------------------------|
G----------------------------------------------|
D--5h7-7-7----5h7-7-7----5h7-7-7---5-7--7--7---|
A--0-0-0-0----0-0-0-0----0-0-0-0---0-0--0--0---|
E----------------------------------------------|

                              Whole Lotta Rosie

 |----------------|----------------|----------------|----------------|6-| times
|----------------|----------------|----------------|--------------------|
|--2-5---7---5-2-|----------------|--2-5---7---5-2-|--------------------|
|--2-5---7---5-2-|----------------|--2-5---7---5-2-|--------------------|
|--0-3-0-5-0-3-0-|----------------|--0-3-0-5-0-3-0-|--------------------|
|----------------|----------------|----------------|--------------------|

|----------------|----------------||-----------------|---------------|7x's
|----------------|----------------||-----------------|---------------|
|----------------|--2-5---7---5-2-||---2-----2-----2-|---------------|
|----------------|--2-5---7---5-2-||---2-----2-----2-|---------------|
|----------------|--0-3-0-5-0-3-0-||-0-0-0-0-0-0-0-0-|-0-3-0-5-0-3-0-|
|----------------|----------------||-----------------|---------------|

|--------------------|----------------|----------------|----------------|
|--------------------|----------------|----------------|-3-----3-----3--|
|-2-2-2--2--2-2-2--2-|----------------|----------------|-2-----2-----2--|
|-2-2-2--2--2-2-2--2-|-3----3----3----|----------------|-0-----0-----0--|
|-0-0-0--0--0-0-0--0-|-3----3----3----|----------------|----------------|
|--------------------|-1----1----1----|----------------|----------------|

|-----------------------|------------------------3-|-----------------------|
|-----------------------|------------------------3-|-----------------------|
|-----------------------|-2-------------------2--0-|-----------------------|
|-----------------------|-2-------------------2--0-|-----------------------|
|-----------------------|-0-------------------0----|-----------------------|
|-----------------------|------------------------3-|-----------------------|

|---------------------3-|--------------------------|---------------------3-|
|---------------------3-|--------------------------|---------------------3-|
|-2----------------2--0-|--------------------------|-2----------------2--0-|
|-2----------------0--0-|--------------------------|-2----------------2--0-|
|-0----------------0----|--------------------------|-0----------------0----|
|---------------------3-|--------------------------|---------------------3-|

|-----------------------|-------------------------|-----------------------|
|-----------------------|--3--------3--------3----|--3-------3-------3----|
|-----------------------|--0--------0--------0----|--0-------0-------0----|
|-----------------------|--0--------0--------0----|--0-------0-------0----|
|-----------------------|-------------------------|-----------------------|
|-----------------------|--3--------2--------3----|--2-------3-------4----|

|--------------------|--------------|--------------------|--------------|7x
|--------------------|--------------|--------------------|--------------|
|----2---2---2-----2-|--------------|----2---2---2-----2-|--------------|
|----2---2---2-----2-|--------------|----2---2---2-----2-|--------------|
|--0-0-0-0-0-0-0-0-0-|--0-3-0-5-3-0-|--0-0-0-0-0-0-0-0-0-|--0-3-0-5-3-0-|
|--------------------|--------------|--------------------|--------------|

GUITAR SOLO
                                    ~~~~~~~~~~~~
|----------------------------|--------------------------------------------|
|----------------------------|--------------------------------------------|
|--5-5555-5-5-5-5-5-5-5-5-5-5|-5-----------------5-5-5-5-5-5-5-5555555555-|
|----------------------------|----7-------------\-------------------------|
|----------------------------|--------------------------------------------|
|----------------------------|--------------------------------------------|

   ~~~~~~  ~~~~~~~~~~~~
|-----------------------------|---------------------------|
|-----------------------------|---------------------------|
|-------------------------5-5-|-5-5--5--5-5---5-5--5--5-5-|
|-7-------7------------\------|---------------------------|
|-----------------------------|---------------------------|
|-----------------------------|---------------------------|

|------------------------------|-------------------------------|
|------------------------------|-----------------------8-------|
|---5-5--5--5-5-5-5-5-5-5\4(5)-|---7\(9)-----------------7\(9)-|
|------------------------------|-------------------------------|
|------------------------------|-------------------------------|
|------------------------------|-------------------------------|

    ~~~~~~~~~~~~~~~~                             ~~~~~~~
|----------------------5-----|----------------------------5----|
|-------------------------8--|-5-----------------------------8-|
|-\7-------------------------|---7--5-7-5---7---5--------------|
|----------------------------|------------7---7----------------|
|----------------------------|---------------------------------|
|----------------------------|---------------------------------|

                             ~~~~~~
|-----------------------------------------------|
|---5--------------------------------------8(10)|
|------7--5--7--5-----7-----5-----5-----5-------|
|------------------7-----7----------------------|
|-----------------------------------------------|
|-----------------------------------------------|

      HOLD BEND FOR WHOLE BAR!
|--------------------------------------------------------------------------|
|-----(10)-(10)-(10)-(10)-(10)-(10)-(10)-(10)-(10)-(10)-(10)-(10)-(10)-(10)|
|--------------------------------------------------------------------------|
|--------------------------------------------------------------------------|
|--------------------------------------------------------------------------|
|--------------------------------------------------------------------------|
|--------------------------------------------------------------------------|

       AND THIS ONE TOO!                  ~~~~~~~~~~~~~
|-------------------------------------------------------7--8-|
|--(10)-(10)-(10)-(10)-(10)-(10)-(10)------------------------|
|------------------------------------------------------------|
|------------------------------------------------------------|
|------------------------------------------------------------|
|------------------------------------------------------------|

|---7--5--7--8--7--5--7--8--7--5--7--8--7--5--7--8--|
|---------------------------------------------------|
|---------------------------------------------------|
|---------------------------------------------------|
|---------------------------------------------------|
|---------------------------------------------------|

|---7--5--7--8--7--5--7--8--7--5--7--8--10--8--7----|
|-------------------------------------------------8-|
|---------------------------------------------------|
|---------------------------------------------------|
|---------------------------------------------------|
|---------------------------------------------------|

|--5------------------------------------------------|
|----5--7--5--7--5----------------------------------|
|-------------------7--5------------5---------------|
|-------------------------7------5-------7----------|
|---------------------------------------------------|
|---------------------------------------------------|

|---------------------------------------------|---------------------------|
|--------------------------------------13--15-|-(17)---------15(17)----\--|
|---------------------------------------------|---------------------------|
|-----------------7-----------------\---------|---------------------------|
|-------------/9------------------------------|---------------------------|
|---------------------------------------------|---------------------------|

|----------5------8----8----7-|----5-----7-------5---------5---------------|
|-----/7----------------------|-----------------------8-------7--8/7/5-7/5-|
|-----------------------------|--------------------------------------------|
|-----------------------------|--------------------------------------------|
|-----------------------------|--------------------------------------------|
|-----------------------------|--------------------------------------------|

  ~~~~~~~~~~~~~~~~~~~~~~~~~~~~~~~~~~~~~
|------------------------------------------------|
|----------------------------------------/9\-----|
|------------------------------------------------|
|------------------------------------------------|
|------------------------------------------------|
|------------------------------------------------|

                repeat bar below once                   ~~~~~~~~
|--------------------------------------|-----------------------------------|
|--------------------------------------|-----------------------------------|
|--------5---------7---------5---------|----2---5-------7-------5---2------|
|--/7---------7---------7---------7----|----2---5-------7-------5---2------|
|--------------------------------------|----0---3---0---5---0---3---0------|
|--------------------------------------|-----------------------------------|

                                ~~~~~~                            ~~~~~~~
|---------------------------------|-----------------------------------|
|---------------------------------|-----------------------------------|
|----------5-------7-------5------|--------5-------7-------5----------|
|-----/7-------7-------7-------7--|----7-------7-------7---------7----|
|---------------------------------|-----------------------------------|
|---------------------------------|-----------------------------------|

|-----------------------------|-----------------------------------|
|-----------------------------|-----------------7-----------------|
|-------5-------7-------5-----|--------5--------7-------5---------|
|---7-------7-------7-------7-|---7--------7--------7--------7----|
|-----------------------------|-----------------------------------|
|-----------------------------|-----------------------------------|

|-----------------------------------|-----------------------------------|
|-----------------7-----------------|----------------7------------------|
|--------5--------7-------5---------|--------5-------7--------5---------|
|---/7-------7--------7--------7----|---/7-------7-------7---------7----|
|-----------------------------------|-----------------------------------|
|-----------------------------------|-----------------------------------|

                                                    ~~~~~~~~~~~~
|-----------------------------------|-----------------------------------|
|-----------------7-----------------|-------------------------------8---|
|--------5--------7-------5---------|---7(9)------(9)-------------------|
|---/7-------7--------7--------7----|-----------------------------------|
|-----------------------------------|-----------------------------------|
|-----------------------------------|-----------------------------------|

|--5--------------------------------|------------------------------------|
|------8-5----5-8-5---5-8-5---5-8-5-|----5--8--5-----5--8-----5----------|
|-----------7-------7-------7-------|--7----------7--------7-------7(9)--|
|-----------------------------------|------------------------------------|
|-----------------------------------|------------------------------------|
|-----------------------------------|------------------------------------|

                                           ~~~~~~
|----------5-------------------------------------|
|--7(9)-------8--5-----5-------------------------|
|-------------------7------7--5-----7-----5------|
|--------------------------------7---------------|
|------------------------------------------------|
|------------------------------------------------|

                     ~~~~~~~~~~~~~~~
|------------------------------------------|-------------------------------|
|---------------20(22)---------------20(22)|-----20(22)------------20(22)--|
|-----\2/----------------------------------|-------------------------------|
|------------------------------------------|-------------------------------|
|------------------------------------------|-------------------------------|
|------------------------------------------|-------------------------------|
|------------------------------------------|-------------------------------|

|----17-------------------17-----------------17--------------17--------------|
|-------20--17-20(22)--------20--17-20(22)------20-17-20(22)----20-17-20(22--|
|----------------------------------------------------------------------------|
|----------------------------------------------------------------------------|
|----------------------------------------------------------------------------|
|----------------------------------------------------------------------------|

                                       this bar 2x    this bar 6x
|---------------------|--17-20/17---|17---17--------|-17----------|
|---20(22)------------|----------20-|-20---20/17----|-17/20/17----|
|---------------------|-------------|------------19-|----------19-|
|---------------------|-------------|---------------|-------------|
|---------------------|-------------|---------------|-------------|
|---------------------|-------------|---------------|-------------|

|---17\\\\-------------|--------------------------------------------|
|---17\\\\-------------|--------------------------------------------|
|----------------x/----|--x/---0------------------------------------|
|----------------------|-----------4(5)----4(5)---------------------|
|----------------------|---------------------------------0------0---|
|----------------------|--------------------------------------------|

          ~~~~~~~~~~~~~~~~~~~       This Bar 2x
|----------------------------|   |-------------------|
|------20(22)-(22)-(22)-(22)-|   |--14---14----14----|
|----------------------------|   |--14---14----14----|
|----------------------------|   |--14---14----14----|
|---0------------------------|   |---0----0-----0----|
|----------------------------|   |-------------------|

                   ~~~~~~~~
|--------------------------------|
|--14----------------------------|
|--14----------------------5---7-|
|--14-------------7--------------|
|---0--------0-------------------|
|--------------------------------|

 play bar 3x
|--------------------|   |----------5---------------------------------|
|------5--8--8/5-----|   |-5--8\5---------5--8/5-7/5------------------|
|-7(9)-----------7(9)|   |--------7------------------8/5-7/5---7------|
|--------------------|   |-----------------------------------7----7/5-|
|--------------------|   |--------------------------------------------|
|--------------------|   |--------------------------------------------|

|---------------------------------|-----------------------------------|
|---------------------------------|--2--------------------------------|
|---------------------------------|--2--------------------------------|
|--7/5-----7----------------------|--2--------------------------------|
|-------7-----7/5/3---------------|--0--------------------------------|
|---------------------------------|-----------------------------------|
comments
print report bad tab
5 comments total. Showing first comments.
0 reply
ibanez87 wrote on July 11 2005, 12:00 am

dude, you got to put more time into these

0 reply
ibanez87 wrote on July 11 2005, 12:00 am

I'm making a ver2,once agian. please tell me you're not making a Razor's Edge or High Voltage album tab! I'm making those!

0 reply
bonny500 wrote on August 16 2005, 12:00 am

its ok i guess

I want to post or [tab]
guest
You may want to rate the tab now too:
select rating
Please do not post tabs as comments. Select "correction" instead!