Oops, an error
Loading. Please wait.

Let There Be Rock Tab

ver2
ver2

Album

Whole song

More versions @911Tabs.com
19,109 views 24 this week
8 commentsread comments
1 2 3 4 5
accurate
x 7
Autoscroll
+/-
esc
set tempo
stop
Difficulty
advanced
WARNING: You are trying to view
                                    content from Ultimate-Guitar.com
                                    in an unauthorized application,
                                    which is prohibited.

                                    Please use an official Ultimate
                                    Guitar Tabs application for iPhone,
                                    iPad or Android to access legitimate
                                    chords, guitar, bass, and drum tabs
                                    from Ultimate-Guitar.com database.

                                    Type "ultimate guitar tabs" in Apple
                                    App Store's or Android Market's
                                    search to find the application.


Go down
Let There Be Rock, 1976
tabbed by Jason Bineider


Intro: (Angus and Malcolm play the same figures)

(spoken)
Ah 1 2 3
(feed back)         (hold chord)
------------>        ------------------------------------------------|
e|-------------------------------------------------------------------|
b|-------------------------------------------------------------------|
g|-2-----2------------2-----2------------2-----2------------2-----2--|
D|-2-----2------------2-----2------------2-----2------------2-----2--|
A|-0--3--0------------0--3--0------------0--3--0------------0--3--0--|
E|-------------------------------------------------------------------|

e|----------------------------------------------------------------|
b|----------------------------------------------------------------|
g|-2-----2-------2-----2------2-----2------2-----2-------2-----2--|
D|-2-----2-------2-----2------2-----2------2-----2-------2-----2--|
A|-0--3--0-------0--3--0------0--3--0------0--3--0-------0--3--0--|
E|----------------------------------------------------------------|


Verse

e|------------------------------------------------------------|
b|------------0------------------0------------------0---------|
g|·-----2--2--0--2---------2--2--0--2------2--2--2--0--2------|
D|·--2--2--2--0--2------2--2--2--0--2------2--2--2--0--2------|
A|---0--0--0--0--0------0--0--0--0--0------0--0--0--0--0------|
E|------------------------------------------------------------|

Rhythm Figure 2
V
e|-----------------------------------------------------|
b|-----------0----------------0----------------0-------|
g|-----2--2--0--2-------2--2--0--2----2--2--2--0--2----|
D|--2--2--2--0--2----2--2--2--0--2----2--2--2--0--2----|
A|--0--0--0--0--0----0--0--0--0--0----0--0--0--0--0----|
E|-----------------------------------------------------|

V			  Ruby, Ruby...
e|-------------------------------------------------------------|
b|-----------0----------------0-----------------------0--------|
g|-----2--2--0--2-------2--2--0--2-----2----2----2----0----2---|
D|--2--2--2--0--2----2--2--2--0--2-----2----2----2----0----2---|
A|--0--0--0--0--0----0--0--0--0--0-----0----0----0----0----0---|
E|-------------------------------------------------------------|
keep playing that riff untill

You got the lips....
e|-----------------------------------------------------------------|
b|-----------------------------------------------------------------|
g|----------9----9----9----7----9-------9----9----9----7----9------|
D|----------9----9----9----7----7-------9----9----9----7----9------|
A|----------7----7----7----5----7-------7----7----7----5----7------|
E|-----------------------------------------------------------------|


e|--------------------------------------------------------|
b|--------------------------------------------------------|
g|--9----9----9----7----9-------9----9----9----7----9-----|
D|--9----9----9----7----9-------9----9----9----7----9-----|
A|--7----7----7----5----7-------7----7----7----5----7-----|
E|--------------------------------------------------------|

e|-------------------------------------------------------|
b|-------------------------------------------------------|
g|--5----5----5----7----5---------5----5----5----7--5----|
D|--5----5----5----7----5---------5----5----5----7--5----|
A|--3----3----3----5----3---------3----3----3----5--3----|
E|-------------------------------------------------------|

e|---------------------------------------------------------|
b|---------------------------------------------------------|
g|--5----5----5----7----5--------5----5----5-----7----5----|
D|--5----5----5----7----5--------5----5----5-----7----5----|
A|--3----3----3----5----3--------3----3----3-----5----3----|
E|---------------------------------------------------------|

Chours:

Play rhythm figure 1

Verse 2:

Play rhythm figure 2


Solo:

Will be tabbed at later date

Rhythm Figure 3
Guitar 1


e|-----------------------------------|
b|-----------------------------------|
g|--2----(2)----2----2----0----2-----|
D|--2-----2-----2----2----0----2-----|
A|--0-----3-----0----0----0----0-----|
E|-----------------------------------|

call and response bit


eww baby ruby it on
e|----------------------------------------------------|
b|----------------------¼--¼--¼-r---------------------|
g|----------------------7--7--7--7---5-----7-p-5-(5)--|
D|------------------------------------------------7---|
A|----------------------------------------------------|
E|----------------------------------------------------|

Ohhh its still sweet since you been gone
~~~~~~~~~
e|-------------------------------------------------------------|
b|--------------------------------------------*--*--*----------|
g|-----------------------------------------------½-r-----------|
D|-------------------------------------------(7)-7--5----5-7-7-|
A|-------------------------------------------------------------|
E|-------------------------------------------------------------|
* Wide Vibratto
and no one else gotta touch like you
e|---------------------------------------------full---------------|
b|---------------------------------------½--½---7----¼--¼---------|
g|---------------------------------------7--7--------7--7-p-5-----|
D|--------------------------------------------------------------7-|
A|----------------------------------------------------------------|
E|----------------------------------------------------------------|
ewww feels good
~~~~~~~~~~~~~~~~~~~~~~~~~
e|--------------------------|-----------------½---½--full---|
b|-*--*--*---*---*--*--*--*-|----------------10--10--10-----|
g|-------5------------5-----|-------------------------------|
D|-7--7-----7----7--7----7--|-------------------------------|
A|--------------------------|-------------------------------|
E|--------------------------|-------------------------------|
* wide vibratto

ahhh ahhhh ahhhh
e|---------------------full-full-full--|
b|---------------------10---10---10----|
g|-------------------------------------|
D|-------------------------------------|ect...
A|-------------------------------------|
E|-------------------------------------|


guitar 1 chords


e|---------------------|
b|---------------------|
g|---------------------|
D|-2--0--2--0--2--0----|
A|-2--0--2--0--2--0----|
E|---------------------|
ECT....

Play rhythm figure 3,
play rhythm Figure 1,
FADE

Dog Eat Dog Tab by Ac Dc, www.Ultimate-Guitar.Com

Dog Eat Dog (Young/Young/Scott) by AC/DC 'Let there be Rock' 
-----------                     

Tune down a halfstep (Eb)

   E5  A5  D5    Fig.1           E5   A5    D5          D5 A5
e ------------|------------|  e ---------------|--------------|
b ---------3--|------------|  b ------------3--|--------3-----|
g -----2---2--|------------|  g ------2-----2--|--------2--2--| Patt. 2
D -2---2---0--|------------|  D -2----2-----0--|--------0--2--|
A -2---0------|------------|  A -2----0-0-0----|-----------0--|
E -0----------|------------|  E -0--0----------|0-0-0-0-------| 

    A5       D5       G5                        D5
e --------------------3------------------------------------|
b -----------3--------3---------------------3---3----------|
g --2--------2--------0---------------------0---2----------| Patt. 3
D --2--------0--------0-----------------0---0---0----------|
A --0--0--0-----0--0---------------------------------------|
E --------------------3-----3---3---3---3---3--------------|


 with Patt. 2 (3 x)           E5   A5    D5     A5  E5 A5 D5
1. Well it`s a dog eat dog,            eat cat too.
         A5  E5  A5  D5   A5  E5   A5  D5     A5
So fish eat frog,       I eat    you.
 w/Patt. 3
Business Man, when you make a deal, Do you know you can trust?
 w/Patt. 2
Do sign your life away, Do you write your name in dust?  Hey,Hey,Hey!

   B5            Ev`ry dog has his day  A5
e --------------|----------------------|-------------|
b --------------|----------------------|-------------|
g -4--4-4--4-4--|----------------------|-2--2-2--2-2-|
D -4--4-4--4-4--|----------------------|-2--2-2--2-2-|
A -2--2-2--2-2--|----------------------|-0--0-0--0-0-|
E --------------|----------------------|-------------|
Fig.1           E5 A5 D5          E5 A5 D5
It`s a dog eat dog       Dog eat dog

Guitar Solo
     A5
e ---------------------------------------------------------|
b ----17----17\----17----17----17\----17----17----17----17-|
g /18----18----/18----18----18----/18----18----18----18----|
D ---------------------------------------------------------|
A ---------------------------------------------------------|
E ---------------------------------------------------------|
    D5               A5
e ---------------------------------------------------------|
b -------19----19----17----17----17----17-------17----17---|
g -18/19----19----19----18----18----18----18/18----18----18|
D ---------------------------------------------------------|
A ---------------------------------------------------------|
E ---------------------------------------------------------|
                                              D5
e ---------------------------------------------------------|
b -----17----------17----17----17----17----17----19--------|
g \/18----18-18-18---/18----18----18----18---/19----19-19--|
D ---------------------------------------------------------|
A ---------------------------------------------------------|
E ---------------------------------------------------------|
   A5                  E5
e ---------------------------------------------------------|
b ----17----17---------------------------------------------|
g -18----18----18\--------12----12--------12----12-12\-----|
D ----------------\-14-13----13----13\/13----13--------13--|
A ---------------------------------------------------------|
E ---------------------------------------------------------|
                  A5         E5                E5
e -----------------------------------12--------------------|
b 12-------12--------14--------12-----------12--------12---|
g ---13-13----13-/14----14--13----13-----13----13\/13----13|
D ---------------------------------------------------------|
A ---------------------------------------------------------|
E ---------------------------------------------------------|
           A5                                  A5     E5
e ---------------------------------------------------------|
b ---------12-12--12------12----12----12----12----14----14-|
g \-13\-13----13--13--/13----13----13----13----14----14----|
D ---------------------------------------------------------|
A ---------------------------------------------------------|
E ---------------------------------------------------------|
                        A5
e ---------------------------------------------------------|
b ---12----12----12-------17----17-17\--------17----17-----|
g 13----13----13----13-18----18----18\-----18----18----18\-|
D ---------------------19----19----19\-/19-----------------|
A ------------------------------------/--------------------|
E ---------------------------------------------------------|
                             D5           A5
e ---------------------------------------------------------|
b ------17----17----17----17----19----19----17----17----17-|
g 17/18----18----18----18----18----19----18----18----18----|
D ---------------19----19----19----------19----------------|
A ---------------------------------------------------------|
E ---------------------------------------------------------|

e ---------------------------------------------------------|
b ---------17----17----------17----17----17----17----17----|
g 18-17-18----18----18\17-18----18----18----18----18----18-|
D ---------------------------------------------------------|
A ---------------------------------------------------------|
E ---------------------------------------------------------|
         D5          A5             E5 A5 D5  E5 A5 D5 (with Patt.1)
e ---------------------------------|---------|--------------|
b 17----17----19-------17----17----|---------|--------------|
g ---18----19----19-18----18-------|---------|--------------|
D ------------------------------19\|-------b-|-------b~~~~~~~~~~~
A ---------------------------------|------3-5|------3-5-----|
E ---------------------------------|---------|--------------|

Let There Be Rock Tab by Ac Dc, www.Ultimate-Guitar.Com

One of the best songs of AC/DC!!!


(Intro) Riff 1
e |-------------------------------------------------------------------|
B |-------------------------------------------------------------------|
G |----------------------------------------------2--------------------|
D |-0--2-2-------------0--2-2--------------0-2-2-2-2-2-0-2-2----------|  3X
A |-0--2-2-------------0--2-2--------------0-2-2-0-2-2-0-2-2----------|
E |-3--0-0--0-0-0-0-0--3--0-0-0-0-0-0-0----3-0-0---0-0-3-0-0-0-0-0-0-0|
	    . . . . .         . . . . .                      . . . . .

(Verse)
In the beginning...
...

... LET THERE BE ROCK!!!!
RIFF 2
e |------------------------------------------------------------|
B |------------------------------------------------------------|
G |-2-2--x---x-2-2--x---x-2-2--x---x-2-2--x---x-2-2--x---x-2-2-|
D |-2-2--x---x-2-2--x---x-2-2--x---x-2-2--x---x-2-2--x---x-2-2-|
A |-0-0--x---x-0-0--x---x-0-0--x---x-0-0--x---x-0-0--x---x-0-0-|
E |------------------------------------------------------------|

e |------------------------------------|
B |------------------------------------|
G |-x---x-2-2--x---x-2-2--x---x-2-2--x-|
D |-x---x-2-2--x---x-2-2--x---x-2-2--x-|
A |-x---x-0-0--x---x-0-0--x---x-0-0--x-|
E |------------------------------------|

Solo 1 (Guitar 2 Plays Riff 2)
									   
e |-------------------------------------------------------------|
B |-------------------------------------------------------------|
G |-------------------------------------5--7-7(9)-7-5--7-5~~~~~-| 
D |---7---7---7-\-------7---7---7\----7-------------------------|
A |-------------------------------------------------------------|
E |-------------------------------------------------------------|

e |-------------------------------------------------------------|
B |-------------------------------------------------------------|
G |---5-7-7(9)-7-5-7---5-7-7(9)-7---5-5-----5---5-5---5-5---5-5-|
D |-7----------------7------------7-----7-7---7-----7-----7-----|
A |-------------------------------------------------------------|
E |-------------------------------------------------------------|


e |------------------------------------------------------------|
B |------------------------------------------------------------|
G |---5-5---5-5---5---5-5---5-5---5-5---5-5---5-5---5-5---5-5--|
D |-7-----7-----7---7-----7-----7-----7-----7-----7-----7------|
A |------------------------------------------------------------|
E |------------------------------------------------------------|


e |------------------------------------------------------------|
B |------------------------------------------------------------|
G |---5-5---5-5---7---7-7---7-7---7-7---7-7---7---7-7---7-7----|
D |-7-----7-----7---9-----9-----9-----9-----9---9-----9--------|
A |------------------------------------------------------------|
E |------------------------------------------------------------|

e |--------------------------17--------------------------------|
B |-------------------20(22)----20-17--------------------------|
G |---7-7---7-7---7-------------------17-17----19-17-----------|
D |-9-----9-----9---------------------------19-------19--------|
A |------------------------------------------------------------|
E |------------------------------------------------------------|

										
e |-5-------5-5-------5-5-------5-5-------5-5-------5-------5~~|
B |---8(10)-----8(10)-----8(10)-----8(10)-----8(10)---8(10)----|
G |------------------------------------------------------------|
D |------------------------------------------------------------|
A |------------------------------------------------------------|
E |------------------------------------------------------------|

e |-12h14p12h14p12h15~~~~~~------------------------------------|
B |------------------------------------------------------------|
G |------------------------------------------------------------|
D |------------------------------------------------------------|
A |------------------------------------------------------------|
E |------------------------------------------------------------|

----- End Solo 1

Riff 1
e |-------------------------------------------------------------------|
B |-------------------------------------------------------------------|
G |----------------------------------------------2--------------------|
D |-0--2-2-------------0--2-2--------------0-2-2-2-2-2-0-2-2----------|  3X
A |-0--2-2-------------0--2-2--------------0-2-2-0-2-2-0-2-2----------|
E |-3--0-0--0-0-0-0-0--3--0-0-0-0-0-0-0----3-0-0---0-0-3-0-0-0-0-0-0-0|
	    . . . . .         . . . . .                      . . . . .


And it came to pass....
...

LET THERE BE ROCK!!!!

RIFF 2
e |------------------------------------------------------------|
B |------------------------------------------------------------|
G |-2-2--x---x-2-2--x---x-2-2--x---x-2-2--x---x-2-2--x---x-2-2-|
D |-2-2--x---x-2-2--x---x-2-2--x---x-2-2--x---x-2-2--x---x-2-2-|
A |-0-0--x---x-0-0--x---x-0-0--x---x-0-0--x---x-0-0--x---x-0-0-|
E |------------------------------------------------------------|

e |------------------------------------|
B |------------------------------------|
G |-x---x-2-2--x---x-2-2--x---x-2-2--x-|
D |-x---x-2-2--x---x-2-2--x---x-2-2--x-|
A |-x---x-0-0--x---x-0-0--x---x-0-0--x-|
E |------------------------------------|


Solo 2 (Guitar plays Riff 2)
e |------------------------------------------------------------|
B |------------------------------------------------------------|
G |------------------------------------------------------------|
D |--14\-------------------------------------------------------|
A |----------0-0-3-4-0-0-3-4-0-0-3-4-0-0-3-4-0-0-3-4-0-0-3-4---|
E |------------------------------------------------------------|

e |-----------------|------------------------------------------|
B |-----------------|------------------------------------------|
G |-----------------|------------------------------------------|
D |-----------------|--------2-2-4-4-5-5-4-4-2-2---------------|
A |-0-0-3-4-0-0-3-4-|0-0-4-4---------------------4-4-0-0-4-4---|
E |-----------------|------------------------------------------|

e |------------------------------------------------------------|
B |------------------------------------------------------------|
G |------------------------------------------------------------|
D |2-2-4-4-5-5-4-4-2-2-------------4-4-6-6-7-7-6-6-4-4---------|
A |--------------------4-4-2-2-6-6---------------------6-6-2-2-|
E |------------------------------------------------------------|

e |--------------------------------9-9--8-------8-------8------|
B |-------------------------------10------10------10------10---|
G |--------------------------------9---------11------11------11|
D |----4-4-6-6-7-7-6-6-4-4-------------------------------------|
A |6-6---------------------6-6---------------------------------|
E |------------------------------------------------------------|

e |-8-------8-------8-------8-------8-------8-------8-----8----|
B |---10------10------10------10------10------10----------10---|
G |------11------11------11------11------11------11---11-------|
D |------------------------------------------------------------|
A |------------------------------------------------------------|
E |------------------------------------------------------------|

e |-12h14p12h14p12h15~~~~~~------------------------------------|
B |------------------------------------------------------------|
G |------------------------------------------------------------|
D |------------------------------------------------------------|
A |------------------------------------------------------------|
E |------------------------------------------------------------|

---- End Solo 2

Riff 1
e |-------------------------------------------------------------------|
B |-------------------------------------------------------------------|
G |----------------------------------------------2--------------------|
D |-0--2-2-------------0--2-2--------------0-2-2-2-2-2-0-2-2----------|  3X
A |-0--2-2-------------0--2-2--------------0-2-2-0-2-2-0-2-2----------|
E |-3--0-0--0-0-0-0-0--3--0-0-0-0-0-0-0----3-0-0---0-0-3-0-0-0-0-0-0-0|
	    . . . . .         . . . . .                      . . . . .

One night in the club called the Shakin' hand...

Riff 3
e |----------------------|
B |----------------------|
G |---------2------------| 
D |-2-0-2-2-2-2-2-0-2/---| 4x
A |-2-0-2-2-0-2-2-0-2/---|
E |-0-3-0-0---0-0-3-0/---|


RIFF 2
e |------------------------------------------------------------|
B |------------------------------------------------------------|
G |-2-2--x---x-2-2--x---x-2-2--x---x-2-2--x---x-2-2--x---x-2-2-|
D |-2-2--x---x-2-2--x---x-2-2--x---x-2-2--x---x-2-2--x---x-2-2-|
A |-0-0--x---x-0-0--x---x-0-0--x---x-0-0--x---x-0-0--x---x-0-0-|
E |------------------------------------------------------------|

e |------------------------------------|
B |------------------------------------|
G |-x---x-2-2--x---x-2-2--x---x-2-2--x-|
D |-x---x-2-2--x---x-2-2--x---x-2-2--x-|
A |-x---x-0-0--x---x-0-0--x---x-0-0--x-|
E |------------------------------------|

angus lick
e-------------------------------------|  |------------------|
b-7-4-0-7-4-0-8-5-0-8-5-0-9-6-0-9-6-0-|or|-5-3-0-5-3-0-5-3-0|usually getting
g-------------------------------------|  |------------------|faster and 
d-------------------------------------|  |------------------|faster,
a-------------------------------------|  |------------------|sometimes no 
E-------------------------------------|  |------------------|picking

i do know it starts out like this though
e-------------------------|
b-------------------------|
g-7(9)-7(9)-7(9)-7(9)-5---|
d-----------------------7-|
a-------------------------|
E-------------------------|
well thats it plese vote on this one it would be much appreciated and yeah its  great song good luck.

Bad Boy Boogie Tab by Ac Dc, www.Ultimate-Guitar.Com

AC/DC-Bad Boy Boogie Tab
Album- Let There Be Rock


Guitar 1- Angus (lead)
Guitar 2- Malcolm (Rhythm)

Tuning:  Album- 1/2 step down (Eb,Ab,Db,Gb,Bb,eb)
         Live- standard (E,A,D,G,B,e)


I watched Angus and Malcolm play this song, and i'm trying to tab this the way they play 
 There might be a couple mistakes

Intro:
|----------------|
|----------------|
|----------------|
|----7-7-7-7-----| Guitar 1
|----7-7-7-7-----|
|----5-5-5-5-----|

|------------|-----------|-----------|
|------------|-----------|-----------|
|------------|----7--5---|---7--5----| Guitar 2
|----7-7-7-7-|--7-7--5-7-|-7-7--5-7--|
|----7-7-7-7-|--7-7--0-7-|-7-7--0-7--|
|----5-5-5-5-|--5--------|-5---------|
play this 4x


verse 1
|-------------|----------|----------|------------|    both
|-------------|----------|----------|------------|    guitars
|------7--5---|---7--5---|---7--5---|---7--5-----|
|-7--7-7--5-7-|-7-7--5-7-|-7-7--5-7-|-7-7--5-7---|
|-7--7-7--0-7-|-7-7--0-7-|-7-7--0-7-|-7-7--0-7---|
|-5--5--------|-5--------|-5--------|-5----------|


                                         1.On the
                                         2.Bein' a

------------|----------|----------|------------|
------------|----------|----------|------------|
-----7--5---|---7--5---|---7--5---|---7--5-----|
---7-7--5-7-|-7-7--5-7-|-7-7--5-7-|-7-7--5-7---|
---7-7--0-7-|-7-7--0-7-|-7-7--0-7-|-7-7--0-7---|
---5--------|-5--------|-5--------|-5----------|


  day__ I was born,__ the rain__ fell down______
  bad  boy   ain't that bad_____

|-------------------------------------|
|-------------------------------------|
|-------------------------------------|
|-7---7-----7-------7--7---7----7-----|
|-7---7-----7-------7--7---7----7-----|
|-5---5-----5-------5--5---5----5-----|


                        There was
                        I had

|--------------|-------------|
|--------------|-------------|
|-------7--5---|---7--5------|
|-7---7-7--5-7-|-7-7--5-7----|
|-7---7-7--0-7-|-7-7--0-7----|
|-5---5--------|-5-----------|


trouble   brew-in' in my home-town.
more dirty women then most men ever had.

|-------------------------------------|
|-------------------------------------|
|-------------------------------------|
|-7---7-----7-------7--7---7----7-----| Both guitars
|-7---7-----7-------7--7---7----7-----|
|-5---5-----5-------5--5---5----5-----|

                        It was the
                        And you

|--------------|-------------|
|--------------|-------------|
|-------7--5---|---7--5------|
|-7---7-7--5-7-|-7-7--5-7----|
|-7---7-7--0-7-|-7-7--0-7----|
|-5---5--------|-5-----------|

   sev-enth day,__   I was a sev-enth son_____
   women___ come along  with me______
|-------------------------------------|
|-------------------------------------|
|-7---7-----7-------7--7---7----7-----| Both guitars
|-7---7-----7-------7--7---7----7-----|
|-5---5-----5-------5--5---5----5-----|
|-------------------------------------|


                             And it
                             And I'll

|---------------|--------------|
|---------------|--------------|
|-7---7-12-10-7-|-7-12-10-7----|
|-7---7-12-10-7-|-7-12-10-7----|
|-5---5-10--8-5-|-5-10--8-5----|
|---------------|--------------|


  scared__ the hell__ out of ev-'ry one
  show you  how good a bad boy can be
|-------------------------------------|
|-------------------------------------| Guitar 1
|-9---9-----9-------9--9---9----9-----|
|-9---9-----9-------9--9---9----9-----|
|-7---7-----7-------7--7---7----7-----|
|-0---0-----0-------0--0---0----0-----|

|-------------------------------------|
|-------------------------------------|
|-------------------------------------| Guitar 2
|-2---2-----2-------2--2---2----2-----|
|-2---2-----2-------2--2---2----2-----|
|-0---0-----0-------0--0---0----0-----|

|---------------|-----------------------| Guitar 1
|---------------|-----------------------|
|-9---9-14-12-9-|-9-14-12-9-----------5-|
|-9---9-14-12-9-|-9-14-12-9-------------|
|-7---7-12-10-7-|-7-12-10-7-------------|
|-0-------------|-----------------------|

|-------------|-------------------------|Guitar 2
|-------------|-------------------------|
|-------2-----|---2-------------------5-|
|-2---2-2---2-|-2-2---2---------------5-|
|-2---2-0---2-|-2-0---2---------------3-|
|-0---0---3-0-|-0---3-0-----------------|


They said, "stop", I said, "go".
I said, "right", and they said, "left".

Chorus
|------------------|-----------------------|
|------------------|-----------------------| Guitar 1
|------------------|---------------------5-|
|--7---5--7------7-|--5--7----7------------|
|------------------|-----------------------|
|------------------|-----------------------|
repeat this twice

|-----------------|-----------------------|
|-----------------|-----------------------| Guitar 2
|--2------2-----2-|-----2----2----------5-|
|--2------2-----2-|-----2----2----------5-|
|--0------0-----0-|-----0----0----------3-|
|------3----------|--3--------------------|


They said, "fast", I said, "slow".
I said, "east", and they said, "west".

|------------------|-----------------------|
|------------------|-----------------------| Guitar 1
|------------------|---------------------5-|
|--7---5--7------7-|--5--7----7------------|
|------------------|-----------------------|
|------------------|-----------------------|

|-----------------|-----------------------|
|-----------------|-----------------------| Guitar 2
|--2------2-----2-|-----2----2----------5-|
|--2------2-----2-|-----2----2----------5-|
|--0------0-----0-|-----0----0----------3-|
|------3----------|--3--------------------|


They said "yes" I said "no".     I do the
I said "up" and they said "down" I do the

|------------------|-----------------------|
|------------------|-----------------------| Guitar 1
|------------------|---------------------5-|
|--7---5--7------7-|--5--7----7------------|
|------------------|-----------------------|
|------------------|-----------------------|

|-----------------|-----------------------|
|-----------------|-----------------------| Guitar 2
|--2------2-----2-|-----2----2----------5-|
|--2------2-----2-|-----2----2----------5-|
|--0------0-----0-|-----0----0----------3-|
|------3----------|--3--------------------|


bad boy boogie.
bad boy boogie.          All over town.

|----------------|-----------------------|
|----------------|-----------------------| Guitar 1
|----------------|-----------------------|
|--7---5--7----7-|--6--5-----------------|
|----------------|---------7--3--5--3--5-|
|----------------|-----------------------|

|----------------|-----------------------|
|----------------|-----------------------| Guitar 2
|--2------2------|-----------------------|
|--2------2----7-|--6--5-----------------|
|--0------0------|--------7--3--5--3--5--|
|------3---------|-----------------------|
now repeat the whole song starting from verse 1


Presolo
|-------------------------------------------|
|-------------------------------------------| Both guitars
|-------------------------------------------|
|-------------------------------------------|
|--5----3--5-----3--5-----3--5-----3--5---3-|  play 3x
|-------------------------------------------|

|---------------------------------------|
|---------------------------------------|
|---------------------------------------|
|---------------------------------------|
|-5-------------------------------------|
|---------------------------------------|

Solo   Malcolm hits the A chord over and over here
|---------------------------|--------------5-5-5------5-5-5------5-5-5--|
|--------------------------8|(10)-----8(10)------8(10)------8(10)-------|
|-5-------------------------|-------------------------------------------|
|---7-----------------------|-------------------------------------------|
|---------------------------|-------------------------------------------|
|---------------------------|-------------------------------------------|

|---------------5-5---5-5---|-5-5---5-5-5-5----5-5-5------5---5-5---5-5-|
|--8(10)---8(10)----8------8|------------------------8(10)--8-----8-----|
|---------------------------|-------------------------------------------|
|---------------------------|-------------------------------------------|
|---------------------------|-------------------------------------------|
|---------------------------|-------------------------------------------|

|------5--5-5------5-5-5-----5-5-|----5------5------5-----5------------------|
|8(10)--8-----8(10)-8----8(10)--8|(10)--8(10)--8(10)--8-5---5-8-5-----5------|
|--------------------------------|---------------------------------7---------|
|--------------------------------|-------------------------------------------|
|--------------------------------|-------------------------------------------|
|--------------------------------|-------------------------------------------|

Malcolm hits the D chord over and over here
|---------------------------|--------------------------------------|
|---------------------------|--------------------------------------|
|-7-5---7-------------------|-----5----5------------------(10)-----|
|-----7---5---7----5-7-5--2-|---------------7-----------7----------|
|-----------7---7-----------|--------------------------------------|
|---------------------------|--------------------------------------|

|-----------------------------------|--------------------------------------|
|-----------------------------------|--------------------------------------|
|(11)---------12--------------------|12(14)----12--10--(11)---13-10--12-10-|
|----12-10-12----12-10-12--12--12-10|------12------------------------------|
|-----------------------------------|--------------------------------------|
|-----------------------------------|--------------------------------------|

|-----------------------------------|-----------------------------10--9----|
|-----------------------------------|--------------------------------------|
|---12------------------------------|--------------------------------------|
|12----12-10-12--10(11)-------------|--------------------------------------|
|----------------------10-12-10--10-|--8-----------------------------------|
|-----------------------------------|-------10----10-----------------------|

                Now Malcolm hits the E chord over and over here
|-7-----7---------------------------|--------------------------------------|
|---10----10--8---10----------------|-------------------------10---8-9-----|
|---------------9----9-7---9--------|-------------9---7-9-7------9---------|
|------------------------9--9-7-5-7-|5-7-79-9-9-9---9-------9--------------|
|----------------------------------7|--------------------------------------|
|-----------------------------------|--------------------------------------|


|--------------10(12)----10---10(12)|-------------------------------------|
|-8---10---8------------------------|-------------------------------------|
|---9----9--------------------------|-------------------------------------|
|-----------------------------------|-----------------------------------7-|
|-----------------------------------|-------------------------------------|
|-----------------------------------|-------------------------------------|

|---------------------------|-------------------------------------|
|---------------------------|-------------------------------------|guitar 1
|---------------------------|-------------------------------------|
|-7---7---7---7---7---7---7-|-7---7---7---7---7---7---7---7-------|
|---------------------------|-------------------------------------|
|---------------------------|-------------------------------------|

|---------------------------|-------------------------------------|
|---------------------------|-------------------------------------|guitar 2
|-5--2--------5--2----------|-5-x-5-x-5--2------------------------|
|-5--2--------5--2----------|-5-x-5-x-5--2------------------------|
|-3--0--------3--0----------|-3-x-3-x-3--0------------------------|
|---------------------------|-------------------------------------|
repeat all of this as many times as needed

|----------------------------|--------------------------|
|----------------------------|--------------------------|
|----------------------------|--------------------------|
|-7--7--7--7--7--7--7--7-----|-7--7--7--7--7--7--7--7---| Guitar 1
|----------------------------|--------------------------|
|----------------------------|--------------------------|

|----------------------------|----------|----------------|
|----------------------------|----------|----------------|
|----------------------------|---7--5---|---7--5---------|
|--------------------------7-|-7-7--5-7-|-7-7--5-7-------| Guitar2
|--------------------------7-|-7-7--0-7-|-7-7--0-7-------|
|--------------------------5-|-5--------|-5--------------|


|----------------------------|----------------------------|
|----------------------------|----------------------------|
|----------------------------|--------------5-5-5-5-------|
|-7--7--7--7--7--7--7--7-----|-7------------5-5-5-5---7---| Guitar 1
|----------------------------|----------------------------|
|----------------------------|----------------------------|

|----------------------------|----------------------------|
|-------------------5-8--5---|--5-------------------8---5-|
|----7--(9)-----------------7|----7--5--------------------|
|----------------------------|---------7--7---------------|
|----------------------------|----------------------------|
|----------------------------|----------------------------|

|-------------------------------------------------------|
|8-5-5-8-5-5-8-5-5-8-5-5-11-8-8-11-8-8-11-8-8-12-9--9---|
|-------------------------------------------------------|
|-------------------------------------------------------|
|-------------------------------------------------------|
|-------------------------------------------------------|

                                                                 I wanna
|------------------------------------|------------------17--------|
|-18-10-10-13-10-10-13-10-10--14--11-|-20-(22)--20-(22)----20-(22)|
|------------------------------------|----------------------------|
|------------------------------------|----------------------------|
|------------------------------------|----------------------------|
|------------------------------------|----------------------------|

tell you no_____ story,   tell you no   lie_____          I was

|----------------|-------------|-------------|-------------|
|----------------|-------------|-------------|-------------| both guitars
|------7--5------|---7--5------|---7--5------|---7--5------|
|-7--7-7--5-7--7-|-7-7--5-7--7-|-7-7--5-7--7-|-7-7--5-7--7-|
|-7--7-7--0-7--7-|-7-7--0-7--7-|-7-7--0-7--7-|-7-7--0-7--7-|
|-5--5---------5-|-5---------5-|-5---------5-|-5---------5-|

born_  to love___ till the day I die_____                  I just

|----------------|-------------|-------------|-------------|
|----------------|-------------|-------------|-------------|
|------7--5------|---7--5------|---7--5------|---7--5----7-| both guitars
|-7--7-7--5-7--7-|-7-7--5-7--7-|-7-7--5-7--7-|-7-7--5-7--7-|
|-7--7-7--0-7--7-|-7-7--0-7--7-|-7-7--0-7--7-|-7-7--0-7--5-|
|-5--5---------5-|-5---------5-|-5---------5-|-5-----------|

line__ them up, and I knock them down__                     And they

|--------------|--------------|--------------|--------------|
|--------------|--------------|--------------|--------------|
|-7-12-10-7--7-|-7-12-10-7--7-|-7-12-10-7--7-|-7-12-10-7--9-| both guitars
|-7-12-10-7--7-|-7-12-10-7--7-|-7-10-10-7--7-|-7-12-10-7--9-|
|-5-10--8-5--5-|-5-10--8-5--5-|-5-10--8-5--5-|-5-10--8-5--7-|
|--------------|--------------|--------------|------------0-|

came a run-nin',when the word got around____
|--------------|--------------|--------------|--------------|
|--------------|--------------|--------------|--------------|
|-9-14-12-9--9-|-9-14-12-9--9-|-9-14-12-9--9-|-9-14-12-9--5-| guitar 1
|-9-14-12-9--9-|-9-14-12-9--9-|-9-14-12-9--9-|-9-14-12-9----|
|-7-12-10-7--7-|-7-12-10-7--7-|-7-12-10-7--7-|-7-12-10-7----|
|--------------|--------------|--------------|--------------|

|--------------|--------------|--------------|--------------|
|--------------|--------------|--------------|--------------|
|---2----------|---2----------|---2----------|---2--------5-| guitar 2
|-2-2---2---2--|-2-2---2---2--|-2-2---2---2--|-2-2---2----5-|
|-2-0---2---2--|-2-0---2---2--|-2-0---2---2--|-2-0---2----3-|
|-0---3-0---0--|-0---3-0---0--|-0---3-0---0--|-0---3-0------|


I said "up"   They____said "down"

|------------------|-----------------------|
|------------------|-----------------------| Guitar 1
|------------------|---------------------5-|
|--7---5--7------7-|--5--7----7------------|
|------------------|-----------------------|
|------------------|-----------------------|

|-----------------|-----------------------|
|-----------------|-----------------------| Guitar 2
|--2------2-----2-|-----2----2----------5-|
|--2------2-----2-|-----2----2----------5-|
|--0------0-----0-|-----0----0----------3-|
|------3----------|--3--------------------|

They said "straight"_  I___ said "round"_

|------------------|-----------------------|
|------------------|-----------------------| Guitar 1
|------------------|---------------------5-|
|--7---5--7------7-|--5--7----7------------|
|------------------|-----------------------|
|------------------|-----------------------|

|-----------------|-----------------------|
|-----------------|-----------------------| Guitar 2
|--2------2-----2-|-----2----2----------5-|
|--2------2-----2-|-----2----2----------5-|
|--0------0-----0-|-----0----0----------3-|
|------3----------|--3--------------------|


They said "lost"   I___ said "found"_

|------------------|-----------------------|
|------------------|-----------------------| Guitar 1
|------------------|---------------------5-|
|--7---5--7------7-|--5--7----7------------|
|------------------|-----------------------|
|------------------|-----------------------|

|-----------------|-----------------------|
|-----------------|-----------------------| Guitar 2
|--2------2-----2-|-----2----2----------5-|
|--2------2-----2-|-----2----2----------5-|
|--0------0-----0-|-----0----0----------3-|
|------3----------|--3--------------------|

I said "Freeze"   They_ said "drown"

|------------------|-----------------------|
|------------------|-----------------------| Guitar 1
|------------------|---------------------5-|
|--7---5--7------7-|--5--7----7------------|
|------------------|-----------------------|
|------------------|-----------------------|

|-----------------|-----------------------|
|-----------------|-----------------------| Guitar 2
|--2------2-----2-|-----2----2----------5-|
|--2------2-----2-|-----2----2----------5-|
|--0------0-----0-|-----0----0----------3-|
|------3----------|--3--------------------|

Bad_  boy   boo-gie                       Do the

|------------------|-----------------------|
|------------------|-----------------------| Guitar 1
|------------------|---------------------5-|
|--7---5--7------7-|--5--7----7------------|
|------------------|-----------------------|
|------------------|-----------------------|

|-----------------|-----------------------|
|-----------------|-----------------------| Guitar 2
|--2------2-----2-|-----2----2----------5-|
|--2------2-----2-|-----2----2----------5-|
|--0------0-----0-|-----0----0----------3-|
|------3----------|--3--------------------|

bad____  boy  boo-gie

|------------------|-----------------------|
|------------------|-----------------------| Guitar 1
|------------------|---------------------5-|
|--7---5--7------7-|--5--7----7------------|
|------------------|-----------------------|
|------------------|-----------------------|

|-----------------|-----------------------|
|-----------------|-----------------------| Guitar 2
|--2------2-----2-|-----2----2----------5-|
|--2------2-----2-|-----2----2----------5-|
|--0------0-----0-|-----0----0----------3-|
|------3----------|--3--------------------|

bad____  boy  boogie

|------------------|-----------------------|
|------------------|-----------------------| Guitar 1
|------------------|---------------------5-|
|--7---5--7------7-|--5--7----7------------|
|------------------|-----------------------|
|------------------|-----------------------|

|-----------------|-----------------------|
|-----------------|-----------------------| Guitar 2
|--2------2-----2-|-----2----2----------5-|
|--2------2-----2-|-----2----2----------5-|
|--0------0-----0-|-----0----0----------3-|
|------3----------|--3--------------------|

bad__ boy boo-gie

|------------------|
|------------------| Guitar 1
|------------------|
|--7---5--7------7-|
|------------------|
|------------------|

|-----------------|
|-----------------| Guitar 2
|--2------2-----2-|
|--2------2-----2-|
|--0------0-----0-|
|------3----------|

That's all, enjoy!

Overdose Tab by Ac Dc, www.Ultimate-Guitar.Com

AC/DC - OVERDOSE
(Young/Young/Scott)

Tabber: Mord_Wraith
E-mail: thundastruck@hotmail.com
Date: 9/1/2004

Tuning: tune down 1/2 step

Intro:

      B7                               B7        E
 
Eb|---------2----------------|   Eb|---------2---------0---|
Bb|-------0--------0---------|   Bb|-------0---------0-----|
Gb|-----2--------------------|   Gb|-----2---------1-------|
Db|-------------1------------|   Db|-----------------------|
Ab|---2---------2------------|   Ab|---2-------------------|
Eb|--------------------(1)---|   Eb|-------------0---------|

      B7        E

Eb|---------2---------0---0---|
Bb|-------0---------0-----0---|
Gb|-----2---------1-------1---|
Db|-----------------------2---|
Ab|---2-------------------2---|
Eb|-------------0---------0---|

Guitar I (Angus)

      B7        E

Eb|---------2---------0---|
Bb|-------0---------0-----|
Gb|-----2---------1-------| play 4 times
Db|-----------------------|
Ab|---2-------------------|
Eb|-------------0---------|

Guitar II (Malcolm)

      B5        E5

Eb|---------------------------|
Bb|---------------------------|
Gb|---4-----------------------| play 4 times
Db|---4---------2-------------|
Ab|---2---------2-------------|
Eb|-------------0-------------|

Rhythm:

Guitars I and II

      B5  D5  E

Eb|---------------|
Bb|-------3-------|
Gb|---4---2---1---|
Db|---4---0---2---|
Ab|---2-------2---|
Eb|-----------0---|

Pre-solo:

Guitars I and II

      B5                    E   D

Eb|---------------|   Eb|-------2---|
Bb|---------------|   Bb|-------3---|
Gb|---4---4-4-4---|   Gb|---1---2--o| play 3 times
Db|---4---4-4-4---|   Db|---2---0--o|
Ab|---2---2-2-2---|   Ab|---2-------|
Eb|---------------|   Eb|---0-------|

      E     D

Eb|---------2---2---2---|
Bb|---------3---3---3---|
Gb|---1-----2---2---2---|
Db|---2-----0---0---0---|
Ab|---2-----------------|
Eb|---0-----------------|

---

At the end of the song, Angus goes crazy using the B7 and the E chords from the intro
while Malcolm plays B5 and E5.  Just Overdose Tab by Ac Dc, www.Ultimate-Guitar.Com

Standard Tuning

e -------------------------------------------------------------------|
b -------------------------------------------------------------------|
g -------------------------------------------------------------------|
D --7-9---------7---------7-9-7---6-7-6-4-6-4--2-------2-4-4-2-4-4---|
A -------------------------------------------------------------------|
E -------------------------------------------------------------------|

e--------------------------------------------2---------------------------------|
b----------------------------2--3--5--3---5------3---5----(6)-----5----5----7--|
g----------1----2-----1--2-4---------------------------------------------------|
D--4---2-4---------------------------------------------------------------------|
A------------------------------------------------------------------------------|
E------------------------------------------------------------------------------|

e -------------------------------------------------------------------|
b -------------------------------------------------------------------|
g -------------------------------------------------------------------|
D --7-9------------------7-7--7-9-----------7-9------7-7--9----7-7-9-|
A -------------------------------------------------------------------|
E -------------------------------------------------------------------|

e -------------------------------------------------------------------|
b -------------------------------------------------------------------|
g ----------------------------7-(8)---------7---------7--------------|
D --7-7-9--------7-7-9--------------9-7-9------9-7-9----9-9-7-9------|
A -------------------------------------------------------------------|
E -------------------------------------------------------------------|

e -------------------------------------------------------7------------|
b -------------------------------7-6-----------------------10--7----7-|
g 9---11---9--9-7--------9--11-------9-7-9-7---9------------------9---|
D ---------------9---------------------------9---9--------------------|
A --------------------------------------------------------------------|
E --------------------------------------------------------------------|

e --------------7------------------------------7----------------------|
b ------------7---7--10-(12)--10-(12)--10-(11)---(11)-10-7---10--(12--|
g -7--9--(11)----------------------------------------------9----------|
D --------------------------------------------------------------------|
A --------------------------------------------------------------------|
E --------------------------------------------------------------------|

e -7----------------7----------------7------------7-------------7-----|
b ---10-7-10---(12)---10-7-10---(12)---10-7--10-12--10-7--10-12--10-7-|
g --------------------------------------------------------------------|
D --------------------------------------------------------------------|
A --------------------------------------------------------------------|
E --------------------------------------------------------------------|

e------7-----------7-----------7-----------7-----------7-----------7------|
b-10-12--10-7-10-12--10-7-10-12--10-7-10-12--10-7-10-12--10-7-10-12--10-7-|
g ------------------------------------------------------------------------|
D ------------------------------------------------------------------------|
A ------------------------------------------------------------------------|
E ------------------------------------------------------------------------|

e------7--------------------------------------------------22b24b25---|
b-10b12--10-7-10--b---12----22b(24)---22b(24)------\-----------------|
g -------------------------------------------------------------------|
D -------------------------------------------------------------------|
A -------------------------------------------------------------------|
E -------------------------------------------------------------------|

e -22b24--22-19------------------------------------------------------|
b --------------22-19-22----19---------------------------------------|
g -----------------------21----21-22-19----21----19----20------------|
D --------------------------------------21----21-----------21---21~~-|
A -------------------------------------------------------------------|
E -------------------------------------------------------------------|

e ----------------------------19-------------------------------------|
b -----------------22--b--24------22-19-22-19-19-19------------------|
g ------x--x---x------------------------------------22-21-19-21b23---|
D -\-----------------------------------------------------------------|
A -------------------------------------------------------------------|
E -------------------------------------------------------------------|

e -------------------------22-b-25--22b24--22--21-19------------------|
b -19-22-19----19-----------------------------------22-21-19----19----|
g ----------22----22-21-19-----------------------------------21----22-|
D --------------------------------------------------------------------|
A --------------------------------------------------------------------|
E --------------------------------------------------------------------|

e ---------------------------------------------------------------------|
b ---------------------------------------------------------------------|
g 21-19----------------------------x-16-16-16\----16----\--/15-15---16-|
D ------2119-----------------------------------------------------------|
A ----------21\-19-17-19-17~~~~~~--------------------------------------|
E ---------------------------------------------------------------------|

e -------------------------------------------------------7----7-10-7-|
b ------------------------19b22--19--19-17-----------------10--------|
g -16---16--16-16-\--x--x-----------------19-19-18-16-\--------------|
D -------------------------------------------------------------------|
A -------------------------------------------------------------------|
E -------------------------------------------------------------------|

e -----7---------------------------------5-/7-10-7----9--------7-\---|
b 10-7---7-------------------3-5-3-7-5-7-----------7----7-9-10-------|
g ---------9-7---9-7-------4-----------------------------------------|
D -------------9-----------------------------------------------------|
A -------------------------------------------------------------------|
E -------------------------------------------------------------------|

e -----x----22-19----22-19----22-19----22-19----------19----------19-|
b -x-x---19-------19-------19-------19-------19-22-19----19-22-19----|
g -------------------------------------------------------------------|
D -------------------------------------------------------------------|
A -------------------------------------------------------------------|
E -------------------------------------------------------------------|

e ---22-19----------19----19----------------|
b 19-------19-19-22----19----22b24----------|
g ------------------------------------------|
D ------------------------------------------|
A ------------------------------------------|
E ------------------------------------------|

Notation used:
b-bend
x-muted note
/-slide
~-vibrato
(8)-ghost note

Hell Aint A Bad Place To Be Tab by Ac Dc, www.Ultimate-Guitar.Com

Hell Ain't A Bad Place To Be by AC/DC

Tabbed by dr.krakpot

        G5  D/F#  G5  D/F#  G5  D/F# A
    e|--3----2----3--|-2----3----2--|--------------|--------------|
    b|--3----3----3--|-3----3----3--|2-------------|--------------|
    g|--0----2----0--|-2----0----2--|2-------------|--------------|
    D|--0----0----0--|-0----0----0--|2-------------|--------------| 4 Times!
    A|---------------|--------------|0-------------|--------------|
    E|--3----2----3--|-2----3----2--|--------------|--------------|

                                    Pattern 1                    |\    2 x !    /|
    e|--------------|--------------|--------------|--------------||-------------||
    b|--------------|--------------|--------------|--------------||---2-2-2-----||
    g|--------------|--------------|--------------|--------------||---2-2-2-----||
    D|--------------|--------------|-5----4----5--|--4----5----4-||-5-2-2-2-----||
    A|--------------|--------------|-0----0----0--|--0----0----0-||-0-0-0-0-----||
    E|--------------|--------------|--------------|--------------||-------------||

    Pattern 2
    young,                    Knows
       D/A                    Dsus4/A              D/A            Dsus4/A       D/A
    e|--------------|--------------|--------------|--------------|----------------|
    b|-2------------|------------3-|--------------|-3------------|-3--3--3--3----3|
    g|-3------------|------------2-|--------------|-2------------|-2--2--2--2----2|
    D|-4------------|------------5-|--------------|-4------------|-5--5--5--5----4|
    A|-0------------|------------0-|--------------|-0------------|-0--0--0--0----0|
    E|--------------|--------------|--------------|--------------|----------------|
       E        E  A                 E          G5                  end Pattern 1
    e|--------------|--------------|------------3-|--------------|----------------|
    b|-0--------0--2|--------------|-0----------3-|--------------|----------------|
    g|-1--------1--2|--------------|-1----------0-|--------------|----------------|
    D|-2--------2--2|--------------|-2----------0-|--------------|----------------|
    A|-2--------2--0|--------------|-2------------|--------------|----------------|
    E|-0--------0---|--------------|-0----------3-|--------------|----------------|

    Pattern 3

    e|----------------------------------------------------------------------------|
    b|-------------------------------------------------------2--2--2--------------|
    g|-------------------------------------------------------2--2--2--------------|
    D|-5--------4--------5--------4--------5--------4-----5--2--2--2--------------|
    A|-0--0--0--0--0--0--0--0--0--0--0--0--0--0--0--0--0--0--0--0--0--0--0--0--0--|
    E|----------------------------------------------------------------------------|
                         end Pattern 3
    e|--------------------------|
    b|----2--2--2---------------|
    g|----2--2--2---------------|
    D|-5--2--2--2---------------|
    A|-0--0--0--0--0--0--0--0---|
    E|--------------------------|
    Solo:w/Pattern 3

           ~~~~~~~~~~~~~~~~~~~~~~~~~~~~~~~~~~~~                                  ~~
    e|----------------------------------------------------------------------------|
    b|-----------------------------------------------------------------5----------|
    g|-----2--2--2--2--2--2--2--2--2--2--2--2--2-----------------------5----------|
    D|----------------------------------------------x-----7--7--7--7---5-----7---7|
    A|----------------------------------------------x\\---0--0--0--0--------------|
    E|----------------------------------------------x\\\--------------------------|
                      b       b           b                               ~~~~~~~~~
    e|-------------------------------------------5--------------------------------|
    b|---------------------------------------------8--5---5-----------------------|
    g|---------------7-9-7---7-9-7-------7-9--7---------7---5---7--5--------------|
    D|---------0-5-7-------------------7----------------------7-------7---\-------|
    A|---0-5-7-------------------------------------------------------------\------|
    E|----------------------------------------------------------------------------|
       b hb                      ~~~~~~
    e|----------------------------------------------------------------------------|
    b|8-10--10--10--10--10--10--10-----------------10--10------10--10------10--10-|
    g|-----------------------------------2--2---0---------7-11--------9-11--------|
    D|-----------------------------------2--2---0---------------------------------|
    A|----------------------------------------------------------------------------|
    E|----------------------------------------------------------------------------|
         b         b         b             ~~~~~~~        b         b hb         r
    e|----------------------------------------------------------------------------|
    b|-12-14-----12-14-----13-15------13--10------------15-17-----15-17----17---17|
    g|---------------------------------------------\------------------------------|
    D|----------------------------------------------------------------------------|
    A|----------------------------------------------------------------------------|
    E|----------------------------------------------------------------------------|
                 hb                        b                                b
    e|-------------------15--------15---------------------------------------------|
    b|-15-13----15-17--------15-17-------15-17-----17--17--17--17---------15-17---|
    g|----------------------------------------------------------------------------|
    D|----------------------------------------------------------------------------|
    A|----------------------------------------------------------------------------|
    E|----------------------------------------------------------------------------|
             b           b          b                      b         b     hb
    e|-15--------------15-17------15-17---17----\--------15-17-----15-17----17----|
    b|-----15-17---------------------------------\--------------------------------|
    g|----------------------------------------------------------------------------|
    D|----------------------------------------------------------------------------|
    A|----------------------------------------------------------------------------|
    E|----------------------------------------------------------------------------|

    End with:

    e|--------------------|
    b|-2--2--2--2---------|
    g|-2--2--2--2---------| 4 Times !
    D|-2--2--2--2---------|
    A|-0--0--0--0---------|
    E|--------------------|

Rock on!

-krak

Whole Lotta Rosie Tab by Ac Dc, www.Ultimate-Guitar.Com

Ac Dc
Whole Lotta Rosie
Intro, 1st Verse, and Chorus
Standard Tuning
Tabbed by Big Al

EXACTLY RIGHT!!!
(Sounds good w/ distortion)

Intro

E--------------------------------------------------------------------
B--------------------------------------------------------------------
G-------------2------------------------------------------------------
D-------------2--(Play 11 times) -------------------------------------
A-0-3-0-5-0-3-0------------------------------------------------------
E--------------------------------------------------------------------

First Verse (Do same thing after chorus)

E--------------------------------------------3-3-3-------------------
B--------------------------------------------2-2-2-------------------
G---------------2-2-2------------------------3-3-3-------------------
D---------------2-2-2-(Play 11 Times)--------0-0-0-------------------
A-0-3-0-5-0-3-0-0-0-0------------------3-3-3-------------------------
E--------------------------------------1-1-1-------------------------

Chorus

E----3-----3-----3--3-3-3-3-3-----------------------------------------
B-2--0--2--0--2--0--0-2-0-2-0-----------------------------------------
G-2--0--2--0--2--0--0-3-0-3-0-----2-----------------------------------
D-2--0--2--0--2--0--0-0-0-0-0-----2-----------------------------------
A-0--2--0--2--0--2--2-0-2-0-2-----0-----------------------------------
E----3-----3-----3--3-3-3-3-3--4--------------------------------------
Whole Lotta Rosie Tab by Ac Dc, www.Ultimate-Guitar.Com

Whole Lotta Rosie Live by Ac/Dc       Album:
Solo                                  Ac/Dc Live Collector's
tab by Voytazz                         Edition


That is the solo played by Angus on live show. It is similar to solo
from the Let There Be Rock Album.  On your web site in ver3 of Whole Lotta
Rosie is the solo from If You Want Blood album ,which is completely
different. Here you find a REAL SOLO! So Let's ROCK!

|---------------------------------------------------------------------|
|---------------------------------------------------------------------|
|--------------------5-7-5b7r5---5-----------------------------5~-----|
|--7-7-7-7~--------7-----------7---7-7-7~-----------------------------|
|---------------------------------------------------------------------|
|---------------------------------------------------------------------|

|--------<---|---------------------5h7p5-----------------------------|
|--6h7h8-<---|--6b8----------------------8-7-5--5--------------------|
|--------
                                        
8 comments total. Showing first comments.
0 reply
big_d wrote on February 6 2007, 11:42 am

ok,this is all sweet good job.but one thing disapoint me,on whole lotta rosie why did you use picking in this area:
-------------------------------------
-------------------------------------
--2-----------2----------------------
--2-5-0-7-0-5-2----------------------
--0-3-0-5-0-3-0----------------------
-------------------------------------

i mean its obviouse he strums it.but other than that preety good i give u a ****

0 reply
ibanez87 wrote on February 6 2007, 10:22 pm

it was better than the other one, I'll give it that.

0 reply
gdavid wrote on February 13 2008, 03:06 am

there are some missings but is is nicely done :) . good job

I want to post or [tab]
guest
You may want to rate the tab now too:
select rating
Please do not post tabs as comments. Select "correction" instead!