Oops, an error
Loading. Please wait.

Let There Be Rock Tab

ver5
ver5

Album

Whole song

Interactive

More versions @911Tabs.com
21,495 views 30 this week
31 commentsread comments
1 2 3 4 5
accurate
x 34
Autoscroll
+/-
esc
set tempo
stop
Contributor
Hey! There's an official Ultimate Guitar app which is ideal
for learning songs when you're away from computer. Get the app
WARNING: You are trying to view
                                    content from Ultimate-Guitar.com
                                    in an unauthorized application,
                                    which is prohibited.

                                    Please use an official Ultimate
                                    Guitar Tabs application for iPhone,
                                    iPad or Android to access legitimate
                                    chords, guitar, bass, and drum tabs
                                    from Ultimate-Guitar.com database.

                                    Type "ultimate guitar tabs" in Apple
                                    App Store's or Android Market's
                                    search to find the application.
                                LET THERE BE ROCK
                              As recorded by AC/DC
                     (From the 1977 Album LET THERE BE ROCK)

Gtr I (E A D G B E) - 'Angus Young'
Gtr II (E A D G B E) - 'Malcolm Young'
Gtr III (E A D G B E) - 'Angus Young (Lead Guitar)'

My second tab. Here it goes!


NOTES WITH ()'s AROUND THEM MEANS THEY ARE SUSTAINED FROM THE PREVIOUS MEASURE

 Intro
  Fast Rock Q=190

            G5        E           G5      E           G5
  Gtr I (Angus Young)
|-------------||--------------------|--------------------|
|-----------3-||o-(3)-------------3-|-(3)-------------3--|
|-----------0-||--(0)-------------0-|-(0)-------------0--|
|-----------0-||--(0)-2-(2)-------0-|-(0)-2-(2)-------0--|
|-------------||o-----2-(2)---------|-----2-(2-)---------|
|-----------3-||--(3)-0-(0)-------3-|-(3)-0-(0))------3--|
|
| Gtr II (Malcolm Young)
|-------------||--------------------|--------------------|
|-------------||o-------------------|--------------------|
|-----------0-||--(0)-------------0-|-(0)-------------0--|
|-----------0-||--(0)-------------0-|-(0)-------------0--|
|-------------||o-----2-2-2-2-2-2---|-----2-2-2-2-2-2----|
|-----------3-||--(3)-0-0-0-0-0-0-3-|-(3)-0-0-0-0-0-0-3--|

          
      E5 A5 E5 G5      E           G5 4x
|----------------|--------------------||
|-(3)----------3-|-(3)-------------3-o||
|-(0)----2-----0-|-(0)-------------0--||
|-(0)-2--2--2--0-|-(0)-2-(2)-------0--||
|-----2--0--2----|-----2-(2)---------o||
|-(3)-0-----0--3-|-(3)-0-(0)-------3--||

| +E  Q  Q  Q  E   +E  E E E E E E E  4x
|----------------|--------------------||
|----------------|-------------------o||
|-(0)----2-----0-|-(0)-------------0--||
|-(0)-2--2--2--0-|-(0)-------------0--||
|-----2--0--2----|-----2-2-2-2-2-2---o||
|-(3)-0-----0--3-|-(3)-0-0-0-0-0-0-3--|| repeat x4


Play this right before Bon comes in:
  +E  E Q  E E E E
|------------------|
|------------------|
|-(0)-1-1--1-1-1-1-|
|-(0)-2-2--2-2-2-2-|
|-----2-2--2-2-2-2-|
|-(3)-0-0--0-0-0-0-|

Verse:
"In the beginning
back in nineteen fifty five
man didn't know 'bout a rock 'n' roll show
and all that jive
the white man had the schmaltz
the black man had the blues
no one knew what they was gonna do
but Tschaikovsky had the news
he said let there be sound
there was sound
let there be light
there was light
let there be drums
there was drums
let there be guitar
there was guitar
let there be rock!"


               A5
|-------------|-----------------|-----------------|
|-------------|-----------------|-----------------|
|-----------2-|-(2)-2-x--x--x-2-|-(2)-2-x--x--x-2-|
|-----------2-|-(2)-2-x--x--x-2-|-(2)-2-x--x--x-2-|
|-----------0-|-(0)-0-x--x--x-0-|-(0)-0-x--x--x-0-|
|-------------|-----------------|-----------------|


  A5
|-----------------|------------------|-----------------|-----------------|
|-----------------|------------------|-----------------|-----------------|
|-(2)-2-x--x--x-2-|-(2)-2-x--x-x-x-2-|-(2)-2-x--x--x-2-|-(2)-2-x--x--x-2-|
|-(2)-2-x--x--x-2-|-(2)-2-x--x-x-x-2-|-(2)-2-x--x--x-2-|-(2)-2-x--x--x-2-|
|-(0)-0-x--x--x-0-|-(0)-0-x--x-x-x-0-|-(0)-0-x--x--x-0-|-(0)-0-x--x--x-0-|
|-----------------|------------------|-----------------|-----------------|


  A5
  Gtr III 
|---------|
|---------|
|---------|
|--x////--|
|--x////--|
|--x////--|(pick scrape)


   |---3----|            |---3----|
   Q    Q   Q Q   Q      Q    Q   Q Q   Q
|---------------------|---------------------|
|---------------------|---------------------|
|---------------------|---------------------|
|-------7---7-7\------|-------7---7-7\------|
|---------------------|---------------------|
|---------------------|---------------------|


  A5
   E  E E E E   +S  S E E   +Q.     +E   E E E E
|-------------------------|----------------------|
|-------------------------|----------------------|
|-------5h7-7b9r(7)-5-7-5-|-(5)-----(5)\-----5-7-|
|-----7-------------------|----------------7-----|
|-------------------------|----------------------|
|-------------------------|----------------------|


                                         ~
   E   +S  S E E E E E   +S  S    E  E E E +E  E E E
|------------------------------|----------------------|
|------------------------------|----------------------|
|--7b9r(7)p5-7---5-7-7b9r(7)p5-|--7----5-5-(5)-----5--|
|--------------7---------------|-----7---------7-7----|
|------------------------------|----------------------|
|------------------------------|----------------------|

  A5
  +E  E E E E E E E    E  E E E E E E E
|-------------------|-------------------|
|-------------------|-------------------|
|-(5)-5---5-5---5-5-|-----5-5---5-5---5-|
|-------7-----7-----|--7------7-----7---|
|-------------------|-------------------|
|-------------------|-------------------|


   E  E E E E E E E    E  E E E E E E E
|-------------------|-------------------|
|-------------------|-------------------|
|--5----5---5-5---5-|--5----5-5---5-5---|
|-----7---7-----7---|-----7-----7-----7-|
|-------------------|-------------------|
|-------------------|-------------------|



  A5                                  B5
   E  E E E E E E E    E  E E E E E E E
|-------------------|-------------------|
|-------------------|-------------------|
|--5--5---5-5---5-5-|-----5-5---5-5---7-|
|-------7-----7-----|--7------7-----7---|
|-------------------|-------------------|
|-------------------|-------------------|


   E  E E E E E E E    E  E E E E E E E    E  E E E E E E E
|-------------------|-------------------|-------------------|
|-------------------|-------------------|-------------------|
|--7----7-7---7-7---|--7--7---7-7---7---|--7--7---7-7---7-7-|
|-----9-----9-----9-|-------9-----9---9-|-------9-----9-----|
|-------------------|-------------------|-------------------|
|-------------------|-------------------|-------------------|
|
|(Rhythm Part)
|-------------------|-------------------|-------------------|
|-------------------|-------------------|-------------------|
|-(4)-4-x---x---x-4-|-(4)-4-x---x---x-4-|-(4)-4-x---x---x-4-|
|-(4)-4-x---x---x-4-|-(4)-4-x---x---x-4-|-(4)-4-x---x---x-4-|
|-(2)-2-x---x---x-2-|-(2)-2-x---x---x-2-|-(2)-2-x---x---x-2-|
|-------------------|-------------------|-------------------|


  B5             A5
  E E E E E. S E  E        +E    E  S  S  E  E  E  E  E
|-----------------------|-------17----------------------|
|----------------20b22==|=(20)r----20-17----------------|
|---7-7---7\-x----------|----------------17-17----19-17-|
|-9-----9------x--------|----------------------19-------|
|-----------------------|-------------------------------|
|-----------------------|-------------------------------|
|
| E E Q   Q    E  E         E    E  Q        Q     E  E
|-----------------------|-------------------------------|
|-----------------------|-------------------------------|
|-4-4-x---x----x--2-----|---2----2--x--------x-----x--2-|
|-4-4-x---x----x--2-----|---2----2--x--------x-----x--2-|
|-2-2-x---x----x--0-----|---0----0--x--------x-----x--0-|
|-----------------------|-------------------------------|


                ~~
   E   E  E     E  +Q   E E      E  E E E     E  E E    E
|-----------------------5------|-5--5-5-------5--5------5-|
|-------------------------8b10-|--------8b10-------8b10---|
|-----19-17b18-----------------|--------------------------|
|-19-----------19-(19)---------|--------------------------|
|------------------------------|--------------------------|
|------------------------------|--------------------------|
|
| +E   E  Q         Q   E E      Q.     E    +Q    Q
|------------------------------|--------------------------|
|------------------------------|--------------------------|
|-(2)--2--x---------x---x-2----|-2------------------------|
|-(2)--2--x---------x---x-2----|-2------6----(6)---5------|
|-(0)--0--x---------x---x-0----|-0------6----(6)---5------|
|------------------------------|--------4----(4)---3------|


                               Q=100
  A5
   E  E    E E E    E E E      W
|--5-------5-5------5-5------|-5--------|
|-----8b10-----8b10-----8b10-|----------|
|----------------------------|----------|
|----------------------------|----------|
|----------------------------|----------|
|----------------------------|----------|
|
| +E  Q.       Q      Q        W
|----------------------------|----------|
|----------------------------|----------|
|----------------------------|-2--------|
|-----4--------5------6------|-2--------|
|-----4--------5------6------|-0--------|
|-----2--------3------4-------|----------|


                           Pre-Verse
                      a tempo Q=190
                      G5        E           G5
   E   E Q    Q    E  E     +E  E Q   Q   E E
|-^9h=10----<12>--------||--------------------|
|-^8-----8------------3-||o-(3)-------------3-|
|-^9------------------0-||--(0)-1-1---1---1-0-|
|---------------------0-||--(0)-2-2---2---2-0-|
|-----------------------||o-----2-2---2---2---|
|---------------------3-||--(3)-0-0---0---0-3-|
|
| +H.             +E  E     +E  E E E E E E E
|-----------------------||--------------------|
|-----------------------||o-------------------|
|-----------------(2)-0-||--(0)-------------0-|
|-(5)-------------(2)-0-||--(0)-------------0-|
|-(5)-------------(0)---||o-----2-2-2-2-2-2---|
|-(3)-----------------3-||--(3)-0-0-0-0-0-0-3-|


                                                            Verse 2
                                      1.,2.,3.               4.
      E           G5      E5 A5 E5 G5      E           G5      E
  +E  E Q   Q   E E   +E  Q  Q  Q  E   +E  E Q   Q   E E  4x E E Q  E E E E
|-------------------|----------------|--------------------||----------0-0-0-|
|-(3)-------------3-|-(3)----------3-|-(3)-------------3-o||-3--------0-0-0-|
|-(0)-1-1---1---1-0-|-(0)----2-----0-|-(0)-1-1---1---1-0--||-0-1-1--1-1-1-1-|
|-(0)-2-2---2---2-0-|-(0)-2--2--2--0-|-(0)-2-2---2---2-0--||-0-2-2--2-2-2-2-|
|-----2-2---2---2---|-----2--0--2----|-----2-2---2---2---o||---2-2--2-2-2-2-|
|-(3)-0-0---0---0-3-|-(3)-0-----0--3-|-(3)-0-0---0---0-3--||-3-0-0--0-0-0-0-|
|
| +E  E E E E E E E   +E  Q  Q  Q  E   +E  E E E E E E E  4x E E Q  E E E E
|-------------------|----------------|--------------------||----------------|
|-------------------|--------2-------|-------------------o||----------------|
|-(0)-------------0-|-(0)----2-----0-|-(0)-------------0--||-0--------1-1-1-|
|-(0)-------------0-|-(0)-2--2--2--0-|-(0)-------------0--||-0-2-2--2-2-2-2-|
|-----2-2-2-2-2-2---|-----2--0--2----|-----2-2-2-2-2-2---o||---2-2--2-2-2-2-|
|-(3)-0-0-0-0-0-0-3-|-(3)-0-----0--3-|-(3)-0-0-0-0-0-0-3--||-3-0-0--0-0-0-0-|


  N.C.
  Gtrs I, II
  Wx31
|---------|
|---------|
|---------|
|---------|
|---------|
|---------|

"And it came to pass
that rock 'n' roll was born
all across the land every rockin' band
was blowin' up a storm
and the guitar man got famous
the business man got rich
and in every bar there was a superstar
with a seven year itch
there was fifteen million fingers
learnin' how to play
and you could hear the fingers pickin'
and this is what they had to say
let there be light!
sound!
drums!
guitar!
let there be rock!"

 Guitar Solo 2
  N.C.      A5
  H    Q  E E   +E  E Q  Q  E E   +E  E Q  E E E E
|-------------|-----------------|------------------|
|-------------|-----------------|------------------|
|-----------2-|-(2)-2-x--x--x-2-|-(2)-2-x--x-x-x-2-|
|-----------2-|-(2)-2-x--x--x-2-|-(2)-2-x--x-x-x-2-|
|-----------0-|-(0)-0-x--x--x-0-|-(0)-0-x--x-x-x-0-|
|-------------|-----------------|------------------|


  A5
  +E  E Q  Q  E E   +E  E Q  Q  E E   +E  E Q  Q  E E
|-----------------|-----------------|-----------------|
|-----------------|-----------------|-----------------|
|-(2)-2-x--x--x-2-|-(2)-2-x--x--x-2-|-(2)-2-x--x--x-2-|
|-(2)-2-x--x--x-2-|-(2)-2-x--x--x-2-|-(2)-2-x--x--x-2-|
|-(0)-0-x--x--x-0-|-(0)-0-x--x--x-0-|-(0)-0-x--x--x-0-|
|-----------------|-----------------|-----------------|


  A5
  Gtr I
  +E  E Q  E E E E   +E  E Q  Q  E E   +E  E  Q   +Q    E E
|------------------|-----------------|----------------------|
|------------------|-----------------|----------------------|
|-(2)-2-x--x-x-x-2-|-(2)-2-x--x--x-2-|-(2)-2----------------|
|-(2)-2-x--x-x-x-2-|-(2)-2-x--x--x-2-|-(2)-2-14--(14)\------|
|-(0)-0-x--x-x-x-0-|-(0)-0-x--x--x-0-|-(0)-0--------------0-|
|------------------|-----------------|----------------------|
|
| Gtr II
|  E  E Q  E E E E   +E  E Q  Q  E E   +E  E  Q    Q    E E
|------------------|-----------------|----------------------|
|------------------|-----------------|----------------------|
|--2--2-x--x-x-x-2-|-(2)-2-x--x--x-2-|-(2)-2--x----x----x-2-|
|--2--2-x--x-x-x-2-|-(2)-2-x--x--x-2-|-(2)-2--x----x----x-2-|
|--0--0-x--x-x-x-0-|-(0)-0-x--x--x-0-|-(0)-0--x----x----x-0-|
|------------------|-----------------|----------------------|


    A5
     |-3--| |3| |3| |-3-|    |-3--| |3| |3| |-3-|    |-3--| |3| |3| |-3-|
    +Q    E Q E Q E Q   E    Q    E Q E Q E Q   E    Q    E Q E Q E Q   E
||------------------------|-----------------------|-----------------------|
||o-----------------------|-----------------------|-----------------------|
||------------------------|-----------------------|-----------------------|
||------------------------|-----------------------|-----------------------|
||o-(0)---0-3-4-0-0-3---4-|--0----0-3-4-0-0-3---4-|--0----0-3-4-0-0-3---4-|
||------------------------|-----------------------|-----------------------|
|
|   +E  E   Q   Q   E E     +E  E   Q   Q   E E     +E  E   Q   Q   E E
||------------------------|-----------------------|-----------------------|
||o-----------------------|-----------------------|-----------------------|
||--(2)-2---x---x---x-2---|-(2)-2---x---x---x-2---|-(2)-2---x---x---x-2---|
||--(2)-2---x---x---x-2---|-(2)-2---x---x---x-2---|-(2)-2---x---x---x-2---|
||o-(0)-0---x---x---x-0---|-(0)-0---x---x---x-0---|-(0)-0---x---x---x-0---|
||------------------------|-----------------------|-----------------------|


  A5
   |-3--| |3| |3| |-3-|      |-3--| |3| |3| |-3-|    |-3--| |3| |3| |-3-|
   Q    E Q E Q E Q   E      Q    E Q E Q E Q   E    Q    E Q E Q E Q   E
|------------------------||-----------------------|------------------------|
|-----------------------o||-----------------------|------------------------|
|------------------------||-----------------------|------------------------|
|------------------------||-------------2-2-4---4-|--5----5-4-4-2-2--------|
|--0----0-3-4-0-0-3---4-o||--0----0-4-4-----------|-----------------4---4--|
|------------------------||-----------------------|------------------------|
|


  A5                                        B5
   |-3--| |3| |3| |-3-|    |-3--| |3| |3| |-3-|    |-3--|  |3| |3| |-3-|
   Q    E Q E Q E Q   E    Q    E Q E Q E Q   E    Q    E  Q E Q E Q   E
|-----------------------|-----------------------|-------------------------|
|-----------------------|-----------------------|-------------------------|
|-----------------------|-----------------------|-------------------------|
|-------------2-2-4---4-|--5----5-4-4-2-2-------|--------------4-4-6---6--|
|--0----0-4-4-----------|-----------------4---4-|--2----2-/6-6------------|
|-----------------------|-----------------------|-------------------------|

  B5                                                             A5
        |3| |3| |-3-|    |-3--|  |3| |3| |-3-|         |3| |3| |-3-|
   E  E Q E Q E Q   E    Q    E  Q E Q E Q   E    E  E Q E Q E Q   E
|---------------------|------------------------|---------------------|
|---------------------|------------------------|---------------------|
|--4--4---------------|------------------------|--4--4---------------|
|-------6-6-4-4-------|--------------4-4-6---6-|-------6-6-4-4-------|
|---------------6---6-|--2----2-/6-6-----------|---------------6---6-|
|---------------------|------------------------|---------------------|

  A5
    E  E E E  E  E E  E    E  E  E  E E  E  E E    E   E E  E  E  E  E  E
|-^-9----9-8-------8----|-----8-------8-------8-|--------8--------8-------|
|-^10--------10------10-|-------10------10------|-10-------10-------10----|
|-^-9-----------11------|-11-------11------11---|-----11------11-------11-|
|-----------------------|-----------------------|-------------------------|
|-----------------------|-----------------------|-------------------------|
|-----------------------|-----------------------|-------------------------|

                            Q=100
  A5                                                                 G5
   E   E   E E  E  E E  E   H.      +E   S  S    Q     Q    +Q.      E
|--8---------8-------8----|-8-------(8)-14p12-|-12---(12)--(12)--------|
|-----10-------10---------|-------------------|-14s===15---(15)------3-|
|---------11------11---11-|-------------------|----------------------0-|
|-------------------------|-------------------|----------------------0-|
|-------------------------|-------------------|------------------------|
|-------------------------|-------------------|----------------------3-|


   Pre-Verse
    a tempo Q=190
        E           G5      E           G5      E5 A5 E5 G5
    +E  E Q   Q   E E   +E  E Q   Q   E E   +E  Q  Q  Q  E
||--------------------|-------------------|----------------|
||o-(3)-------------3-|-(3)-------------3-|-(3)----------3-|
||--(0)-1-1---1---1-0-|-(0)-1-1---1---1-0-|-(0)----2-----0-|
||--(0)-2-2---2---2-0-|-(0)-2-2---2---2-0-|-(0)-2--2--2--0-|
||o-----2-2---2---2---|-----2-2---2---2---|-----2--0--2----|
||--(3)-0-0---0---0-3-|-(3)-0-0---0---0-3-|-(3)-0-----0--3-|
|
|   +E  E E E E E E E   +E  E E E E E E E   +E  Q  Q  Q  E
||--------------------|-------------------|----------------|
||o-------------------|-------------------|--------2-------|
||--(0)-------------0-|-(0)-------------0-|-(0)----2-----0-|
||--(0)-------------0-|-(0)-------------0-|-(0)-2--2--2--0-|
||o-----2-2-2-2-2-2---|-----2-2-2-2-2-2---|-----2--0--2----|
||--(3)-0-0-0-0-0-0-3-|-(3)-0-0-0-0-0-0-3-|-(3)-0-----0--3-|


                       Verse 3
  1.,2.,3.              4.
      E           G5        E                N.C.
  +E  E Q   Q   E E  4x +E  E Q  E E E E     W
|--------------------||------------0-0-0-||-------|
|-(3)-------------3-o||-(3)--------0-0-0-||o------|
|-(0)-1-1---1---1-0--||-(0)-1-1--1-1-1-1-||-------|
|-(0)-2-2---2---2-0--||-(0)-2-2--2-2-2-2-||-------|
|-----2-2---2---2---o||-----2-2--2-2-2-2-||o------|
|-(3)-0-0---0---0-3--||-(3)-0-0--0-0-0-0-||-------|
|
| +E  E E E E E E E  4x +E  E Q  E E E E     W
|--------------------||------------------||-------|
|-------------------o||------------------||o------|
|-(0)-------------0--||-(0)--------1-1-1-||-------|
|-(0)-------------0--||-(0)-2-2--2-2-2-2-||-------|
|-----2-2-2-2-2-2---o||-----2-2--2-2-2-2-||o------|
|-(3)-0-0-0-0-0-0-3--||-(3)-0-0--0-0-0-0-||-------|

"One night in the club called the shakin' hand"

Fill 1:
                                1.,2.,3.
  N.C.      G5      E5 A5 E5 G5      E
  H    Q  E E   +E  Q  Q  Q  E   +E  E Q  E E E E  4x
|-------------|----------------|------------0-0-0--||
|-----------3-|-(3)----------3-|-(3)--------0-0-0-o||
|-----------0-|-(0)----2-----0-|-(0)-1-1--1-1-1-1--||
|-----------0-|-(0)-2--2--2--0-|-(0)-2-2--2-2-2-2--||
|-------------|-----2--0--2----|-----2-2--2-2-2-2-o||
|-----------3-|-(3)-0-----0--3-|-(3)-0-0--0-0-0-0--||
|
| H    Q  E E   +E  Q  Q  Q  E   +E  E Q  E E E E  4x
|-------------|----------------|-------------------||
|-------------|--------2-------|------------------o||
|-----------0-|-(0)----2-----0-|-(0)--------1-1-1--||
|-----------0-|-(0)-2--2--2--0-|-(0)-2-2--2-2-2-2--||
|-------------|-----2--0--2----|-----2-2--2-2-2-2-o||
|-----------3-|-(3)-0-----0--3-|-(3)-0-0--0-0-0-0--||

there was a 42 decibel rockin' band (Fill 1)
and the music was good and the music was loud (Fill 1)
and the singer turned and he said to the crowd (Fill 1)
Let there be rock!"

 Guitar Solo 3 (Outro)
  4.
  G5E           A5
  Gtrs I, II
  E E Q  +Q   E E   +E  E Q  Q  E E   +E  E Q  Q  E E   +E  E Q  Q  E E
|-----------------|-----------------|-----------------|-----------------|
|-3---------------|-----------------|-----------------|-----------------|
|-0-1-1--(1)--1-2-|-(2)-2-x--x--x-2-|-(2)-2-x--x--x-2-|-(2)-2-x--x--x-2-|
|-0-2-2--(2)--2-2-|-(2)-2-x--x--x-2-|-(2)-2-x--x--x-2-|-(2)-2-x--x--x-2-|
|---2-2--(2)--2-0-|-(0)-0-x--x--x-0-|-(0)-0-x--x--x-0-|-(0)-0-x--x--x-0-|
|-3-0-0--(0)--0---|-----------------|-----------------|-----------------|


  A5
  Gtr I
  +E  E Q  Q  E E      +H.         +E   E      +Q     Q     +Q.     E
|--------------------|-----------------------|---------------------------|
|--------------------|-----------------------|---------------------------|
|-(2)-2-x--x----7b9==|=(7)---------(7)r-7b9==|=(7)r---7b9===(7)r----7b9==|
|-(2)-2-x--x---------|-----------------------|---------------------------|
|-(0)-0-x--x---------|-----------------------|---------------------------|
|--------------------|-----------------------|---------------------------|
|
| Gtr II
| +E  E Q  Q  E E      +E  E Q  Q   E   E      +E   E Q      Q    E E
|--------------------|-----------------------|---------------------------|
|--------------------|-----------------------|---------------------------|
|-(2)-2-x--x--x-2----|-(2)-2-x--x---x---2----|-(2)--2-x------x----x-2----|
|-(2)-2-x--x--x-2----|-(2)-2-x--x---x---2----|-(2)--2-x------x----x-2----|
|-(0)-0-x--x--x-0----|-(0)-0-x--x---x---0----|-(0)--0-x------x----x-0----|
|--------------------|-----------------------|---------------------------|


  A5
  +E   Q.      +Q.     E
|---------------------------|
|---------------------------|
|-(7)r-7b9=====(7)r----7b9==|
|---------------------------|
|---------------------------|
|---------------------------|



  +E   Q.      +E   E    +Q      +E  +E  E E +Q   E E
|------------------------------|-------------------------|
|------------------------------|-------------------------|
|-(7)r-7b9=====(7)r-7b9==(7)---|-(7)r(7)-5----------7b9==|
|------------------------------|-----------7-(7)---------|
|------------------------------|-------------------------|
|------------------------------|-------------------------|


  A5
  +E   E E E +Q.    E    E  E E E E E E E    E   E E E +Q    E E
|------5--------------|-------------------|-----------------------|
|------5--------------|-------------------|-----------------------|
|-(7)r---5----------5h|==6----5-6---5-6---|--5-----2-2-(2)\----5p=|
|----------7-(7)------|-----7-----7-----7-|-----/4----------------|
|---------------------|-------------------|-----------------------|
|---------------------|-------------------|-----------------------|

  A5
              ~
   |--3---|
   E  E   E E E +Q   E E
|------------------------|
|------------------------|
|--4p=2-----2-2-(2)----5p|
|---------4--------------|
|------------------------|
|------------------------|
|
   |--3---|
   E  E   E E E +E  E Q        +E   +E     E E E E E E
|----------------------------|-------------------------|
|---------------------5b7====|=(5)r-(5)b8==5-3---------|
|--4p=2-----2-2-(2)-2--------|-----------------5p2-7-5-|
|---------4------------------|-------------------------|
|----------------------------|-------------------------|
|----------------------------|-------------------------|


  A5
  +Q        E E +E      E E E
|-----------------------------|
|-----------------------------|
|-(5)b5.5-----5-(5)b5.5---7-5-|
|-----------7-----------7-----|
|-----------------------------|
|-----------------------------|

  +E      E E E +E      E E E   +E      E E E     +E  E E E
|-----------------------------|-----------------------------|
|-----------------------------|-------------5-----(5)-----5-|
|-(5)b5.5---7-5-(5)b5.5---7-5-|-(5)b5.5---7-5b5.5-(5)---7-5-|
|---------7-------------7-----|---------7-------------7-----|
|-----------------------------|-----------------------------|
|-----------------------------|-----------------------------|

  A5
  +E      E E E +E  E E E
|-------------------------|
|-(5)-------7-5-(5)-----5-|
|-(5)b5.5---7---------7-5-|
|---------7---------7-----|
|-------------------------|
|-------------------------|


  +Q        E E +Q       E E   +E      E E E E E E S S
|----------------------------|-----------------5-------|
|-(5)-------7-5-(5)------7-5-|-(5)b5.5-----5-7---5-7p5-|
|-(5)b5.5-----5-(5)b5.5------|---------5h6-------------|
|----------------------------|-------------------------|
|----------------------------|-------------------------|
|----------------------------|-------------------------|


  A5
               ~
   E  E Q      Q  E E    S  S S S  S S S S  S S S S  S S S S
|---------------------|--------------------------------------|
|-----5---------------|-/8--8-8-8-/8-8-8-8-/8-8-8-8-/8-8-8-8-|
|--8----5b5.5-----5-7-|-/9--9-9-9-/9-9-9-9-/9-9-9-9-/9-9-9-9-|
|--------------7------|--------------------------------------|
|---------------------|--------------------------------------|
|---------------------|--------------------------------------|
|

  A5                               B5
                                                   ~
   S  S S S  S S S S  S S S S  S S E   +Q        E E +E  E E    S S
|------------------------------------|--------------------------7-7-|
|-/8--8-8-8-/8-8-8-8-/8-8-8-8-/8-8---|--------------------------7-7-|
|-/9--9-9-9-/9-9-9-9-/9-9-9-9-/9-9-7-|-(7)b7.5-----------7-9b11-----|
|------------------------------------|-----------9-9-(9)------------|
|------------------------------------|------------------------------|
|------------------------------------|------------------------------|


                                    ~~                    ~
  S  S E    E  E  E E E E   E E E E Q.    E   +E      E E E +Q    E  E
|-7-----------------------|-----------------|--------------------------|
|-7-10------7-10----------|-----------------|--------------------------|
|------9b11------/7-8---9-|-7-------------7-|-(7)b7.5---9-7-(7)--<7>-7-|
|---------------------9---|---9---7-9-------|---------9----------------|
|-------------------------|-----9-----------|--------------------------|
|-------------------------|-----------------|--------------------------|
|
  B5
  +E E Q   Q   E E   +E E Q   Q   E E   +E E Q   Q   E E
   | | |   |   | |    | | |   |   | |    | | |   |   | |
   / / /   /   / /    / / /   /   / /    / / /   /   / /

   E E E E E E E E    E E E E E E E E    E E E E E E E E
|------------------|------------------|------------------|
|------------------|------------------|------------------|
|--8---7-8---7-8---|--7-8---7-8---7-8-|----7-8---7-8---7-|
|----9-9---9-----9-|------9-----9-----|--9-----9-----9---|
|------------------|------------------|------------------|
|------------------|------------------|------------------|


   E E E E E E E S S    S S S S S S S S S S S S S S S S
|--------------------|----------------------------------|
|--------------------|--7-7-7-7-7-7-7-7-7-7-7-7-7-7-7-7-|
|--8---7-8---7-8-x-x-|--8-8-8-8-8-8-8-8-8-8-8-8-8-8-8-8-|
|----9-----9-----x-x-|----------------------------------|
|--------------------|----------------------------------|
|--------------------|----------------------------------|


   S S S S S S S S S S S S S S S S
|----------------------------------|
|-/9-9-9-9-9-9-9-9-9-9-9-9-9-9-9-9-|
|-/9-9-9-9-9-9-9-9-9-9-9-9-9-9-9-9-|
|----------------------------------|
|----------------------------------|
|----------------------------------|


    S  S  S  S  S  S  S  S  S  S  S  S  S  S  S  S
|--------------------------------------------------|
|-/10-10-10-10-10-10-10-10-10-10-10-10-10-10-10-10-|
|-/11-11-11-11-11-11-11-11-11-11-11-11-11-11-11-11-|
|--------------------------------------------------|
|--------------------------------------------------|
|--------------------------------------------------|


   S S S S S S S S S S S S S S S S    S S S S S S S S S S S S S S S S
|----------------------------------|----------------------------------|
|--9-9-9-9-9-9-9-9-9-9-9-9-9-9-7-7-|--7-7-7-7-7-7-7-7-7-7-7-7-7-7-7s9-|
|--9-9-9-9-9-9-9-9-9-9-9-9-9-9-8-8-|--8-8-8-8-8-8-8-8-8-8-8-8-8-8-7s9-|
|----------------------------------|----------------------------------|
|----------------------------------|----------------------------------|
|----------------------------------|----------------------------------|


   S S S S S S S S S S S S S S S S
|----------------------------------|
|--9-9-9-9-9-9-9-9-9-9-9-9-9-9-9-9-|
|--9-9-9-9-9-9-9-9-9-9-9-9-9-9-9-9-|
|----------------------------------|
|----------------------------------|
|----------------------------------|


   S  S  S  S  S  S  S  S  S  S  S  S  S  S  S  S
|-------------------------------------------------|
|-10-10-10-10-10-10-10-10-10-10-10-10-10-10-10-10-|
|-11-11-11-11-11-11-11-11-11-11-11-11-11-11-11-11-|
|-------------------------------------------------|
|-------------------------------------------------|
|-------------------------------------------------|


   S S S S S S S S S S S S S S S S      S S S S S S S S  S  S  S  S S S S S  7x
|----------------------------------||--------------------------------------||
|--9-9-9-9-9-9-9-9-9-9-9-9-9-9-7-7-||o7-7-7-7-9-9-9-9-10-10-10-10-9-9-9-7-o||
|--9-9-9-9-9-9-9-9-9-9-9-9-9-9-8-8-||-8-8-8-8-9-9-9-9-11-11-11-11-9-9-9-8--||
|----------------------------------||--------------------------------------||
|----------------------------------||o------------------------------------o||
|----------------------------------||--------------------------------------||


   S S S S S S S S  S  S  S  S E E
|-----------------------------------|
|--7-7-7-7-9-9-9-9-10-10-10-10-9----|
|--8-8-8-8-9-9-9-9-11-11-11-11-9s4/-|
|-----------------------------------|
|-----------------------------------|
|-----------------------------------|


      S  S  S  S  S  S  S  S   S  S  S  S  S  S  S  S
||-----------------------------------------------------||
||o-/10-10-10-10-10-10-10-10-/10-10-10-10-10-10-10-10-o||
||--/11-11-11-11-11-11-11-11-/11-11-11-11-11-11-11-11--||
||-----------------------------------------------------||
||o---------------------------------------------------o||
||-----------------------------------------------------||


      S  S  S  S  S  S  S  S   S  S  S  S  S  S  S  S
||-----------------------------------------------------||
||o-/10-10-10-10-10-10-10-10-/10-10-10-10-10-10-10-10-o||
||--/11-11-11-11-11-11-11-11-/11-11-11-11-11-11-11-11--||
||-----------------------------------------------------||
||o---------------------------------------------------o||
||-----------------------------------------------------||


   S  S  S  S  S  S  S  S  S  S  S  S  S  S  S  S
|--------------------------------------------------|
|-10-10-10-10-10-10-------12-12-12-12-12-12-12-12--|
|-11-11-11-11-11-11-11s12-12-12-12-12-12-12-12-12--|
|--------------------------------------------------|
|--------------------------------------------------|
|--------------------------------------------------|


   S  S  S  S  S  S  S  S  S  S  S  S  S  S  S  S
|-------------------------------------------------|
|-13-13-13-13-13-13-13-13-13-13-13-13-13-13-13-13-|
|-14-14-14-14-14-14-14-14-13-13-13-13-13-13-13-13-|
|-------------------------------------------------|
|-------------------------------------------------|
|-------------------------------------------------|


   S  S  S  S  S  S  S  S  S  S  S  S  S  S  S  S
|-------------------------------------------------|
|-14-14-14-14-14-14-14-14-14-14-14-14-14-14-14-14-|
|-15-15-15-15-15-15-15-15-14-14-14-14-14-14-14-14-|
|-------------------------------------------------|
|-------------------------------------------------|
|-------------------------------------------------|

   S  S  S  S  S  S  S  S  S  S  S  S  E   E
|---------------------------------------------|
|-15-15-15-15-15-15-15-15-15-15-15-15-15\-----|
|-16-16-16-16-16-16-16-16-15-15-15-15-15\-12/-|
|---------------------------------------------|
|---------------------------------------------|
|---------------------------------------------|

     S  S  S  S  S  S  S  S  S  S  S  S  S  S  S  S
||--14-14-14-14-14-14-14-14-16-16-16-16-16-16-16-16-|
||o-16-16-16-16-16-16-16-16-17-17-17-17-17-17-17-17-|
||--------------------------------------------------|
||--------------------------------------------------|
||o-------------------------------------------------|
||--------------------------------------------------|


   S  S  S  S  S  S  S  S  S  S  S  S  S  S  S  S
|-16-16-16-16-16-16-16-16-16-16-16-16-16-16-14-14--||-|
|-17-17-17-17-17-17-17-17-17-17-17-17-17-17-16-16-o||-|
|--------------------------------------------------||-|
|--------------------------------------------------||-|
|-------------------------------------------------o||-|
|--------------------------------------------------||-|


     S  S  S  S  S  S  S  S  S  S  S  S  S  S  S  S
||--14-14-14-14-14-14-14-14-16-16-16-16-16-16-16-16---||
||o-16-16-16-16-16-16-16-16-17-17-17-17-17-17-17-17--o||
||----------------------------------------------------||
||----------------------------------------------------||
||o--------------------------------------------------o||
||----------------------------------------------------||


   Q.       E      Q    Q         +E    Q.      Q      Q
|-17b19====17b19==17r--17b19===|=(17)r-17b19---17b19--17b19--|
|------------------------------|-----------------------------|
|------------------------------|-----------------------------|
|------------------------------|-----------------------------|
|------------------------------|-----------------------------|
|------------------------------|-----------------------------|



OUTRO (FREELY)
   W
                 TP    TP

   E     E      +Q    +H
|-17b19-17b19==(17)--(17)r----|
|-----------------------------|
|-----------------------------|
|-----------------------------|
|-----------------------------|
|-----------------------------|
|
| Gtr II
|  TP
|  W
|-----------------------------|
|-----------------------------|
|--4--------------------------|
|--4--------------------------|
|--2--------------------------|
|-----------------------------|

   W
               |---------6---------|
   E     S  S  E     S  S     +S   S  E     E  E     E
|-17b19-17-14-------14---------------------17--------------|
|-------------17b19----17b19r(17)p15-17b19----17b19-17b19\-|
|----------------------------------------------------------|
|----------------------------------------------------------|
|----------------------------------------------------------|
|----------------------------------------------------------|


  E
    ~~~              ~~~~~~
    Q   E  E  Q   S  E.       +E    S  S  Q   Q   Q
|------------12--12--------|-----------------------------|
|---------12--------15b17==|=(15)r-15-12-16--19--22b24===|
|------13------------------|-----------------------------|
|-/14----------------------|-----------------------------|
|--------------------------|-----------------------------|
|--------------------------|-----------------------------|
|
|   TP                         TP
|   W                          W
|--------------------------|-----------------------------|
|--------------------------|-----------------------------|
|---1----------------------|---1-------------------------|
|---2----------------------|---2-------------------------|
|---2----------------------|---2-------------------------|
|---0----------------------|---0-------------------------|


  B5
                              |--3--|
   +Q     Q       +E    S  S  E  E  E
|-------------------------------------|
|-(22)r--22b24===(22)r-22p19-19-------|
|-------------------------------21-19-|
|-------------------------------------|
|-------------------------------------|
|-------------------------------------|
|
|   TP
|   W
|-------------------------------------|
|-------------------------------------|
|---4---------------------------------|
|---4---------------------------------|
|---2---------------------------------|
|-------------------------------------|


   S     S  S  S  S  S  S  S  S  S  S  S  S  S  S  S
|-------19--------------------------------------------|
|----------22p19----19--------------------------------|
|-21b23----------22----22-22p19-21p19----21-----------|
|-------------------------------------21----21-19-21p=|
|-----------------------------------------------------|
|-----------------------------------------------------|


  B5
                             ~~~~
   S  S  S  S  Q   +Q       +E. S   Q  Q  H
|---------------------------------|------------*|
|-------------------------------4-|-4----------*|
|-------------------------------4-|-4----------*|
|-19----21----19--(19)b21r=(19)-4-|-4----------*|
|----21----21-------------------2-|-2----------*|
|---------------------------------|------------*|
|
|  TP
|  H                H               Q  Q  H
|---------------------------------|------------*|
|---------------------------------|-4----------*|
|--4----------------4-------------|-4----------*|
|--4----------------4-------------|-4----------*|
|--2----------------2-------------|-2----------*|
|---------------------------------|------------*|


Duration Legend
---------------
W - whole; H - half; Q - quarter; E - 8th; S - 16th; T - 32nd; X - 64th; a - acciaccatura
+ - note tied to previous; . - note dotted; .. - note double dotted
Uncapitalized letters represent notes that are staccato (1/2 duration)
Irregular groupings are notated above the duration line
Duration letters will always appear directly above the note/fret number it represents the
duration for.  Duration letters with no fret number below them represent rests.  Multi-
bar rests are notated in the form Wxn, where n is the number of bars to rest for.  Low
melody durations appear below the staff

Tablature Legend
----------------
 h   - hammer-on
 p   - pull-off
 b   - bend
 pb  - pre-bend
 r   - bend release (if no number after the r, then release immediately)
 /\  - slide into or out of (from/to "nowhere")
 s   - legato slide
 S   - shift slide
  - natural harmonic
[n]  - artificial harmonic
n(n) - tapped harmonic
 ~   - vibrato
 tr  - trill
 T   - tap
 TP  - trem. picking
 PM  - palm muting
\n/  - tremolo bar dip; n = amount to dip
 \n  - tremolo bar down
 n/  - tremolo bar up
/n\  - tremolo bar inverted dip
 =   - hold bend; also acts as connecting device for hammers/pulls
 <>  - volume swell (louder/softer)
 x   - on rhythm slash represents muted slash
 o   - on rhythm slash represents single note slash

Misc Legend
-----------
 |  - bar
||  - double bar
||o - repeat start
o|| - repeat end
*|  - double bar (ending)
 :  - bar (freetime)
 $  - Segno
 &  - Coda
Tempo markers -  = BPM(8/16=s8/s16), where s8 = swing 8ths, s16 = swing 16ths
comments
print report bad tab
31 comments total. Showing first comments.
0 reply
ibanez87 wrote on September 19 2005, 12:00 am

somebody voted this one star. Why? It has ALL THREE SOLOS!

0 reply
hepzibahbaptist wrote on September 19 2005, 12:00 am

i know i vote 5*
which means it will be three if you get the average

0 reply
ibanez87 wrote on September 21 2005, 06:13 pm

any other comments?

I want to post or [tab]
guest
You may want to rate the tab now too:
select rating
Please do not post tabs as comments. Select "correction" instead!