Oops, an error
Loading. Please wait.

Powerage Tab

21,831 views 27 this week
9 commentsread comments
1 2 3 4 5
accurate
x 7
Autoscroll
+/-
esc
set tempo
stop
Contributor
Hey! There's an official Ultimate Guitar app which is ideal
for learning songs when you're away from computer. Get the app
WARNING: You are trying to view
                                    content from Ultimate-Guitar.com
                                    in an unauthorized application,
                                    which is prohibited.

                                    Please use an official Ultimate
                                    Guitar Tabs application for iPhone,
                                    iPad or Android to access legitimate
                                    chords, guitar, bass, and drum tabs
                                    from Ultimate-Guitar.com database.

                                    Type "ultimate guitar tabs" in Apple
                                    App Store's or Android Market's
                                    search to find the application.
Powerage Album


                                                         Rock n roll damnation


 Riff A
 -----------------------------------|
 ----------8---------------7--------|
 --------9---------------7----------|
 ------7---------------7------------| x2
 ---0----------------0--------------|
 -----------------------------------|

 Riff B
 -----|------------------------------|
 -----|----3--3--------3--3----------|
 ---2-|----2--2--2-----2--2------2---|
 ---2-|----4--4--2-----4--4------2---| x12
 ---0-|0---0--0--0--0--0--0--3-4-0---|
 -----|------------------------------|

 chorus
 "And its a rock n roll damnation"
 ------------3------2--------------------------|
 ------------3------3--------------3--3--------|
 ------------0------2--------2-----2--2--2-----|
 ------------0------0--------2-----4--4--2-----| x3
 ----------------------------0-0---0--0--0-----|
 ------------3---------------------------------|

 "take your chance    while you still got the choice"
 ---3--------------------------------------------------|
 ---3--------------------------------------------------|
 ---0--------------------------------------------------|
 ---0---------------4----------------------------------|
 -------------------4----------------------------------|
 ---3---------------2----------------------------------|

 Play Riff B x10

 Play chorus

 Play Riff A x2

 bridge
 Play Riff A X2 (malcolm randomly hits the A chord over and over)

 Play chorus

 Guitar solo
 ..."choice"......
 ------------------------------------------------------|
 ---------------17--17------17-17-17-17----------17----|
 --------16(18)-----14------14-14-14-14---16(18)----14-|
 -----------------------16-----------------------------|
 ------------------------------------------------------|
 ------------------------------------------------------|

 ---------------17--------17--------17--------17--------|
 ----------17------17--------17--------17---------------|
 ---16(18)---------16(18)----16(18)----16(18)----16(18--|
 -------------------------------------------------------|
 -------------------------------------------------------|
 -------------------------------------------------------|

 ---17-|--------17-|   |----|  ---|      --------------17-| ----|   |-17|
 ------|-----------|   |----|  -17|      --------17-17----| -17-|   |---|
 ------|-16(18)----|   |----|  ---|      --19(21)---------| ----|   |---|
 ------|-----------|x9 |-/18|  ---|x19   -----------------| ----|x5 |---|
 ------|-----------|   |----|  ---|      -----------------| ----|   |---|
 ------|-----------|   |----|  ---|      -----------------| ----|   |---|

 Play riff B x6

 End with A chord



                                                       Down payment blues

 ------------------------------|
 ------------------------------|
 --------2------------2--------|
 ---2-2--2-------2-2--2--------|
 ---2-2--0-------2-2--0--------|
 ---0-0----------0-0-----------|

Riff A
 -----------------------|
 -----------------------|
 -----2---2---2---------|
 -----2---2---2---2-----|x5
 -----0---0---0---2-----|
 ---0---0---0---0-0-----|

Riff B
 -----------------------|
 -----------------------|
 -----4---4---4---------|
 -----4---4---4---4-----|x2
 -----2---2---2---4-----|
 ---2---2---2---2-2-----|

Riff C
 -----------------------|
 -----------------------|
 -----7---7---7---------|
 -----7---7---7---7-----|x2
 -----5---5---5---7-----|
 ---5---5---5---5-5-----|

 Riff D
 -----------------------|
 -----------------------|
 -----9---9---9---------|
 -----9---9---9---9-----|x10
 -----7---7---7---9-----|
 ---7---7---7---7-7-----|

 Play Riff C

 Play Riff A

 Play Riff D x6

 Play Riff C

 Play Riff A

 Play Riff D x2

 now this
 ----------------------------------------|
 -----3----------------------------------|
 -----2--------2--------------9----9\----|
 -----0--------2--------------9----9\----|
 ---0----------0--------------7----7\----|
 ------------0--------------7----7-------|


 Guitar solo
 -------|   -------------------10------------------------------|
 -------|   ---13(15)-13(15)------10-13----10------------------|
 -------|   ----------------------------12----10---------------|
 ---7h9-|x4 -------------------------------------12----10-9-7--|
 -------|   ---------------------------------------------------|
 -------|   ---------------------------------------------------|

 --------------------------------------------------------------|
 --------------------------------------------------------------|
 ------------------------------------5-7----7---5--------------|
 ---5-7-3-3-------3--5-5p3---5-3-5/7------7---x-----------7h9--|
 -----------5-0h5----------5-----------------------------------|
 --------------------------------------------------------------|

 --------------------------------------------12----------------|
 -----------13(15)--13(15)--13(15)--15(17)------15p12----12----|
 ---7-7-----------------------------------------------14-------|
 --------------------------------------------------------------|
 --------------------------------------------------------------|
 --------------------------------------------------------------|
                                     R
 --------------------------------------------------------------|
 -----------------------------20(24)----(20)--17--19(21)-------|
 ---15p14p12-14----12------------------------------------------|
 ---------------14----14\--------------------------------------|
 --------------------------------------------------------------|
 --------------------------------------------------------------|
    H.B....................................
   (keep bending in and out of (21) and (20))
 --------------------------------------------------------------|
 ---19(21)------------------------------------15---------------|
 ------------------------------------------------16----17(19)--|
 --------------------------------------------------------------|
 --------------------------------------------------------------|
 --------------------------------------------------------------|

 ---14-17-14-16-15-14-------------------20(22)---20(22)--20(22--|
 ---------------------1p15p14-15--------------------------------|
 --------------------------------16\----------------------------|
 ---------------------------------------------------------------|
 ---------------------------------------------------------------|
 ---------------------------------------------------------------|
                                          let ring.............
 ---20-17---------------------------------17-------------------|
 ---------20-18-----------17-17---17(19)------17(19)-----------|
 ---------------19-----16--------------------------------------|
 --------------------------------------------------------------|
 --------------------------------------------------------------|
 --------------------------------------------------------------|

 ---------------0----------------------------------------------|
 -----------------0-3------------------------------------------|
 ---2(4)--2(4)--------3p2p0------------------------------------|
 ---------------------------2~~~~~~~~~~------------------------|
 --------------------------------------------------------------|
 --------------------------------------------------------------|

 Use the same riffs for the rest



                                                       Gimme A bullet


 Intro:

 E|-----------------------|-----------------------|-----------------------|
 B|-----------------------|-----------------------|-----------------------|
 G|---------------2----0--|---------------2----0--|---------------0----2--|
 D|--2----2-------2----0--|--2----2-------2----0--|--2----2-------0----2--|
 A|--0----0----3b---------|--0----0----3b---------|--0----0----3b---------|
 E|-----------------------|-----------------------|-----------------------|

                         2nd guitar
 |-----------------------|---------------------|--------------------|
 |-----------------------|-------------3----3--|------------3----3--|
 |---------------2----2--|--2----------0----0--|------------0----0--|
 |--2----2-------2----2--|--2----------4----5--|------------4----5--|
 |--0----0----3b---------|--0------------------|--------------------|
 |-----------------------|---------------------|--------------------|

 |--------------------|------------------|---------------------|
 |------------3-------|------------------|-------------3----3--|
 |------------0----2--|------------------|--2----------0----0--|
 |------------4----2--|------------------|--2----------4----5--|
 |-----------------0--|------------------|--0------------------|
 |--------------------|------------------|---------------------|

 |--------------------|--------------------|--------------------|
 |------------3----3--|------------3-------|--------------------|
 |------------0----0--|------------0----2--|--------------------|
 |------------4----5--|------------4----2--|--------------------|
 |--------------------|-----------------0--|--------------------|
|--------------------|--------------------|---------------------|

 Verse:
 |------------------3--|-----------------3--|--------------------|
 |-------------3----3--|------------3----3--|------------3-------|
 |--2----------2----0--|------------2----0--|------------2----2--|
 |--2----------0-------|------------0-------|------------0----2--|
 |--0------------------|--------------------|-----------------0--|
 |---------------------|--------------------|--------------------|

 |------------------|------------------3--|-----------------3--|
 |------------------|-------------3----3--|------------3----3--|
 |------------------|--2----------2----0--|------------2----0--|
 |------------------|--2----------0-------|------------0-------|
 |------------------|--0------------------|--------------------|
 |------------------|---------------------|--------------------|

                                             Chorus:
 |--------------------|----------------------|----------------------|
 |------------3-------|----------------------|----------------------|
 |------------2----2--|------2------2--2-----|--5----5------5----7--|
 |------------0----2--|------2------2--2-----|--5----5------5----7--|
 |-----------------0--|------0------0--0--0--|--3----3------3----5--|
 |--------------------|----------------------|----------------------|

 |----------------------|----------------------|-----------------------|
 |----------------------|----------------------|-----------------------|
 |------7------7--7-----|--5----5------5----7--|----7--7------7--7-----|
 |------7------7--7-----|--5----5------5----7--|----7--7------7--7-----|
 |------5------5--5--0--|--3----3------3----5--|----5--5------5--5--0--|
 |----------------------|----------------------|-----------------------|

 |----------------------|----------------------|------------------------|
 |----------------------|----------------------|------------------------|
 |--5----5------5----7--|------7------7--7-----|---------------------4--|
 |--5----5------5----7--|------7------7--7-----|--3----3----3--3--3--5--|
 |--3----3------3----5--|------5------5--5--0--|--3----3----3--3--3--5--|
 |----------------------|----------------------|--1----1----1--1--1--3--|

 |----------------------|
 |----------------------|
 |----4--4----4----4----|
 |----5--5----5----5----|
 |----5--5----5----5----|
 |----3--3----3----3----|


                                                                Riff raff


 hit the palm muted parts rapidly
 Riff A
   (p.m. on all 0's)
 |-------------------------------------------------|
 |-------------------------------------------------|
 |------7------7------7------7------7------7-------|
 |------4------5------4------5------4------5-------|
 |--0-0----0-0----0-0----0-0----0-0----0-0---------|
 |-------------------------------------------------|
                                        End Riff A
 -------------------------------------------------|
 -------------------------------------------------|
 -------7------7------7------7------7---------2---|
 -------4------5------4------5------4---------2---|x5
 ---0-0----0-0----0-0----0-0----0-0-----------0---|
 -------------------------------------------------|

 Riff B
 |-------------------------------------------------|
 |-------------------------------------------------|
 |---2-2-2-----------------------------------------|
 |---2-2-2-----------2-4-------5-------------------|x8
 |---0-0-0----0-3h4-------3p0-----3p0--------------|
 |-------------------------------------------------|

 Riff C                                  End Riff C
 |---------|--2--2---3-3---2-----------------------|
 |---------|--3--3---3-3---3-----------------------|
 |---2-2-2-|--2--2---0-0---2-----------------------|
 |---2-2-2-|--0--0---0-0---0-----------------------|x4
 |---0-0-0-|---------------------------------------|
 |---------|---------3-3---------------------------|

 Play Riff B x2

 Play Riff C x4

 Riff D
 |--------------------------------------|
 |--------------------------------------|
 |--------------------------------------|
 |----5/6---5/6---5/6---5/6-------------|x2
 |----4/5---4/5---4/5---4/5---5-6-------|
 |---0-----0-----0-----0-----0----------|

 Play Riff B x4

 ----------------------------------------|
 ----------------------------------------|
 ---0h2----------------------------------|
 ---0h2----------------------------------|
 ---0------------------------------------|
 ----------------------------------------|

 "Seen it.....heard on.....radio"
 -----------------------------------------------|
 ----------------------------------7(8)(7)------|
 --0h2---------0h2-----------------7(8)(7)------|
 --0h2---------0h2------------------------------|
 --0-----------0--------------------------------|
 -----------------------------------------------|

 "It aint....down in Mexico"
 -----------------------------------------------|
 --------------------------------7(8)(7)--------|
 --0h2-------0h2-----------------7(8)(7)--------|
 --0h2-------0h2--------------------------------|
 --0---------0----------------------------------|
 -----------------------------------------------|

 "The bar...tell me.........it's really.....the end"
 ------------------------------------------------------------|
 ------------------7(8)(7)-----------------------------------|
 --0h2-------------7(8)(7)--------0h2----------------7(8)(7)-|
 --0h2----------------------------0h2----------------7(8)(7)-|
 --0------------------------------0--------------------------|
 ------------------------------------------------------------|

 "Say...prayer................................
 -----------------------------------------------|
 -------------7(8)(7)--------7(8)(7)------------|
 --0h2--------7(8)(7)---0h2--7(8)(7)------2-2-2-|
 --0h2------------------0h2---------------2-2-2-|
 --0--------------------0-----------------0-0-0-|
 -----------------------------------------------|

 Play Riff C x4

 Play Riff B x2

 Play Riff C x4

 Play Riff D x2

 Guitar solo
 -----------------------------------------------------------------|
 -----------------------------------------------------------------|
 ----------------5------------5-----5---------4h5p4--4h5---4h5----|
 ---7-7-7-7---------7--7---------7-----7-7-7-------------7-----7--|
 ------------x-7---------x-x-x----x-------------------------------|
 -----------------------------------------------------------------|

 -------------------------------------------10-8p7----8p7---------|
 --------------------5--4-----------------8--------10-----10--8p7-|
 ---4h5-4----4h5-4-7------7-5-4-----------------------------------|
 ----------7--------------------7-7-------------------------------|
 -----------------------------------------------------------------|
 -----------------------------------------------------------------|

 ----------------------------------------------------------------|
 ----------------------------------------------------------5-8p5-|
 ---9-7-7\5-7--5-4-------------------------------7---6-6-7-------|
 ------------------7-5-7-5-4-------4---5-7-5-7/9---9-------------|
 ----------------------------7-5-7---7---------------------------|
 ----------------------------------------------------------------|

 ----------5-8p5-7p5-8p5-7p5-8p5-7p5-8-8-7p5-5h7p5-8-5-5h7p5-8-5-|
 ---7--6-8-------------------------------------------------------|
 ----------------------------------------------------------------|
 ----------------------------------------------------------------|
 ----------------------------------------------------------------|
 ----------------------------------------------------------------|

 ---5h7p5-8-5-7-7p5-7-5-8-7p5-8\--10(12)--8-------8-9------------|
 -------------------------------------------10\-------10-10-13---|
 ----------------------------------------------------------------|
 ----------------------------------------------------------------|
 ----------------------------------------------------------------|
 ----------------------------------------------------------------|

 ---12-------12-15p12-13--15p12-13- |15p12-14p12-|  ---15p12--15\--|
 ---------------------------------- |------------|  ---------------|
 -------14------------------------- |------------|  ---------------|
 ---------------------------------- |------------|x5---------------|
 ---------------------------------- |------------|  ---------------|
 ---------------------------------- |------------|  ---------------|

 Play Riff D x4

 ---14h16----0-9-0-7-0---------------|-------|   ------------7--5--|
 ---------15-----------7(8)----8p7---|-7p8p5-|   -7-7(8)---8----5--|
 ----------------------------------9-|-------|   ------------------|
 ------------------------------------|-------|x7 ------------------|
 ------------------------------------|-------|   ------------------|
 ------------------------------------|-------|   ------------------|

 ---------------------5-8p5-7p5---5---5----------------------------|
 ---8p7p5-7h8p7p5-7h8-----------8---8---8p5-8p5---5----------------|
 -----------------------------------------------8---8-7p5---7p5----|
 ---------------------------------------------------------7--------|
 ------------------------------------------------------------------|
 ------------------------------------------------------------------|

 ----------8-----5-------------------------------------------------|
 ------------------8-8h10-8-7-8p7-5-7-7-------5-7-7(8)--5----------|
 ----------------------------------------------------------5-7-5---|
 ---7p5-/----------------------------------------------------------|
 ------------------------------------------------------------------|
 ------------------------------------------------------------------|

 -----------------------------------------------------12-11-10h11p10-|
 --------------------------------------------------10----------------|
 ------------------2--4(6)-x-2---------2-----2-----------------------|
 ---5-5--4\2-4-----------------4p2-----------------------------------|
 --------------3h4-----------------3p0---3p0-------------------------|
 --------------------------------------------------------------------|

 -----------------------------------|
 ---13-12-10-12(13)------10\--------|
 -----------------------------------|
 -----------------------------------|
 -----------------------------------|
 --------------------------------0--|

 Play Riff D x2

 ------------------------------------------------------|
 ---17-----5-----7-----9-9-9--10-10-10--12-12-12-------|
 ---17-----5-----7-----9-9-9--10-10-10--12-12-12-------|
 ---17-----5-----7-----9-9-9--10-10-10--12-12-12-------|
 ------------------------------------------------------|
 ------------------------------------------------------|

 Outro
 Tremolo picking....
 --------------------------------------|
 --------------------------------------|
 ----------------------14-14-14\---2---|
 --------4-2-----------11-12-11\---2---|
 --3-4-0-----3---------0--0--0-----0---|
 --------------------------------------|

                                                                 Sin city

 Intro Riff
 --------------------|
 --------------------|
 --------------------|
 --------------------|
 -------2-5-0-2------|
 ---3-5---------0----|

 -------2-------------|
 -------3-------------|
 -----4-2-2-----------|
 ---2-4-0-2-----------|x4
 ---2-2---0-----------|
 ---0-----------------|

 Riff A
 -------------2--------|
 -------------3--------|
 -----------4-2-2------|
 ---------2-4-0-2------|x4
 ---------2-2---0------|
 ---0-3-0-0------------|

 Riff B
 ---2-2-2-2-2-2-2-2-2--|
 ---3-3-3-3-3-3-3-3-3--|
 ---2-2-2-2-2-2-2-2-2--|
 ---0-0-0-0-0-0-0-0-0--|
 ----------------------|

 Play Riff A x8
 Riff C
 ----------------------|
 ----------------------|
 ---2-2-2-2-2-2-2-2-2--|
 ---2-2-2-2-2-2-2-2-2--|
 ---0-0-0-0-0-0-0-0-0--|
 ----------------------|

 Play Riff C

 Play Riff A x8

 Guitar solo
 ---0-12-0-0-10-0-0-9-0-0-7-0-0-5-0-0-0-3-0-0-5-0-0-3-0--|
 --------------------------------------------------------|
 --------------------------------------------------------|
 --------------------------------------------------------|
 --------------------------------------------------------|
 --------------------------------------------------------|

 ---5-0-0-3-0-05-0-03-0-0-5-0-0-3-0-0-5-0-0-3-0-0-5-0-0-3-|
 ---------------------------------------------------------|
 ---------------------------------------------------------|
 ---------------------------------------------------------|
 ---------------------------------------------------------|
 ---------------------------------------------------------|

 ---0-0--------15(17)--15p12----------12-----------------|
 -------3(5)-----------------15p12-------15(17)---0------|
 ----------------------------------14---------------2(4)-|
 --------------------------------------------------------|
 --------------------------------------------------------|
 --------------------------------------------------------|

 --------|  -------|  ----------------------------------------------|
 --------|  -------|  ----------------------------------------------|
 ---4p2p0|  --7p5p0|  -97p0-97p0-11p9p0-12p10p0-13p11p0-14p12p0-14\-|
 --------|x4-------|x4----------------------------------------------|
 --------|  -------|  ----------------------------------------------|
 --------|  -------|  ----------------------------------------------|


 ---------12----12-------12-------15p12--12----------------------------------|
 ------12----15------------15(17)------15--15p12---12------------------------|
 ---14-------------14(16)------------------------14--14p12--14-12-x-14-12-12-|
 ---------------------------------------------------------14-----------------|
 ----------------------------------------------------------------------------|
 ----------------------------------------------------------------------------|

 ---------------------------------------------------------------------------|
 ---------------------------------------------------------------------------|
 -----14-12-12--14-12-12-----14-12-12-----14-12-12-12-12-<12>-12-<12>-<12>--|
 ---14--------14--------14-14--------14-14----------------------------------|
 ---------------------------------------------------------------------------|
 ---------------------------------------------------------------------------|
                                                       U.B..................
 ----------------------------------------17---------------------------------|
 ---------------------/17-20--20(22)--------20(24)--\0-5-7--8-10-12--13-15--|
 --------14----<12>------------------------------------7-9-10-12-14--15-17--|
 ---14-14---14--------------------------------------------------------------|
 ---------------------------------------------------------------------------|
 ---------------------------------------------------------------------------|

 ---15(17)--15(17)--12h15p12--12----12\--17(19)--17(20)--------------------|
 ---------------------------15----15---------------------------------------|
 --------------------------------------------------------------------------|
 --------------------------------------------------------------------------|
 --------------------------------------------------------------------------|
 -------------------------------------------------------0--12/3\-12-3-12-3-|

                                        Whats Next To The Moon


 e|-------------------------------------------------------------------------|
 b|-------------------------------------------------------------------------|
 g|-------------------------------------------------------------------------|
 d|-0---0---2---0---0---2---0---0---2---0---0---2---0---0---2---0---0---2---|
 a|---0-----2-----0-----2-----0-----2-----0-----2-----0-----2-----0-----2---|
 e|-------------------------------------------------------------------------|


 e|--------------------------------------------------------------------------|
 b|--------------------------------------------------------------------------|
 g|-------------------------0---0---2---0---0---2----------------------------|
 d|-0---0---2---0---0---2-----0-----2-----0-----2---0---0---2---0---0---2----|
 a|---0-----0-----0-----2-----------------------------0-----2-----0-----2----|
 e|--------------------------------------------------------------------------|

   it's her love.....            play four times
 e|-----------------2-2-----------------------------------------------------|
 b|---------------2-3-3-2---------------------------------------------------|
 g|-------------1-2-2-2-2-1-------------------------------------------------|
 d|-------------2-2-0-0-2-2-------------------------------------------------|
 a|-------------2-0-----0-2-------------------------------------------------|
 e|-------------0---------0-------------------------------------------------|

   but what's next to the moon
 e|------------------2------------------------------------------------------|
 b|--------------2---3---2--------------------------------------------------|
 g|--------------2---2---2--------------------------------------------------|
 d|--------------2---0---2--------------------------------------------------|
 a|--------------0-------0--------------------------------------------------|
 e|-------------------------------------------------------------------------|




                                                      Gone shootin'


 ----------------------|
 ----------------------|
 ----------------------|
 ---16------2----------| x3
 ---16---2h4-----------|
 ---14-----------------|

 -----------------------|
 -----------------------|
 -----------------------|
 ---16------2-----------|
 ---16---2h4----2-------|
 ---14------------------|

 main riff (angus)
 Riff A1
 ---2-x-x-0-0---------------2-|
 ---2-x-x-2-0-4---------------|
 -------------4--3-----2h3----|
 ------------------4----------| play 4 times than with this
 -----------------------------|
 -----------------------------|

 main riff (malcolm)
   Riff A2          Let Ring..........
 -------------------------------------|
 -------------------------------------|
 -------------------------------------|
 ---16-x-x--------------16----16------| x4
 ---16-x-x-14-14-14--16-------16------|
 ---14-x-x-14-14-14-----------14------|

 play Riff A1 and A2 x8

 now this
 "I stir my coffe with the same spoon"
 ------------------------------------------|
 ------------------------------------------|
 -----6-6-6-6-6-6-6-6-6-6-6-6-6------------|
 -----6-6-6-6-6-6-6-6-6-6-6-6-6------------|
 ---4-4-4-4-4-4-4-4-4-4-4-4-4-4------------|
 ------------------------------------------|

 then this
 "Do a favorite tune"
 ------------------------------------------|
 ------------------------------------------|
 -----4-4-4-4-4-4---------2----------------|
 -----4-4-4-4-4-4---------2----------------|
 ---2-2-2-2-2-2-2---------0----------------|
 ------------------------------------------|


 "gone shootin'"
  Riff A1 and A2 x4

 Play verse and chorus again

 solo (angus) (malcolm plays Riff A1 and Riff A2)
 "Gone, gone, gone"                     R
 --------------------------2---------------------------------|
 -----------------------------5-4-2--------------------------|
 ------------------4(6)-------------2(3)-(2)-----------------|
 ---------------------------------------------4------4-4-----|
 ------------------------------------------------4/6---------|
 ------------------------------------------------------------|

 ------------------------------------------------------------|
 -----------------------------------------------------7------|
 --------------------------------------------------6---------|
 --------4--6(8)----4----4-4--------4-6(8)--4-6(8)-----------|
 ---6p4---------------6---------4/6--------------------------|
 ------------------------------------------------------------|
                                    R
 ------------------------------------------------------------|
 ---7---7----9(11)---7---7-x-9(11)-----(9)----7--7--10(14)---|
 -----8----------------8--------------------9----------------|
 ------------------------------------------------------------|
 ------------------------------------------------------------|
 ------------------------------------------------------------|
   R
 ---------------8(12)--9p7------------------9--------9-------|
 ---(10)--7---7------------10p7---7---9(11)---9(11)----9(11)-|
 -----------8------------------------------------------------|
 ------------------------------------------------------------|
 ------------------------------------------------------------|
 ------------------------------------------------------------|
   R
 ------------------------------------------------------------|
 ---(9)--7--7--------7-------7-------7-7-------7-10p7------7-|
 --------------9(11)---9(11)---9(11)-----9(11)----------9----|
 ------------------------------------------------------------|
 ------------------------------------------------------------|
 ------------------------------------------------------------|
                        H.B..............
 ---7--------------------------------------------------------|
 ------11p7--7-10p7-7-7-9(11)--(11)(12)-----9p7~-\-----------|
 ----------------------------------------------------13(15)--|
 ------------------------------------------------------------|
 ------------------------------------------------------------|
 ------------------------------------------------------------|
                                                     let ring
 ------------------------------------------------------------|
 ---x--------------------------------------------------------|
 ---x--11--13(15)--11-11-13(15)-11-11-11-------11-11-13(15)--|
 ---x------------------------------------11p13---------------|
 ------------------------------------------------------------|
 ------------------------------------------------------------|
 ..................R.....
 ------------------------------------------------------------|
 ---14--------14-----------------14--------14-14-14----------|
 ------13(15)-------(13)--11-----11-13(15)----13-11---13(15)-|
 ----------------------------13------------------------------|
 ------------------------------------------------------------|
 ------------------------------------------------------------|

 -------------------14---------------------14----------------|
 ---14--------14-14-----14---14--------14--14-------14-------|
 ------13(15)----------------11-13(15)--------13(15)---13----|
 -----------------------13-----------------------------------|
 ------------------------------------------------------------|
 ------------------------------------------------------------|
                       R               R               R
 -------------------------------------------------------------|
 ---------14--------14-------14---------------14--------------|
 ---13(15)---13(15)-----(13)-11--13(15)--(13)-11-13(15)--(13--|
 -------------------------------------------------------------|
 -------------------------------------------------------------|
 -------------------------------------------------------------|
              R                            H.B...............
 ------------------------------------12-----------------------|
 ---14----------------14-----14-14-------17(19)---------------|
 ---11--13(15)--(13)--11-----11-11---------------------17(18--|
 -------------------------13----------------------------------|
 -------------------------------------------------------------|
 -------------------------------------------------------------|
 .............
 ---------------14--17(19)--17----14--17-------14-17---------|
 ----------------------------------------17(19)------17(19)--|
 ------------------------------------------------------------|
 ------------------------------------------------------------|
 ------------------------------------------------------------|
 ------------------------------------------------------------|
                            "Gone shootin"
 ------------------------------------------------------------|
 ---17p14----------------------------------------------------|
 ---------16-14~~~~~\----------------------------------------|
 ------------------------------------------------------------|
 ------------------------------------------------------------|
 ------------------------------------------------------------|

 outro solo
 ---2-x------------------------------------------------------|
 ---2-x-----------2------4--2-------2--x-x---------2---------|
 -----------2-3-4---2----4--2-------2--x-x---2-3-4---2(3)----|
 ---------4-----------4--------4-----------4--------------4--|
 ------------------------------------------------------------|
 ------------------------------------------------------------|

 -------------------------------------------------------------|
 ---4----------2-x----------2-----4-2-------2-x---------2-----|
 ---4--2-------2-x----2-3-4---2---4-2-------2-x---2-3-4---2---|
 --------4-4--------4-----------4-------4-------2-----------4-|
 -------------------------------------------------------------|
 -------------------------------------------------------------|

 ------------------------------------------------------------|
 ---4-2--2--x-x-x---------2-----4---x-x----------------------|
 ---4-2--2--x-x-x---2-3-4---2---4-2-x-x----------------------|
 -----------------4-----------4------------------------------|
 ------------------------------------------------------------|
 ------------------------------------------------------------|

 play Riff A1 and A2 x3

 ---2-x-x-0-0----------------------|
 ---2-x-x-2-0-4--------------------|
 -------------4--3-----2-x---------|
 ------------------4---------------|
 ----------------------------------|
 ----------------------------------|
 fade out
 -----------------------------------------|
 -----------------------------------------|
 -----------------------------------------|
 ---4--4-2-4--4--4-2-4--4-4--4-2-4--------|
 ---4--4----------------------------------|
 -----------------------------------------|


                                            Up To My Neck In You


 Intro:


E-----------|--------------------------|
B-----------|--------------------------|
G-----------|--2-----------------------| Play this
D--5--5--5--|--2--2--4--5--4--2--2--4--| 6 times.
A--5--5--5--|--0--0--0--0--0--0--0--0--|
E--3--3--3--|--------------------------|

Verse (1):


E-----------|--------------------------|
B-----------|--------------------------|
G-----------|--2-----------------------| Play this
D--5--5--5--|--2--2--4--5--4--2--2--4--| 6 times.
A--5--5--5--|--0--0--0--0--0--0--0--0--|
E--3--3--3--|--------------------------|

E-----------|--------------------------|
B-----------|--------------------------|
G--5--5--5--|--2--2--4--2--4--2--2--4--| Play this
D--5--5--5--|--0--0--0--0--0--0--0--0--| 2 times.
A--3--3--3--|--------------------------|
e-----------|--------------------------|

E-----------|--------------------------|
B-----------|--------------------------|
G--5--5--5--|--2-----------------------|
D--5--5--5--|--2--2--4--5--4--2--2--4--|
A--3--3--3--|--0--0--0--0--0--0--0--0--|
E-----------|--------------------------|

E-----------|--------------------------------|
B-----------|--------------------------------|
G-----------|--2-----------------------------|
D--5--5--5--|--2--2--4--5--4--2--2--4--5--4--|
A--5--5--5--|--0--0--0--0--0--0--0--0--0--0--|
E--3--3--3--|--------------------------------|

Chorus (1):


Guitar 1


E-------------------------|------------------|
B-------------------------|----3--3--3--3----|
G-------------------------|----2--2--2--2----|
D----2--2--2---2--2--2----|----0--0--0--0----|
A----2--2--2---2--2--2----|------------------|
E----0--0--0---0--0--0----|------------------|


Guitar 2


E------------------------------|
B------------------------------|
G------------------------------|
D----------------7--5--4--2----|
A----5--4--2--0----------------|
E------------------------------|


Verse (2):


E-----------|--------------------------|
B-----------|--------------------------|
G-----------|--2-----------------------| Play this
D--5--5--5--|--2--2--4--5--4--2--2--4--| 6 times.
A--5--5--5--|--0--0--0--0--0--0--0--0--|
E--3--3--3--|--------------------------|

E-----------|--------------------------|
B-----------|--------------------------|
G--5--5--5--|--2--2--4--2--4--2--2--4--| Play this
D--5--5--5--|--0--0--0--0--0--0--0--0--| 2 times.
A--3--3--3--|--------------------------|
e-----------|--------------------------|

E-----------|--------------------------|
B-----------|--------------------------|
G-----------|--2-----------------------|
D--5--5--5--|--2--2--4--5--4--2--2--4--|
A--5--5--5--|--0--0--0--0--0--0--0--0--|
E--3--3--3--|--------------------------|

E-----------|--------------------------------|
B-----------|--------------------------------|
G-----------|--2-----------------------------|
D--5--5--5--|--2--2--4--5--4--2--2--4--5--4--|
A--5--5--5--|--0--0--0--0--0--0--0--0--0--0--|
E--3--3--3--|--------------------------------|

Chorus (2):


Guitar 1


E-------------------------|------------------|
B-------------------------|----3--3--3--3----|
G-------------------------|----2--2--2--2----|
D----2--2--2---2--2--2----|----0--0--0--0----|
A----2--2--2---2--2--2----|------------------|
E----0--0--0---0--0--0----|------------------|


Guitar 2


E------------------------------|
B------------------------------|
G------------------------------|
D-------------7--5--4--2--0----|
A----5--4--2-------------------|
E------------------------------|


Solo:


Guitar 1


E-----------|--------------------------|
B-----------|--------------------------|
G-----------|--2-----------------------| Play this
D--5--5--5--|--2--2--4--5--4--2--2--4--| 6 times.
A--5--5--5--|--0--0--0--0--0--0--0--0--|
E--3--3--3--|--------------------------|

E-----------|--------------------------|
B-----------|--------------------------|
G--5--5--5--|--2--2--4--2--4--2--2--4--| Play this
D--5--5--5--|--0--0--0--0--0--0--0--0--| 2 times.
A--3--3--3--|--------------------------|
e-----------|--------------------------|

E-----------|--------------------------|
B-----------|--------------------------|
G--5--5--5--|--2-----------------------|
D--5--5--5--|--2--2--4--5--4--2--2--4--|
A--3--3--3--|--0--0--0--0--0--0--0--0--|
E-----------|--------------------------|

E-----------|--------------------------------|
B-----------|--------------------------------|
G-----------|--2-----------------------------|
D--5--5--5--|--2--2--4--5--4--2--2--4--5--4--|
A--5--5--5--|--0--0--0--0--0--0--0--0--0--0--|
E--3--3--3--|--------------------------------|

E-------------------------|------------------|
B-------------------------|----3--3--3--3----|
G-------------------------|----2--2--2--2----|
D----2--2--2---2--2--2----|----0--0--0--0----|
A----2--2--2---2--2--2----|------------------|
E----0--0--0---0--0--0----|------------------|

E-----------|--------------------------|
B-----------|--------------------------|
G-----------|--2-----------------------| Play this
D--5--5--5--|--2--2--4--5--4--2--2--4--| 6 times.
A--5--5--5--|--0--0--0--0--0--0--0--0--|
E--3--3--3--|--------------------------|

E-----------|--------------------------|
B-----------|--------------------------|
G--5--5--5--|--2--2--4--2--4--2--2--4--| Play this
D--5--5--5--|--0--0--0--0--0--0--0--0--| 2 times.
A--3--3--3--|--------------------------|
e-----------|--------------------------|

E-----------|--------------------------|
B-----------|--------------------------|
G-----------|--2-----------------------|
D--5--5--5--|--2--2--4--5--4--2--2--4--|
A--5--5--5--|--0--0--0--0--0--0--0--0--|
E--3--3--3--|--------------------------|

E-----------|--------------------------------|
B-----------|--------------------------------|
G-----------|--2-----------------------------|
D--5--5--5--|--2--2--4--5--4--2--2--4--5--4--|
A--5--5--5--|--0--0--0--0--0--0--0--0--0--0--|
E--3--3--3--|--------------------------------|

E-------------------------|----------3-3-3---|
B-------------------------|---3-3-3--3-3-3---|
G-------------------------|---2-2-2--0-0-0---|
D----2--2--2---2--2--2----|---0-0-0--0-0-0---|
A----2--2--2---2--2--2----|------------------|
E----0--0--0---0--0--0----|------------------|

E------------------|-------|-----------------|
B------------------|-------|-----------------|
G--2---------------|-------|-2---------------|
D--2-2-4-5-4-2-2-4-|-5-5-5-|-2-2-4-5-4-2-2-4-|
A--0-0-0-0-0-0-0-0-|-5-5-5-|-0-0-0-0-0-0-0-0-|
E------------------|-3-3-3-|-----------------|

Guitar 2


E-----------------------------|--------------|
B-----------------------------|--------------|
G-----------------------------|--------------|
D-10-7-7~--10-7-7~--10-7-7-7~-|-10b--12--10b-|
A-----------------------------|--------------|
E-----------------------------|--------------|

E--------------------------------------------|
B--------------------------------------------|
G--------------------------------------------|
D-12-10b--12-10b--12-10b--12-10b--12-10-7-7~-|
A--------------------------------------------|
E--------------------------------------------|

E------------------|-------------------------|
B---10-8-----------|---8-8-10-10-8-----------|
G-7------9-9-------|-7---7--7--7-7-----12\9--|
D------------10-7~-|---------------10--------|
A------------------|-------------------------|
E------------------|-------------------------|

E---------------|----------------------------|
B--8------8-----|--8------8-----8------8-----|
G--7------7-----|--7------7-----7------7-----|
D-----10----10--|-----10-----10----10-----10-|
A---------------|----------------------------|
E---------------|----------------------------|

E--------------------------------------------|
B---8-10-10---8-10-10----8-10-10---8-10-10---|
G---7--7--7---7--7--7----7--7--7---7--7--7---|
D--------------------------------------------|
A--------------------------------------------|
E--------------------------------------------|

E--------------------------------------------|
B---8-10-10---8-10-10----8-10-10---8-10-10---|
G---7--7--7---7--7--7----7--7--7---7--7--7---|
D--------------------------------------------|
A--------------------------------------------|
E--------------------------------------------|


E----------------------------|-------------------|
B----13-----------------8----|-13-12----13-12----|
G-14----14-12-----------7----|-------14-------14-|
D-------------14-12-10b---10-|-------------------|
A----------------------------|-------------------|
E----------------------------|-------------------|

E-------------|--------------|-------------------|
B-12----12-13-|--------12----|--13-12------------|
G----14-------|-12--------14-|---------14-12-----|
D-------------|----14--------|----------------14-|
A-------------|--------------|-------------------|
E-------------|--------------|-------------------|

E----------------------------|-------------------|
B----------------------------|-8-8-8-8--8-8-8-8--|
G----------------------------|-9-9-9-9--9-9-9-9--|
D-12-10-----12-10-----12-10~-|-------------------|
A-------12---------12--------|-------------------|
E----------------------------|-------------------|

E------------------------------------------------|
B--8-8-8-8--8-8-8-8--8-8-8-8--8-8-8-8--8-8-8-8---|
G--9-9-9-9--9-9-9-9--9-9-9-9--9-9-9-9--9-9-9-9---|
D------------------------------------------------|
A------------------------------------------------|
E------------------------------------------------|

E----------|-------------------------------------|
B--8-8-8-8-|---10~--12p10---10~-12p10---10\13b---|
G--9-9-9-9-|-------------------------------------|
D----------|-------------------------------------|
A----------|-------------------------------------|
E----------|-------------------------------------|

E----------------------|-------------------------|
B-10~-10-10~-10-10\13b-|-13b-13b-13b-13b-13b-13b-|
G----------------------|-------------------------|
D----------------------|-------------------------|
A----------------------|-------------------------|
E----------------------|-------------------------|

E-12-12-12-------------------|-------------------|
B----------13p10-13p10-13p10-|-------------------|
G----------------------------|--------12-14b-14b-|
D----------------------------|-12-14-------------|
A----------------------------|-------------------|
E----------------------------|-------------------|

E----------------------------|-------------------|
B-13-----------13------------|-14-14----14-14-14-|
G----14b----12----14b-12-14b-|-------14b---------|
D--------14------------------|-------------------|
A----------------------------|-------------------|
E----------------------------|-------------------|

E-15-12-12-15-12-12-|----------------------------|
B-------------------|-13-13--13-13--13-13--13----|
G-------------------|------14-----14-----14--14~-|
D-------------------|----------------------------|
A-------------------|----------------------------|
E-------------------|----------------------------|

E-------------------------------|------12--------|
B-14-14-14-14--14---------------|--14------14-14-|
G-14-14-14-14--14--17\14-14-14~-|-------------14-|
D-------------------------------|----------------|
A-------------------------------|----------------|
E-------------------------------|----------------|

E-----------------|------------------------------|
B-----------------|------------------------------|
G-14-11-14-14-14~-|-11-14-14--11-14-14--11-14-14-|
D-----------------|------------------------------|
A-----------------|------------------------------|
E-----------------|------------------------------|

E-------------------------|-17-15-17~--17-15-17~-|
B-------------------------|----------------------|
G-11-14-14--11-14-14--14\-|----------------------|
D-------------------------|----------------------|
A-------------------------|----------------------|
E-------------------------|----------------------|

E-----17---17---17---17---17~~--\--15------------|
B---------------------------------------17~~-----|
G------------------------------------------------|
D------------------------------------------------|
A------------------------------------------------|
E------------------------------------------------|


After the solo play:

- Verse (2)
- Chorus (2)
- Verse (2)
- Chorus (2)


Outro:


E-----------|--------------------------|
B-----------|--------------------------|
G-----------|--2-----------------------|
D--5--5--5--|--2--2--4--5--4--2--2--4--|
A--5--5--5--|--0--0--0--0--0--0--0--0--|
E--3--3--3--|--------------------------|

E-------|-----|------------------|-----|
B-------|-----|------------------|-----|
G-------|--2--|--7p5-------------|--2--|
D-5-5-5-|--2--|------7--5--------|--2--|
A-5-5-5-|--0--|-----------7-5----|--0--|
E-3-3-3-|-----|---------------5--|-----|


                                          Kicked in the teeth


 Intro Riff
 --------------------------|
 --------------------------|
 ---5-2-2-2----------------|
 ---5-2-2-2----------------|x2
 ---3-0-0-0----------------|
 --------------------------|

 Verse
 P.M.
 ------------------------|
 ------------------------|
 ---5---5-5-5---5-5-5----|
 -----7-------7----------|
 ------------------------|
 ------------------------|

 Play Intro Riff x14

 Riff A
 -------------3-------------|
 -------------3-------------|
 ---7------5--0---7-7-------|
 ---7------5--0---7-7-------|
 ---5------3------5-5-------|
 -------------3-------------|

 Play Intro Riff x4

 Play Riff A

 Next chords:
 D D  D D D A E E  E E  E E   E E   E E E

 Chorus
 ---------------------------------------------|
 --------3-----3-----3---1-1-1-1------13------|
 -------------------------------------14------|
 ---3/4-----4-----4------2-2-2-2--------------|
 ---------------------------------------------|
 ---------------------------------------------|

 ---------------------------------------------|
 ---13----15----13-15/17--15-----13-13-13\----|
 ---14----14----14-14/16--14-----14-14-14\----|
 ---------------------------------------------|
 ---------------------------------------------|
 ---------------------------------------------|

 ------------10-10-5-8-5\3-5-----0--------------|
 ---13(15)------------------8-7-8-8-7-5-5-------|
 --------------------------------------5--8p7p5-|
 -----------------------------------------------|
 -----------------------------------------------|
 -----------------------------------------------|
                       Hammer-on/pull-off...............................
 -------------5-5-3-5--5-3-0-5-3-0-5-3-0-5-3-0-5-3-0-5-3-0-5-3-0-5-3-0--|
 -----<7>---------------------------------------------------------------|
 ----5------------------------------------------------------------------|
 -7p5------2/-----------------------------------------------------------|
 -----------------------------------------------------------------------|
 -----------------------------------------------------------------------|

 ---5h8p5-5----------------------------------------10-------------------|
 --------8-8p5-5-------------10--13(15)--13(15)--------13(15)-13(15)-10-|
 -------------7-8-7-5-7-------------------------------------------------|
 ------------------------7----------------------------------------------|
 -----------------------------------------------------------------------|
 -----------------------------------------------------------------------|

 ------------------5----------5-5-8p5-5---------------------------------|
 ---13-10\---5-5-5----8(10)------------8p5-8p5----------8(10)---5-------|
 -----------------------------------------7---7p5-7-5-7----------7-5----|
 --------------------------------------------------7----------------7---|
 -----------------------------------------------------------------------|
 -----------------------------------------------------------------------|

 --------------------------- |-----|   --------------------------------------|
 ---20(22)---20(22)--20(22)- |-17--|   -17\-17-16-16-15-15-14-14-13-13-12-12-|
 --------------------------- |-17--|   -17\-17-16-16-15-15-14-14-13-13-12-12-|
 --------------------------- |-----|x28--------------------------------------|
 --------------------------- |-----|   --------------------------------------|
 --------------------------- |-----|   --------------------------------------|

 ---------------------------------------------5-5-5-5-5-5-5-5-5-5-5-5-5-5-|
 ---11-11-10-10-9-9-7-7-5-----------5-------------------------------------|
 ---11-11-10-10-9-9-7-7-5-----------5---------6-6-7-7-7-7-6-6-6-6-7-7-6-6-|
 ---------------------------7---7------7-7--7-----------------------------|
 -------------------------------------------------------------------------|
 -------------------------------------------------------------------------|

 ---5-5-5-5-5-5-5-5-5-5-5-5-5\--------------------------------------------|
 ------------------------------5--------5-------------------------------5-|
 ---6-6-6-6-7-7-7-7-6-6-6-6-6\-5--------5----------7p5p0-7-5------------5-|
 ---------------------------------7--7------7--7--7---------7-5-----------|
 ------------------------------------------------------------7--7\--3/----|
 -----------------------------------------------------------------0-------|

                 *As you tremolo pick slowly slide down the fret-board
 ---------------------------------------------*----------------------------|
 -------5-------------------------------------/----------------------------|
 -------5-----------0-------------------------/----------------------------|
 ---7-7---7-7-7-7-0--0------------------------/----------------------------|
 ----------------------7-0-5-0-3-0-0-0-0-0---<0>---------------------------|
 ---------------------------------------------/----------------------------|

 ---/-------/------/--------------------------------------------------------|
 ---/-------/------/--------------------------------------------------------|
 ---/-------/------/--------------------------------------------------------|
 ---/-------/------/--------------------------------------------------------|
 ---3-------6------5--9-9-9-9-7-7-7-7-10-10-10-10-9-9-9-9-12-12-10-10-13-13-|
 ---/-------/------/--------------------------------------------------------|

 ---------------------------------------------------------------------------|
 ---------------------------------------------------------------------------|
 ---------------------------------------------------------------------------|
 ---------------------------10--10-12-10-12-14-12-14-11-14-11-14-11-16--/16-|
 -12-13-12-10-12-13-12-10-12--12----------------------------------------/15-|
 ---------------------------------------------------------------------------|

 Play Intro Riff x6

 End in Ad lib solo
comments
print report bad tab
9 comments total. Showing first comments.
0 reply
Voytazz wrote on August 19 2005, 12:00 am

Mistakes in Riff Raff and Whats Next to the moon....

0 reply
Voytazz wrote on August 19 2005, 12:00 am

My tab of Up to my neck in you was copied!

0 reply
anti-christ/dc wrote on September 19 2005, 12:00 am

riff raff is correct, watch angus play it

I want to post or [tab]
guest
You may want to rate the tab now too:
select rating
Please do not post tabs as comments. Select "correction" instead!