Oops, an error
Loading. Please wait.

Rising Power Tab

ver1
ver1

Whole song

More versions @911Tabs.com
5,330 views 12 this week
1 commentread comment
1 2 3 4 5
accurate
x 7
add to favorites launch autoscroll
font size
0
reset
Autoscroll
+/-
esc
set tempo
stop
WARNING: You are trying to view
                                    content from Ultimate-Guitar.com
                                    in an unauthorized application,
                                    which is prohibited.

                                    Please use an official Ultimate
                                    Guitar Tabs application for iPhone,
                                    iPad or Android to access legitimate
                                    chords, guitar, bass, and drum tabs
                                    from Ultimate-Guitar.com database.

                                    Type "ultimate guitar tabs" in Apple
                                    App Store's or Android Market's
                                    search to find the application.
-----------------------------------------------------------------------------             
                             RISING POWER - AC/DC
-----------------------------------------------------------------------------
 
Tuning: E,A,D,G,B,E 

e|---------------|
B|---------------|
G|---------------| Angus
D|---------------|
A|---------------|
E|---------------|
 |
E|---------------|
B|---------------|
G|---------------| Malcolm 
D|---------------|
A|---------------|
E|---------------|

Intro Riff

e|-----------------------------------|
B|-----------------------------------|
G|-----4------------4-4----2-2---4---|
D|-----4------------4-4----2-2-5-4---|
A|-5p2-2--------5p2-2-2----0-0-5-2---|
E|-----------------------------------|
 |                                     x4
e|-----------------------------------|
B|-----------------------------------|
G|-----4------------4-4----2-2-0-4---|
D|-----4------------4-4----2-2-0-4---|
A|-5p2-2--------5p2-2-2----0-0-x-2---|
E|-----------------------------------|

Verse 

e|-----------------------------------|
B|-----------------------------------|
G|-----4------------4-4----2-2---4---|
D|-----4------------4-4----2-2-5-4---|
A|-5p2-2--------5p2-2-2----0-0-5-2---|
E|-----------------------------------|
 |                                     x4
e|-----------------------------------|
B|-----------------------------------|
G|-----4------------4-4----2-2-0-4---|
D|-----4------------4-4----2-2-0-4---|
A|-5p2-2--------5p2-2-2----0-0-x-2---|
E|-----------------------------------| 

Pre-Chorus 

e|----------------------------|
B|----------------------------|
G|-2-2-0-2--------------------|
D|-2-2-0-2--------2-2-0-2-----|
A|-0-0-0-0--------2-2-0-2-----|
E|----------------0-0-0-0-----|
 |
e|----------------------------|
B|----------------------------|
G|-2-2-0-2--------------------|
D|-2-2-0-2-------2-2-0-2------|
A|-0-0-x-0-------2-2-0-2------|
E|---------------0-0-0-0------|

e|-----------------|
B|-----------------|
G|-1---1-1-1-1-1-1-|
D|-2---2-2-2-2-2-2-|
A|-2---2-2-2-2-2-2-|
E|-0---0-0-0-0-0-0-|
 |
e|-----------------|
B|-----------------|
G|-----------------|
D|-2---2-2-2-2-2-2-|
A|-2---2-2-2-2-2-2-|
E|-0---0-0-0-0-0-0-|

Chorus 

e|----------------------------|
B|-------3--------------------|
G|-4-----2-----2--------------|
D|-4---2-0-----2------2-2-----|
A|-2---0-------0------0-2-----|
E|---------------3------0-----|
 |
e|----------------------------|
B|-------3--------------------|
G|-4-----2-----2--------------|
D|-4---2-0-----2------2-2-----|
A|-2---0-------0------0-2-----|
E|---------------3------0-----|
                                x2 
e|----------------------------|
B|-------3--------------3-----|
G|-4-----2-----2--------2-----|
D|-4---2-0-----2------2-0-----|
A|-2---0-------0------0-------|
E|---------------3------------|
 |
e|----------------------------|
B|-------3--------------3-----|
G|-4-----2-----2--------2-----|
D|-4---2-0-----2------2-0-----|
A|-2---0-------0------0-------|
E|---------------3------------|

Verse 

e|-------------------------------|
B|-------------------------------|
G|-4------------4-4----2-2---4---|
D|-4------------4-4----2-2-5-4---|
A|-2--------5p2-2-2----0-0-5-2---|
E|-------------------------------|
 |
e|-------------------------------|
B|-------------------------------|
G|-4------------4-4----2-2-0-4---|
D|-4------------4-4----2-2-0-4---|
A|-2--------5p2-2-2----0-0-x-2---|
E|-------------------------------|


e|-----------------------------------|
B|-----------------------------------|
G|-----4------------4-4----2-2---4---|
D|-----4------------4-4----2-2-5-4---|
A|-5p2-2--------5p2-2-2----0-0-5-2---|
E|-----------------------------------|
 |                                     x3
e|-----------------------------------|
B|-----------------------------------|
G|-----4------------4-4----2-2-0-4---|
D|-----4------------4-4----2-2-0-4---|
A|-5p2-2--------5p2-2-2----0-0-x-2---|
E|-----------------------------------| 

Pre-Chorus 

e|----------------------------|
B|----------------------------|
G|-2-2-0-2--------------------|
D|-2-2-0-2--------2-2-0-2-----|
A|-0-0-0-0--------2-2-0-2-----|
E|----------------0-0-0-0-----|
 |
e|----------------------------|
B|----------------------------|
G|-2-2-0-2--------------------|
D|-2-2-0-2-------2-2-0-2------|
A|-0-0-x-0-------2-2-0-2------|
E|---------------0-0-0-0------|

e|-----------------|
B|-----------------|
G|-1---1-1-1-1-1-1-|
D|-2---2-2-2-2-2-2-|
A|-2---2-2-2-2-2-2-|
E|-0---0-0-0-0-0-0-|
 |
e|-----------------|
B|-----------------|
G|-----------------|
D|-2---2-2-2-2-2-2-|
A|-2---2-2-2-2-2-2-|
E|-0---0-0-0-0-0-0-|

Chorus 

e|----------------------------|
B|-------3--------------------|
G|-4-----2-----2--------------|
D|-4---2-0-----2------2-2-----|
A|-2---0-------0------0-2-----|
E|---------------3------0-----|
 |
e|----------------------------|
B|-------3--------------------|
G|-4-----2-----2--------------|
D|-4---2-0-----2------2-2-----|
A|-2---0-------0------0-2-----|
E|---------------3------0-----|
                                x2 
e|----------------------------|
B|-------3--------------3-----|
G|-4-----2-----2--------2-----|
D|-4---2-0-----2------2-0-----|
A|-2---0-------0------0-------|
E|---------------3------------|
 |
e|----------------------------|
B|-------3--------------3-----|
G|-4-----2-----2--------2-----|
D|-4---2-0-----2------2-0-----|
A|-2---0-------0------0-------|
E|---------------3------------|

Bridge Guitar Solo 

Angus (Overdub) 

e|------------------------------------|
B|------------------------------------|
G|-------------------9-7-9------------|
D|---7-9~~~---7~~~-9-------9-7h9p7~~~-|
A|-9----------------------------------|
E|------------------------------------|
   
               +  + +
e|------------------------------------------------|
B|-10-10h12---10-10----------12-10----------------|
G|------------------9b11r~~~-------7b-------------|
D|------------------------------------9-7-9~~~~~--|
A|------------------------------------------------|
E|------------------------------------------------|

e|-----------------------10-12-14-12-12-10b-------|
B|-12-12~~~~----------12--------------------12~~~-|
G|--------------11-13-----------------------------|
D|------------------------------------------------|
A|------------------------------------------------|
E|------------------------------------------------|

                         Pickslide 
e|-10-10--------------------|
B|-15-15-15-----12-12~------|
G|-----------------------x\-|
D|-----------------------x\-|
A|--------------------------|
E|--------------------------|

Angus and Malcolm (Under solo)

e|-------------------------------|
B|-------------------------------|
G|-4------------4-4----2-2---4---|
D|-4------------4-4----2-2-5-4---|
A|-2--------5p2-2-2----0-0-5-2---|
E|-------------------------------|
 |
e|-------------------------------|
B|-------------------------------|
G|-4------------4-4----2-2-0-4---|
D|-4------------4-4----2-2-0-4---|
A|-2--------5p2-2-2----0-0-x-2---|
E|-------------------------------|


e|-----------------------------------|
B|-----------------------------------|
G|-----4------------4-4----2-2---4---|
D|-----4------------4-4----2-2-5-4---|
A|-5p2-2--------5p2-2-2----0-0-5-2---|
E|-----------------------------------|
 |                                     x2
e|-----------------------------------|
B|-----------------------------------|
G|-----4------------4-4----2-2-0-4---|
D|-----4------------4-4----2-2-0-4---|
A|-5p2-2--------5p2-2-2----0-0-x-2---|
E|-----------------------------------| 

e|----------------------------------------|
B|----------------------------------------|
G|-----4------------4-4------444-000-2-2--|
D|-----4------------4-4------444-000-2-2--|
A|-5p2-2--------5p2-2-2------222-xxx-0-0--|
E|-------------------------------333------|
 |
e|----------------------------------------|
B|----------------------------------------|
G|-----4------------4-4------444-000-2-2--|
D|-----4------------4-4------444-000-2-2--|
A|-5p2-2--------5p2-2-2------222-xxx-0-0--|
E|-------------------------------333------|

Main Guitar Solo 

Angus (Overdub) 

              Hold bend
e|-------------------------------------------|
B|---10~~~~---------10-----------------------|
G|-9b11~~~~----------9-----7---9---7b--------|
D|---------------------------9---9-----9~~~--|
A|-------------------------------------------|
E|-------------------------------------------|

e|------------------------------------------|
B|---------------------------12----10b12~~~-|
G|-7-7----------7b~~~-7-9-9-----------------|
D|-------9-9~~~-----------------------------|
A|------------------------------------------|
E|------------------------------------------|

e|----------------------------------------|
B|-10b12~~~-10-12~~~~12~~-10-12-10b12~~~--|
G|----------------------------------------|
D|----------------------------------------|
A|----------------------------------------|
E|----------------------------------------|

e|----------------------------------|
B|-12p10----10----------------------|
G|-------11----11p9-----------------|
D|------------------12-19~~~---12b--|
A|----------------------------------|
E|----------------------------------|

E|-----------------------17-------|-/17-------------|
B|-------15-17-17-17-17b---17b~~~-|-----22b24~~~~~~-|
G|-14-16--------------------------|-----------------|
D|--------------------------------|-----------------|
A|--------------------------------|-----------------|
E|--------------------------------|-----------------|

Angus and Malcolm (Under solo)

e|----------------------------------|
B|-------3--------------------------|
G|-4-----2-----2-------444-000-2-2--|
D|-4---2-0-----2-------444-000-2-2--|
A|-2---0-------0-------222-xxx-0-0--|
E|-------------------------333------|
 |                                    x4 
e|----------------------------------|
B|-------3--------------------------|
G|-4-----2-----2-------444-000-2-2--|
D|-4---2-0-----2-------444-000-2-2--|
A|-2---0-------0-------222-xxx-0-0--|
E|-------------------------333------|

Pre-Chorus 

e|----------------|
B|----------------|
G|-2-2-0-2--------|
D|-2-2-0-2--------|
A|-0-0-0-0--------|
E|----------------|
 |
e|----------------|
B|----------------|
G|-2-2-0-2--------|
D|-2-2-0-2--------|
A|-0-0-x-0--------|
E|----------------|

e|-----------------|
B|-----------------|
G|-1---1-1-1-1-1-1-|
D|-2---2-2-2-2-2-2-|
A|-2---2-2-2-2-2-2-|
E|-0---0-0-0-0-0-0-|
 |
e|-----------------|
B|-----------------|
G|-----------------|
D|-2---2-2-2-2-2-2-|
A|-2---2-2-2-2-2-2-|
E|-0---0-0-0-0-0-0-|

Chorus 

e|----------------------------|
B|-------3--------------------|
G|-4-----2-----2--------------|
D|-4---2-0-----2------2-2-----|
A|-2---0-------0------0-2-----|
E|---------------3------0-----|
 |
e|----------------------------|
B|-------3--------------------|
G|-4-----2-----2--------------|
D|-4---2-0-----2------2-2-----|
A|-2---0-------0------0-2-----|
E|---------------3------0-----|
                                x2 
e|----------------------------|
B|-------3--------------3-----|
G|-4-----2-----2--------2-----|
D|-4---2-0-----2------2-0-----|
A|-2---0-------0------0-------|
E|---------------3------------|
 |
e|----------------------------|
B|-------3--------------3-----|
G|-4-----2-----2--------2-----|
D|-4---2-0-----2------2-0-----|
A|-2---0-------0------0-------|
E|---------------3------------|

Guitar Solo 2 

Angus (Overdub) 

E|----------------------12b-|
B|---12-12~12-12--12-12-----|
G|--------------------------|
D|--------------------------|
A|--------------------------|
E|--------------------------|

E|-10b----------------10-12-12b--------|
B|-----12-10~~~----12-------------12~~-|
G|--------------11---------------------|
D|-------------------------------------|
A|-------------------------------------|
E|-------------------------------------|

E|------------------------7------------|
B|-12-12~~~12p10~~~-10b12---10b12~~~~--|
G|-------------------------------------|
D|-------------------------------------|
A|-------------------------------------|
E|-------------------------------------|

E|---------------12--12b-12b-12b--12b-|
B|-12---12-15-15----------------------|
G|------------------------------------|
D|------------------------------------|
A|------------------------------------|
E|------------------------------------|

E|-12----12-14-14-12----------------|
B|----15------------15b-------------|
G|-----------------------16-16~~~---|
D|----------------------------------|
A|----------------------------------|
E|----------------------------------|

E|------------------------------------|
B|-15b17---15b17~~~--15p14------------|
G|-------------------------16~~~~-----|
D|------------------------------------|
A|------------------------------------|
E|------------------------------------|

Angus and Malcolm (Under solo)

e|----------------------------------|
B|-------3--------------------------|
G|-4-----2-----2-------444-000-2-2--|
D|-4---2-0-----2-------444-000-2-2--|
A|-2---0-------0-------222-xxx-0-0--|
E|-------------------------333------|
 |                                    x4 Gradually decrease tempo 
e|----------------------------------|
B|-------3--------------------------|
G|-4-----2-----2-------444-000-2-2--|
D|-4---2-0-----2-------444-000-2-2--|
A|-2---0-------0-------222-xxx-0-0--|
E|-------------------------333------|

Outro Lick

E|-------------------------------------------|
B|-12~~~~~12-10----12-10----10---------------|
G|--------------11-------11----11------------|
D|--------------------------------12h14p12~~~|
A|-------------------------------------------|
E|-------------------------------------------|

E|----|
B|----|
G|----|
D|-9\-| 
A|-9\-|
E|-7\-|
 |
E|----|
B|----|
G|----|
D|-9\-|
A|-9\-|
E|-7\-|

============================================================================
| /  slide up                                                                  
| \  slide down                                                                  
| h  hammer-on
| p  pull-off
| ~  vibrato
| +  pinch harmonic
| x  Mute note
============================================================================
1 comment total.
0 reply
80'smetaladdict wrote on July 21 2008, 11:42 pm

dude dead on perfect so was This House Is On Fire

Please Make More.

-Garian

I want to post or [tab]
guest
You may want to rate the tab now too:
select rating
Please do not post tabs as comments. Select "correction" instead!