Oops, an error
Loading. Please wait.

Rock N Roll Train Tab

ver3
ver3
More versions @911Tabs.com
37,347 views 15 this week
1 commentread comment
1 2 3 4 5
excellent!
x 5
Autoscroll
+/-
esc
set tempo
stop
Contributor
Hey! There's an official Ultimate Guitar app which is ideal
for learning songs when you're away from computer. Get the app
WARNING: You are trying to view
                                    content from Ultimate-Guitar.com
                                    in an unauthorized application,
                                    which is prohibited.

                                    Please use an official Ultimate
                                    Guitar Tabs application for iPhone,
                                    iPad or Android to access legitimate
                                    chords, guitar, bass, and drum tabs
                                    from Ultimate-Guitar.com database.

                                    Type "ultimate guitar tabs" in Apple
                                    App Store's or Android Market's
                                    search to find the application.
#----------------------------------PLEASE NOTE---------------------------------#
#This file is the author's own work and represents their interpretation of the #
#song. You may only use this file for private study, scholarship, or research. #
#------------------------------------------------------------------------------#

ROCK 'N ROLL TRAIN
As recorded by AC/DC
(From the 2008 Album BLACK ICE)

Transcribed by Adam Perlmutter
        

Words and Music by Angus Young, Malcolm Young, and Brian Johnson

Gtr I (E A D G B E) - 'Distortion'
Gtr II (E A D G B E) - 'Distortion 2'
Gtr III (E A D G B E) - 'Distortion 3'

 Intro
  Moderately Q=119
 4/4
  Gtr I
  E E E E +E  E Q    E E E E E E E E   E E E E H
|------------------|---3-3-3-3-------|--------------|
|---3---3-(3)-3----|-3-3-3-3-3-3-3-3-|-3------------|
|-2-2-2-2-(2)-2----|-2-0-0-0-0-2-2-2-|-2-2-2-2------|
|-2-0-2-0-(0)-0----|-0-0-0-0-0-0-0-0-|-0-2-2-2------|
|-0-0-0-0-(0)-0----|-0---------------|---0-0-0------|
|------------------|---3-3-3-3-------|--------------|


                                        1.,2.
    E E E E +E  E Q    E E E E E E E E   E E E E +H
||-------------------|---3-3-3-3-------|-----------------||
||o---3---3-(3)-3----|-3-3-3-3-3-3-3-3-|-3--------------o||
||--2-2-2-2-(2)-2----|-2-0-0-0-0-2-2-2-|-2-2-2-2-(2)-----||
||--2-0-2-0-(0)-0----|-0-0-0-0-0-0-0-0-|-0-2-2-2-(2)-----||
||o-0-0-0-0-(0)-0----|-0---------------|---0-0-0-(0)----o||
||-------------------|---3-3-3-3-------|-----------------||
|
|   Gtr II
|   E E E E +E  E Q    E E E E E E E E   E E E E +H
||-------------------|---3-3-3-3-------|-----------------||
||o---3---3-(3)-3----|---3-3-3-3-3-3-3-|-3--------------o||
||--2-2-2-2-(2)-2----|---0-0-0-0-2-2-2-|-2-2-2-2-(2)-----||
||--2-0-2-0-(0)-0----|---0-0-0-0-0-0-0-|-0-2-2-2-(2)-----||
||o-0-0-0-0-(0)-0----|-----------------|---0-0-0-(0)----o||
||-------------------|---3-3-3-3-------|-----------------||


  3.
  E E E E +H       +W
|----------------|--------||
|-3--------------|--------||
|-2-2-2-2-(2)----|-(2)----||
|-0-2-2-2-(2)----|-(2)----||
|---0-0-0-(0)----|-(0)----||
|----------------|--------||


   1st Verse
    E E E E +E  E Q    W          E E E E +E  E Q    W
||-------------------|----------|------------------|-------||
||o---3---3-(3)-3----|----------|---3---3-(3)-3----|------o||
||--2-2-2-2-(2)-2----|----------|-2-2-2-2-(2)-2----|-------||
||--2-4-2-4-(4)-4----|----------|-2-4-2-4-(4)-4----|-------||
||o-0-0-0-0-(0)-0----|----------|-0-0-0-0-(0)-0----|------o||
||-------------------|----------|------------------|-------||


 Pre-Chorus
  E E E E E E E E   E E E E H      E E E E E E E E   E E E E H
|-----------------|--------------|-----------------|--------------|
|-3-5-5-1-1-3-3---|--------------|-3-5-5-1-1-3-3---|--------------|
|-2-2-2-0-0-0-0-0-|-0-2-0-2------|-2-2-2-0-0-0-0-0-|-0-2-0-2------|
|---------------0-|-0-0-0-0------|---------------0-|-0-0-0-0------|
|-----------------|--------------|-----------------|--------------|
|-----------------|--------------|-----------------|--------------|
|
| Gtr II
| E E E E E E E E   E E E E H      E E E E E E E E   E E E E H
|-----------------|--------------|-----------------|--------------|
|-----------------|--------------|-----------------|--------------|
|---------------0-|-0-2-0-2------|---------------0-|-0-2-0-2------|
|-0-2-2---------0-|-0-0-0-0------|-0-2-2---------0-|-0-0-0-0------|
|-0-0-0-3-3-5-5---|--------------|-0-0-0-3-3-5-5---|--------------|
|-------3-3-3-3---|--------------|-------3-3-3-3---|--------------|


  E E E E E E E E   E E E E H      E E E E E E E E
|-----------------|--------------|-----------------|
|-3-5-5-1-1-3-3---|--------------|-3-5-5-1-1-3-3---|
|-2-2-2-0-0-0-0-0-|-0-2-0-2------|-2-2-2-0-0-0-0-0-|
|---------------0-|-0-0-0-0------|---------------0-|
|-----------------|--------------|-----------------|
|-----------------|--------------|-----------------|
|
| E E E E E E E E   E E E E H      E E E E E E E E
|-----------------|--------------|-----------------|
|-----------------|--------------|-----------------|
|---------------0-|-0-2-0-2------|---------------0-|
|-0-2-2---------0-|-0-0-0-0------|-0-2-2---------0-|
|-0-0-0-3-3-5-5---|--------------|-0-0-0-3-3-5-5---|
|-------3-3-3-3---|--------------|-------3-3-3-3---|


  E E E E  E  E E E   E E E E E E E E
|-------------------|-----------------||
|-3-3-3-3--3--3-3-3-|-3-3-3-3-3-3-3---||
|-2-2-2-2--2--2-2-2-|-2-2-2-2-2-2-2---||
|-0-0-0-0--0--0-0-0-|-0-0-0-0-0-0-0-0-||
|-------------------|---------------0-||
|-------------------|-----------------||
|
| E E E E +E  E E E   E E E E E E E E
|-------------------|-----------------||
|-3-3-3-3-(3)-3-3-3-|-3-3-3-3-3-3-3---||
|-2-2-2-2-(2)-2-2-2-|-2-2-2-2-2-2-2---||
|-0-0-0-0-(0)-0-0-0-|-0-0-0-0-0-0-0-0-||
|-------------------|---------------0-||
|-------------------|-----------------||


 Chorus
  Gtrs I, II
  E E E E +E  E E E   E E E E E E E E   E E E E +H       E E E E +E  E E E
|-------------------|---3-3-3-3-------|----------------|-------------------|
|---3---3-(3)-3-3-3-|-3-3-3-3-3-3-3-3-|-3--------------|---3---3-(3)-3-3-3-|
|-2-2-2-2-(2)-2-2-2-|-2-0-0-0-0-2-2-2-|-2-2-2-2-(2)----|-2-2-2-2-(2)-2-2-2-|
|-2-0-2-0-(0)-0-0-0-|-0-0-0-0-0-0-0-0-|-0-2-2-2-(2)----|-2-0-2-0-(0)-0-0-0-|
|-0-0-0-0-(0)-0-0-0-|-0---------------|---0-0-0-(0)----|-0-0-0-0-(0)-0-0-0-|
|-------------------|---3-3-3-3-------|----------------|-------------------|


  E E E E E E E E   E E E E +H       E E E E +E  E E E   E E E E E E E E
|---3-3-3-3-------|----------------|-------------------|---3-3-3-3-------|
|-3-3-3-3-3-3-3-3-|-3--------------|---3---3-(3)-3-3-3-|-3-3-3-3-3-3-3-3-|
|-2-0-0-0-0-2-2-2-|-2-2-2-2-(2)----|-2-2-2-2-(2)-2-2-2-|-2-0-0-0-0-2-2-2-|
|-0-0-0-0-0-0-0-0-|-0-2-2-2-(2)----|-2-0-2-0-(0)-0-0-0-|-0-0-0-0-0-0-0-0-|
|-0---------------|---0-0-0-(0)----|-0-0-0-0-(0)-0-0-0-|-0---------------|
|---3-3-3-3-------|----------------|-------------------|---3-3-3-3-------|


  E E E E +H       E E E E +E  E E E   E E E E E E E E
|----------------|-------------------|---3-3-3-3-------|
|-3--------------|---3---3-(3)-3-3-3-|-3-3-3-3-3-3-3-3-|
|-2-2-2-2-(2)----|-2-2-2-2-(2)-2-2-2-|-2-0-0-0-0-2-2-2-|
|-0-2-2-2-(2)----|-2-4-2-4-(4)-4-4-4-|-4-0-0-0-0-0-0-0-|
|---0-0-0-(0)----|-0-0-0-0-(0)-0-0-0-|-0---------------|
|----------------|-------------------|---3-3-3-3-------|


  E E E E +H       +W           +W
|----------------|------------|--------||
|-3--------------|------------|--------||
|-2-2-2-2-(2)----|-(2)--------|-(2)----||
|-0-2-2-2-(2)----|-(2)--------|-(2)----||
|---0-0-0-(0)----|-(0)--------|-(0)----||
|----------------|------------|--------||


 2nd Verse
  Gtr I
  E E E E +E  E Q    W          E E E E +E  E Q    W
|------------------|----------|------------------|------|
|---3---3-(3)-3----|----------|---3---3-(3)-3----|------|
|-2-2-2-2-(2)-2----|----------|-2-2-2-2-(2)-2----|------|
|-2-4-2-4-(4)-4----|----------|-2-4-2-4-(4)-4----|------|
|-0-0-0-0-(0)-0----|----------|-0-0-0-0-(0)-0----|------|
|------------------|----------|------------------|------|


  Gtrs I, II
  E E E E +E  E Q    W          E E E E +E  E Q    W
|------------------|----------|------------------|------||
|---3---3-(3)-3----|----------|---3---3-(3)-3----|------||
|-2-2-2-2-(2)-2----|----------|-2-2-2-2-(2)-2----|------||
|-2-4-2-4-(4)-4----|----------|-2-4-2-4-(4)-4----|------||
|-0-0-0-0-(0)-0----|----------|-0-0-0-0-(0)-0----|------||
|------------------|----------|------------------|------||


 Pre-Chorus
  Gtr I
  E E E E E E E E   E E E E H      E E E E E E E E   E E E E H
|-----------------|--------------|-----------------|--------------|
|-3-5-5-1-1-3-3---|--------------|-3-5-5-1-1-3-3---|--------------|
|-2-2-2-0-0-0-0-0-|-0-2-0-2------|-2-2-2-0-0-0-0-0-|-0-2-0-2------|
|---------------0-|-0-0-0-0------|---------------0-|-0-0-0-0------|
|-----------------|--------------|-----------------|--------------|
|-----------------|--------------|-----------------|--------------|


  E E E E E E E E   E E E E H      E E E E E E E E
|-----------------|--------------|-----------------|
|-3-5-5-1-1-3-3---|--------------|-3-5-5-1-1-3-3---|
|-2-2-2-0-0-0-0-0-|-0-2-0-2------|-2-2-2-0-0-0-0-0-|
|---------------0-|-0-0-0-0------|---------------0-|
|-----------------|--------------|-----------------|
|-----------------|--------------|-----------------|


  E E E E E E E E   E E E E E E E E
|-----------------|-----------------||
|-3-3-3-3-3-3-3-3-|-3-3-3-3-3-3-3---||
|-2-2-2-2-2-2-2-2-|-2-2-2-2-2-2-2---||
|-0-0-0-0-0-0-0-0-|-0-0-0-0-0-0-0-0-||
|-----------------|---------------0-||
|-----------------|-----------------||


   Chorus
    Gtrs I, II
    E E E E +E  E E E   E E E E E E E E
||--------------------|---3-3-3-3-------|
||o---3---3-(3)-3-3-3-|-3-3-3-3-3-3-3-3-|
||--2-2-2-2-(2)-2-2-2-|-2-0-0-0-0-2-2-2-|
||--2-0-2-0-(0)-0-0-0-|-0-0-0-0-0-0-0-0-|
||o-0-0-0-0-(0)-0-0-0-|-0---------------|
||--------------------|---3-3-3-3-------|


  E E E E +H      3x E E E E +E  E E E
|-----------------||--------------------|
|-3--------------o||---3---3-(3)-3-3-3--|
|-2-2-2-2-(2)-----||-2-2-2-2-(2)-2-2-2--|
|-0-2-2-2-(2)-----||-2-0-2-0-(0)-0-0-0--|
|---0-0-0-(0)----o||-0-0-0-0-(0)-0-0-0--|
|-----------------||--------------------|


                       Guitar Solo
  Gtr III
      TP                                   ~~~
                                  |--3--|
  Q   H        E E      +E  E     E E   E  Q   E E
|--------------------||----------------------------|
|--------------------||----------------------------|
|----------------7b9-||-(7)-5b5.5---5------------5-|
|--------------------||-----------7-----4--7-----5-|
|-----x\-------------||------------------------7---|
|-----x\-------------||----------------------------|
|
| Gtrs I, II
| E E E  E E E E E       E  E     E   E   +H
|---3-3--3-3---------||----------------------------|
|-3-3-3--3-3-3-3-3---||--3-------------------------|
|-2-0-0--0-0-2-2-2---||--2--2-----2---2---(2)------|
|-0-0-0--0-0-0-0-0---||--0--2-----2---2---(2)------|
|-0------------------||-----0-----0---0---(0)------|
|---3-3--3-3---------||----------------------------|


                   ~~~~~~~~~~~~~~~      ~     PM|
  E.    E.    E   +H          +Q    S S Q     S S Q
|---------------------------|-------------------------|
|---------------------------|-------------------------|
|-7b9---7b9---7b9-(7)-------|-(7)---8p5-------x-x-5---|
|---------------------------|-----------7-----x-x-5---|
|---------------------------|-------------------------|
|---------------------------|-------------------------|
|
| E   E     E E    E  E E E    E  E E   E +H
|-3---3-----3-3----3--------|-------------------------|
|-3---3-----3-3----3--3-3-3-|--3----------------------|
|-0---0-----0-0----0--2-2-2-|--2--2-2---2-(2)---------|
|-0---0-----0-0----0--0-0-0-|--0--2-2---2-(2)---------|
|---------------------------|-----0-0---0-(0)---------|
|-3---3-----3-3----3--------|-------------------------|


                                                       ~~
  E S S S S  S S S E.   +E      +E    E     +E  E      Q      +E   E  E
|------------------8----(8)b8.5-(8)-|-8b8.5-(8)-8b8.5----------------12------|
|-------8---10---8------------------|-----------------10-----(10)\---13b13.5-|
|---8-9---9----9--------------------|----------------------------------------|
|-----------------------------------|----------------------------------------|
|-----------------------------------|----------------------------------------|
|-----------------------------------|----------------------------------------|
|
| E E   E    E   E    E  E       E    E      E  E      E +H
|-3-3---3----3---3------------------|----------------------------------------|
|-3-3---3----3---3----3--3-------3--|-3--------------------------------------|
|-0-0---0----0---0----2--2-------2--|-2------2--2------2-(2)-----------------|
|-0-0---0----0---0----0--0-------0--|-0------2--2------2-(2)-----------------|
|-----------------------------------|--------0--0------0-(0)-----------------|
|-3-3---3----3---3------------------|----------------------------------------|


   +Q     Q         Q         Q
|-(12)---12--------12--------12--------|
|-(13)---13b13.5---13b13.5---13b13.5---|
|--------------------------------------|
|--------------------------------------|
|--------------------------------------|
|--------------------------------------|
|
|   E  E  E      E  E      E  E      E
|---3--3--3------3--3------------------|
|---3--3--3------3--3------3--3------3-|
|---0--0--0------0--0------2--2------2-|
|---0--0--0------0--0------0--0------0-|
|--------------------------------------|
|---3--3--3------3--3------------------|


                    ~~~~~~~~~~~~~~~~~
   E     +S   S  E  E  +H        +W
|-----------------------------|-------------|
|-15b16r(15)p13---------------|-------------|
|---------------14-14-(14)----|-(14)--------|
|-----------------------------|-------------|
|-----------------------------|-------------|
|-----------------------------|-------------|
|
|  E      E      E  E  +H        +W
|-----------------------------|-------------|
|--3--------------------------|-------------|
|--2------2------2--2--(2)----|--(2)--------|
|--0------2------2--2--(2)----|--(2)--------|
|---------0------0--0--(0)----|--(0)--------|
|-----------------------------|-------------|


                                    ~~~~~~~~
   +H      H       W            S   E.  +H      Q
|---------------|------------|------------------------||
|---------------|------------|-13---------------------||
|-(14)\---------|------------|-----14--(14)-----------||
|---------------|------------|------------------------||
|---------------|------------|-----------------13\----||
|---------------|------------|------------------------||
|
|  +W             +W           +W
|---------------|------------|------------------------||
|---------------|------------|------------------------||
|--(2)----------|-(2)--------|-(2)--------------------||
|--(2)----------|-(2)--------|-(2)--------------------||
|--(0)----------|-(0)--------|-(0)--------------------||
|---------------|------------|------------------------||


 3rd Verse
  Gtrs I, II
  E E E E +E  E Q    W          E E E E +E  E Q    W
|------------------|----------|------------------|------|
|---3---3-(3)-3----|----------|---3---3-(3)-3----|------|
|-2-2-2-2-(2)-2----|----------|-2-2-2-2-(2)-2----|------|
|-2-4-2-4-(4)-4----|----------|-2-4-2-4-(4)-4----|------|
|-0-0-0-0-(0)-0----|----------|-0-0-0-0-(0)-0----|------|
|------------------|----------|------------------|------|


  Gtr III
  W                  W          W                  H.       E     +E
|------------------|----------|------------------|---------10b11-(10)-||
|------------------|----------|------------------|--------------------||
|------------------|----------|------------------|--------------------||
|------------------|----------|------------------|--------------------||
|------------------|----------|------------------|--------------------||
|------------------|----------|------------------|--------------------||
|
| Gtrs I, II
| E E E E +E  E Q    W          E E E E +E  E Q    W
|------------------|----------|------------------|--------------------||
|---3---3-(3)-3----|----------|---3---3-(3)-3----|--------------------||
|-2-2-2-2-(2)-2----|----------|-2-2-2-2-(2)-2----|--------------------||
|-2-4-2-4-(4)-4----|----------|-2-4-2-4-(4)-4----|--------------------||
|-0-0-0-0-(0)-0----|----------|-0-0-0-0-(0)-0----|--------------------||
|------------------|----------|------------------|--------------------||


 4th Verse
     ~~~
  E  Q.     E     +E  Q     H        Q.     S   S
|-8-----------------------|-----------------------|
|---10------8b8.5-(8)-----|---------------------5-|
|-------------------------|-----------------7b9---|
|-------------------------|-----------------------|
|-------------------------|-----------------------|
|-------------------------|-----------------------|
|
| E  E  E E E      E  E E   E E E E +E  E E E
|-------------------------|-----------------------|
|-------------------------|-----------------------|
|-------------------------|-----------------------|
|-5--5--5-5-5------4--4-4-|-4-2-2-2-(2)-2-2-2-----|
|-0--0--0-0-0------0--0-0-|-0-0-0-0-(0)-0-0-0-----|
|-------------------------|-----------------------|


            ~~~
  S S E    +H.             H.              Q
|-5----------------------|---------------------|
|---5--------------------|----------------13---|
|-----8b10-(8)-----------|---------------------|
|------------------------|---------------------|
|------------------------|---------------------|
|------------------------|---------------------|
|
| E   E     E  E E E E E   E  E E E +E  E  E E
|------------------------|---------------------|
|------------------------|---------------------|
|------------------------|---------------------|
|-5---5-----5--5-5-4-4-4-|-4--2-2-2-(2)-2--2-2-|
|-0---0-----0--0-0-0-0-0-|-0--0-0-0-(0)-0--0-0-|
|------------------------|---------------------|



    ~~~~~~~~~~~~~~~~~~~
                                           |----3----|
   +Q     Q    Q    Q      H.              E  +E     E
|------------------------|-----------------------------|
|-(13)---13---13---13\---|----------------15-(15)p==13-|
|------------------------|-----------------------------|
|------------------------|-----------------------------|
|------------------------|-----------------------------|
|------------------------|-----------------------------|
|
|   E  E  E E  E E  E  E   E  E E E +E  E  E      E
|------------------------|-----------------------------|
|------------------------|-----------------------------|
|------------------------|-----------------------------|
|---5--5--5-5--5-4--4--4-|-4--2-2-2-(2)-2--2------2----|
|---0--0--0-0--0-0--0--0-|-0--0-0-0-(0)-0--0------0----|
|------------------------|-----------------------------|


   ~~~~~~~~~
   Q    +S   S  E  +E       Q.
|-----------12---------------------|
|-15---(15)----13-(13)b13.5--------|
|----------------------------------|
|----------------------------------|
|----------------------------------|
|----------------------------------|
|
|  E E   E      E   E       E  E E
|----------------------------------|
|----------------------------------|
|----------------------------------|
|--5-5---5------5---5-------4--4-4-|
|--0-0---0------0---0-------0--0-0-|
|----------------------------------|


                     Pre-Chorus
                               ~~         ~~
  W                   E  E     Q    E     Q    E   H        E  a a  E  e  E
|------------------||----------------------------|-----------------------------|
|------------------||---------10---------10------|-----------------10-13-13b14-|
|------------------||---12b14------12b14------11-|---------------x-------------|
|------------------||----------------------------|-------------x---------------|
|------------------||----------------------------|-----------------------------|
|------------------||----------------------------|-----------------------------|
|
| Gtr II              Gtrs I, II
| E E E E +Q   E E    E  E     E E  E     E E  E   E E E E +E       E  E  E
|------------------||-3--3-----3-3--3------------|-----------------------------|
|------------------||-3--3-----3-3--3-----3-3--3-|-3---------------------------|
|---2-2-2-(2)--2-0-||-0--0-----0-0--0-----2-2--2-|-2-2-2-2-(2)------2--2--2----|
|-4-2-2-2-(2)--2-0-||-0--0-----0-0--0-----0-0--0-|-0-2-2-2-(2)------2--2--2----|
|---0-0-0-(0)--0-0-||---------------------0-0--0-|-0-0-0-0-(0)------0--0--0----|
|-2----------------||-3--3-----3-3--3------------|-----------------------------|


             ~~~~
                                    |---3---|
   e  E     +E   S  S  Q        a   e  e    e
|-10------------10----12b15---(12)-12-12------|
|----13b15-(13)----10----------------------11-|
|---------------------------------------------|
|---------------------------------------------|
|---------------------------------------------|
|---------------------------------------------|
|
|  E  E      E   E     E    E       E    E
|--3--3------3---3-----3----------------------|
|--3--3------3---3-----3----3-------3----3----|
|--0--0------0---0-----0----2-------2----2----|
|--0--0------0---0-----0----0-------0----0----|
|---------------------------0-------0----0----|
|--3--3------3---3-----3----------------------|


                          ~~~                      ~~~
   |---3---|
   E  E    E  S  S  S  S  Q     e     +e     S  S  Q.      Q        Q
|-10-10-----------------------------------|-10------------12------------|
|---------13-12----11----10----12b13-(12)-|----13-10------13b13.5-------|
|---------------11----11------------------|-----------------------------|
|-----------------------------------------|-----------------------------|
|-----------------------------------------|-----------------------------|
|-----------------------------------------|-----------------------------|
|
|  E    E     E     E    +E  E  E      E     E     E  E E  E      E E E
|-----------------------------------------|--3-----3--3-3--3------------|
|--3--------------------------------------|--3-----3--3-3--3------3-3-3-|
|--2----2-----2-----2----(2)-2--2------2--|--0-----0--0-0--0------2-2-2-|
|--0----2-----2-----2----(2)-2--2------2--|--0-----0--0-0--0------0-0-0-|
|--0----0-----0-----0----(0)-0--0------0--|-----------------------0-0-0-|
|-----------------------------------------|--3-----3--3-3--3------------|


                                     ~~~
  H        E.    S  E   E       +E   Q.      E  E      +E   E
|---------------17-----20b23-|-(20)-20------17-19pb20r(19)-17-|
|------------------17-(20)---|-(20)---------------------------|
|----------------------------|--------------------------------|
|----------------------------|--------------------------------|
|----------------------------|--------------------------------|
|----------------------------|--------------------------------|
|
| E E E E +E  E     E   E        E   E  E E  E  E       E   E
|----------------------------|---3---3--3-3--3----------------|
|-3--------------------------|---3---3--3-3--3--3-------3---3-|
|-2-2-2-2-(2)-2-----2---2----|---0---0--0-0--0--2-------2---2-|
|-0-2-2-2-(2)-2-----2---2----|---0---0--0-0--0--0-------0---0-|
|-0-0-0-0-(0)-0-----0---0----|------------------0-------0---0-|
|----------------------------|---3---3--3-3--3----------------|


                         ~~~~~~~~~~
   E     s       +s   e  E     +H
|-20b22-20b20.5-(20)-17---------------||
|-----------------------20b22-(20)----||
|-------------------------------------||
|-------------------------------------||
|-------------------------------------||
|-------------------------------------||
|
|  E     E            E  E     +H
|-------------------------------------||
|--3----------------------------------||
|--2-----2------------2--2-----(2)----||
|--0-----2------------2--2-----(2)----||
|--0-----0------------0--0-----(0)----||
|-------------------------------------||


 Out-Chorus
                                                  PM~
   H             H         W                 Q    E Q     Q.
|------------------------|-----------------|-------------------|
|-20pb22\----------------|-----------------|-------------------|
|------------------------|-----------------|-------------------|
|------------------------|-----------------|-----/9-7----------|
|------------------------|-----------------|-------------------|
|------------------------|-----------------|--------------x\---|
|
|  E      E E E +E  E Q    E E E E E E E E   E E  E E +H
|------------------------|-3-3-3-3-3-------|-------------------|
|---------3---3-(3)-3----|-3-3-3-3-3-3-3-3-|-3-----------------|
|--2------2-2-2-(2)-2----|-0-0-0-0-0-2-2-2-|-2-2--2-2-(2)------|
|--2------4-2-4-(4)-4----|-0-0-0-0-0-0-0-0-|-0-2--2-2-(2)------|
|--0------0-0-0-(0)-0----|-----------0-0-0-|-0-0--0-0-(0)------|
|------------------------|-3-3-3-3-3-------|-------------------|


                    ~~~~~~~~~~~~~~~
   Q.        E     +H          +H        H         W
|---------------------------|--------------------|------------------|
|-20b22-----20b22-(20)------|-(20)---------------|------------------|
|---------------------------|--------------------|------------------|
|---------------------------|--------------------|------------------|
|---------------------------|--------------------|------------------|
|---------------------------|--------------------|------------------|
|
|  E    E E  E     +E  Q  E     E  E E E E E E E   E E E E +Q   E E
|---------------------------|------3-3-3-3-------|------------------|
|-------3----3-----(3)-3--3-|---3--3-3-3-3-3-3-3-|-3----------------|
|--2----2-2--2-----(2)-2--2-|---2--0-0-0-0-2-2-2-|-2-2-2-2-(2)--2-2-|
|--2----4-2--4-----(4)-4--4-|---4--0-0-0-0-0-0-0-|-0-2-2-2-(2)--2-2-|
|--0----0-0--0-----(0)-0--0-|---0----------0-0-0-|-0-0-0-0-(0)--0-0-|
|---------------------------|------3-3-3-3-------|------------------|


  W                 H        E   E      E      E
|-----------------|-------------15-----15-----15-----|
|-----------------|-------------15pb17-15pb17-15pb17-|
|-----------------|----------------------------------|
|-----------------|----------------------------------|
|-----------------|----------------------------------|
|-----------------|----------------------------------|
|
| E E E E E E E E   E E E E +Q          E      E
|-3-3-3-3-3-------|----------------------------------|
|-3-3-3-3-3-3-3-3-|-3--------------------------------|
|-0-0-0-0-0-2-2-2-|-2-2-2-2-(2)---------2------2-----|
|-0-0-0-0-0-0-0-0-|-0-2-2-2-(2)---------2------2-----|
|-----------0-0-0-|-0-0-0-0-(0)---------0------0-----|
|-3-3-3-3-3-------|----------------------------------|


                                    ~~~
   Q        a   E  E  E     +E   E  E
|-15-----------15-15------------------|
|-15b17---(15)-------15b16r(15)-13----|
|----------------------------------14-|
|-------------------------------------|
|-------------------------------------|
|-------------------------------------|
|
|  E    E       E  E  E      E   E  E
|--3----3-------3--3--3---------------|
|--3----3-------3--3--3------3---3--3-|
|--0----0-------0--0--0------2---2--2-|
|--0----0-------0--0--0------0---0--0-|
|----------------------------0---0--0-|
|--3----3-------3--3--3---------------|


 ~~~~~~                                                                             ~~
   +E   E      S  E.        E        a   Q.          Q.        S  S  E  S  S  S  S  E
|---------------------------------------15b17-----|-15b17-----15-14-12-15----12-------|
|------13b13.5---13b13.5---13b13.5-(13)-----------|-----------------------15----13-15-|
|-(14)--------------------------------------------|-----------------------------------|
|-------------------------------------------------|-----------------------------------|
|-------------------------------------------------|-----------------------------------|
|-------------------------------------------------|-----------------------------------|
|
|   E   E      E         E +Q                 E E    E    E E  E     E  E     E     E
|-------------------------------------------------|--3----3-3--3-----3----------------|
|---3---------------------------------------------|--3----3-3--3-----3--3-----3-----3-|
|---2---2------2---------2-(2)----------------2-2-|--0----0-0--0-----0--2-----2-----2-|
|---0---2------2---------2-(2)----------------2-2-|--0----0-0--0-----0--0-----0-----0-|
|---0---0------0---------0-(0)----------------0-0-|---------------------0-----0-----0-|
|-------------------------------------------------|--3----3-3--3-----3----------------|


      ~~~      ~~~
   S  E.    S  E.    +Q    E  E
|-12-------------------------------|
|----13----15----------------17b19-|
|-------------14----(14)\----------|
|----------------------------------|
|----------------------------------|
|----------------------------------|
|
|  E     E  E     E  +Q    E  E
|----------------------------------|
|--3-------------------------------|
|--2-----2--2-----2--(2)---2--2----|
|--0-----2--2-----2--(2)---2--2----|
|--0-----0--0-----0--(0)---0--0----|
|----------------------------------|


                       ~~                                           ~~~
   +E   S  S  E  S  S  E  S  S  +S   S  S  S    Q        a  +S   S  Q.      Q
|--------------------------------------------|-15-------------------------------|
|-(17)-17-16-15-13-15-13-15-15-(15)-13-------|-15b17====15r(15)p13--------------|
|--------------------------------------14-12-|---------------------14-----------|
|--------------------------------------------|----------------------------------|
|--------------------------------------------|----------------------------------|
|--------------------------------------------|----------------------------------|
|
|   E   E     E  E     E  E      E      E       E     E      E      E  +Q   E E
|---3---3-----3--3-----3---------------------|----------------------------------|
|---3---3-----3--3-----3--3------3------3----|--3-------------------------------|
|---0---0-----0--0-----0--2------2------2----|--2-----2------2------2--(2)--2-2-|
|---0---0-----0--0-----0--0------0------0----|--0-----2------2------2--(2)--2-2-|
|-------------------------0------0------0----|--0-----0------0------0--(0)--0-0-|
|---3---3-----3--3-----3---------------------|----------------------------------|


  a  Q.        E     +S   S  E     E  S     S
|------------------------15-------15-------15-|
|---15b17-----15b17-(15)----15b17----15b17----|
|-x-------------------------------------------|
|---------------------------------------------|
|---------------------------------------------|
|---------------------------------------------|
|
|    E    E E  E     +Q            E  E
|---------------------------------------------|
|----3----------------------------------------|
|----2----2-2--2-----(2)-----------2--2-------|
|----0----2-2--2-----(2)-----------2--2-------|
|----0----0-0--0-----(0)-----------0--0-------|
|---------------------------------------------|


   S     S  S     S  S     S  S     S  S  S E  Q
|-------15-------15-------15-------15---------15b17---|
|-15b17----15b17----15b17----15b17----15p13-----------|
|-----------------------------------------------------|
|-----------------------------------------------------|
|-----------------------------------------------------|
|-----------------------------------------------------|
|
|  E        E        E        E        E    E  E    E
|--3--------3--------3--------3--------3--------------|
|--3--------3--------3--------3--------3----3--3----3-|
|--0--------0--------0--------0--------0----2--2----2-|
|--0--------0--------0--------0--------0----0--0----0-|
|-------------------------------------------0--0----0-|
|--3--------3--------3--------3--------3--------------|


        ~~~~~
   +E   E     e  e  e  s  T  T  S  S  S  S
|-(15)-15b17-15-14-15-14-12h14p12----12----|
|---------------------------------15----13-|
|------------------------------------------|
|------------------------------------------|
|------------------------------------------|
|------------------------------------------|
|
|   E   E     E  E  E  E        E     E
|---3---3-----3--3--3----------------------|
|---3---3-----3--3--3--3--------3-----3----|
|---0---0-----0--0--0--2--------2-----2----|
|---0---0-----0--0--0--0--------0-----0----|
|----------------------0--------0-----0----|
|---3---3-----3--3--3----------------------|


                                ~~~~~~~~~~~~~
   E       S  S  S  S       E  +H        +W           Q  H.
|-14b14.5-12--------------------------|-------------|----------*|
|------------13-13-13b13.5------------|-------------|----------*|
|--------------------------14-(14)----|-(14)--------|-x--------*|
|-------------------------------------|-------------|-x--------*|
|-------------------------------------|-------------|-x--------*|
|-------------------------------------|-------------|----------*|
|
|  E       E     E          E  +H        +W           Q  H.
|-------------------------------------|-------------|----------*|
|--3----------------------------------|-------------|----------*|
|--2-------2-----2----------2--(2)----|--(2)--------|-2--------*|
|--0-------2-----2----------2--(2)----|--(2)--------|-2--------*|
|--0-------0-----0----------0--(0)----|--(0)--------|-0--------*|
|-------------------------------------|-------------|----------*|



Duration Legend
---------------
W - whole; H - half; Q - quarter; E - 8th; S - 16th; T - 32nd; X - 64th; a - acciaccatura
+ - note tied to previous; . - note dotted; .. - note double dotted
Uncapitalized letters represent notes that are staccato (1/2 duration)
Irregular groupings are notated above the duration line
Duration letters will always appear directly above the note/fret number it represents the
duration for.  Duration letters with no fret number below them represent rests.  Multi-
bar rests are notated in the form Wxn, where n is the number of bars to rest for.  Low
melody durations appear below the staff

Tablature Legend
----------------
 h   - hammer-on
 p   - pull-off
 b   - bend
 pb  - pre-bend
 r   - bend release (if no number after the r, then release immediately)
 /\  - slide into or out of (from/to "nowhere")
 s   - legato slide
 S   - shift slide
 - natural harmonic
[n]  - artificial harmonic
n(n) - tapped harmonic
 ~   - vibrato
 tr  - trill
 T   - tap
 TP  - trem. picking
 PM  - palm muting
\n/  - tremolo bar dip; n = amount to dip
 \n  - tremolo bar down
 n/  - tremolo bar up
/n\  - tremolo bar inverted dip
 =   - hold bend; also acts as connecting device for hammers/pulls
 <> - volume swell (louder/softer)
 x   - on rhythm slash represents muted slash
 o   - on rhythm slash represents single note slash

Misc Legend
-----------
 |  - bar
||  - double bar
||o - repeat start
o|| - repeat end
*|  - double bar (ending)
 :  - bar (freetime)
 $  - Segno
 &  - Coda
Tempo markers -  = BPM(8/16=s8/s16), where s8 = swing 8ths, s16 = swing 16ths

comments
print report bad tab
1 comment total.
0 reply
daniel dickey wrote on February 13 2010, 12:48 am

PURE GENIUS BEST TAB IVE SEEN!!!!!!!!!
i got the official Black Ice Tab Book and the first verse goes like this all in one bar

|--------------------------------------------------|
|-3-5-5-1-1-3-3------------------------0-0-2-0-2---|
|-2-2-2-0-0-0-0-0-0-2-0-2--------------0-0-0-0-0---|
|---------------0-0-0-0-0-0-2-2--------------------|
|-------------------------0-0-0-3-3-5-5------------|
|-------------------------------3-3-3-3------------|

I want to post or [tab]
guest
You may want to rate the tab now too:
select rating
Please do not post tabs as comments. Select "correction" instead!