Oops, an error
Loading. Please wait.

Smash N Grab Tab

ver2
ver2

Whole song

Interactive

More versions @911Tabs.com
727 views 1 this week
no commentswrite comment
1 2 3 4 5
accurate
x 3
Autoscroll
+/-
esc
set tempo
stop
Contributor
Hey! There's an official Ultimate Guitar app which is ideal
for learning songs when you're away from computer. Get the app
WARNING: You are trying to view
                                    content from Ultimate-Guitar.com
                                    in an unauthorized application,
                                    which is prohibited.

                                    Please use an official Ultimate
                                    Guitar Tabs application for iPhone,
                                    iPad or Android to access legitimate
                                    chords, guitar, bass, and drum tabs
                                    from Ultimate-Guitar.com database.

                                    Type "ultimate guitar tabs" in Apple
                                    App Store's or Android Market's
                                    search to find the application.
AC/DC-Smash N Grab
Black Ice (2008) 
Transcribed by: playinbass1432
Email: playinbass1432@hotmail.com

Standard Tuning

Intro:

   A5 G5 D5                            A5 G5 D5 
E|-----------------|-----------------|-----------------|-----------------|
B|-------3---------|-----------------|-------3---------|-----------------|
G|-2-2-0-2---------|-----------------|-2-2-0-2---------|-----------------|
D|-2-2-0-0---------|-----------------|-2-2-0-0---------|-----------------|
A|-0-0-x-----------|-----------------|-0-0-x-----------|-----------------|
E|-----3-----------|-----------------|-----3-----------|-----------------|
 |
 | A5 G5 D5                            A5 G5 D5 
E|-----------------|-----------------|-----------------|-----------------|
B|-------3---------|-----------------|-------3---------|-----------------|
G|-2-2-0-2---------|-----------------|-2-2-0-2---------|-----------------|
D|-2-2-0-0---------|-----------------|-2-2-0-0---------|-----------------|
A|-0-0-------------|-----------------|-0-0-------------|-----------------|
E|-----3-----------|-----------------|-----3-----------|-----------------|
 |
 | Guitar 3 (Angus, Overdub, Center)
E|-----------------|-----------------|-----------------|-----------------|
B|----12-~~~-------|-----------------|----12-~~~-------|-----------------|
G|-14b16~~~~~7~~~~~|-5~~~~~~~~~~~~~~~|-14b16~~~~~7~~~~~|-5~~~~~~~~~~~~~~~|
D|-----------------|-----------------|-----------------|-----------------|
A|-----------------|-----------------|-----------------|-----------------|
E|-----------------|-----------------|-----------------|-----------------|

Verse 1:

   D5        G5 D    A5
E|-----------3-----|-----------------|
B|-3-3-3-3---3--3--|-----------------|
G|-2-2-2-2---0--2--|-2---------------|
D|-0-0-0-0---0--0--|-2---------------|
A|-----------x--0--|-0---------------|
E|-----------3-----|-----------------|
 |                                        x4
 | D5        G5 D    A5              
E|-----------3--2--|-----------------|
B|-3-3-3-3---3--3--|-----------------|
G|-2-2-2-2---0--2--|-2---------------|
D|-0-0-0-0---0--0--|-2---------------|
A|-----------x-----|-0---------------|
E|-----------3-----|-----------------|

Bridge:

   A5 G5 D5                            A5 G5 D5 
E|-----------------|-----------------|-----------------|-----------------|
B|-------3---------|-----------------|-------3---------|-----------------|
G|-2-2-0-2---------|-----------------|-2-2-0-2---------|-----------------|
D|-2-2-0-0---------|-----------------|-2-2-0-0---------|-----------------|
A|-0-0-x-----------|-----------------|-0-0-x-----------|-----------------|
E|-----3-----------|-----------------|-----3-----------|-----------------|
 |
 | A5 G5 D5                            A5 G5 D5 
E|-----------------|-----------------|-----------------|-----------------|
B|-------3---------|-----------------|-------3---------|-----------------|
G|-2-2-0-2---------|-----------------|-2-2-0-2---------|-----------------|
D|-2-2-0-0---------|-----------------|-2-2-0-0---------|-----------------|
A|-0-0-------------|-----------------|-0-0-------------|-----------------|
E|-----3-----------|-----------------|-----3-----------|-----------------|
 |
 | 
E|-----------------|-----------------|-----------------|-----------------|
B|----12-~~~-------|-----------------|----12-~~~-------|-----------------|
G|-14b16~~~~~7~~~~~|-5~~~~~~~~~~~~~~~|-14b16~~~~~7~~~~~|-5~~~~~~~~~~~~~~~|
D|-----------------|-----------------|-----------------|-----------------|
A|-----------------|-----------------|-----------------|-----------------|
E|-----------------|-----------------|-----------------|-----------------|

   A5 G5 D5                            A5 G5 D5 
E|-----------------|-----------------|-----------------|-----------------|
B|-------3---------|-----------------|-------3---------|-----------------|
G|-2-2-0-2---------|-----------------|-2-2-0-2---------|-----------------|
D|-2-2-0-0---------|-----------------|-2-2-0-0---------|-----------------|
A|-0-0-x-----------|-----------------|-0-0-x-----------|-----------------|
E|-----3-----------|-----------------|-----3-----------|-----------------|
 |
 | A5 G5 D5                            A5 G5 D5 
E|-----------------|-----------------|-----------------|-----------------|
B|-------3---------|-----------------|-------3---------|-----------------|
G|-2-2-0-2---------|-----------------|-2-2-0-2---------|-----------------|
D|-2-2-0-0---------|-----------------|-2-2-0-0---------|-----------------|
A|-0-0-------------|-----------------|-0-0-------------|-----------------|
E|-----3-----------|-----------------|-----3-----------|-----------------|
 |
 | 
E|-----------------|-----------------|-----------------|-----------------|
B|----12-~~~-------|-----------------|----12-~~~-------|-----------------|
G|-14b16~~~~~7~~~~~|-5~~~~~~~~~~~~~~~|-14b16~~~~~7~~~~~|-5~~~~~~~~~~~~~~~|
D|-----------------|-----------------|-----------------|-----------------|
A|-----------------|-----------------|-----------------|-----------------|
E|-----------------|-----------------|-----------------|-----------------|


Verse 2:

   D5        G5 D    A5
E|-----------3-----|-----------------|
B|-3-3-3-3---3--3--|-----------------|
G|-2-2-2-2---0--2--|-2---------------|
D|-0-0-0-0---0--0--|-2---------------|
A|-----------x--0--|-0---------------|
E|-----------3-----|-----------------|
 |                                        x4
 | D5        G5 D    A5              
E|-----------3--2--|-----------------|
B|-3-3-3-3---3--3--|-----------------|
G|-2-2-2-2---0--2--|-2---------------|
D|-0-0-0-0---0--0--|-2---------------|
A|-----------x-----|-0---------------|
E|-----------3-----|-----------------|

Pre Chorus 1:

Angus (Overdub):

E|--------------------------|
B|--------------------------|
G|--9--7---5-7---5-----5-7--| x4
D|-----------------7--x-----|
A|--------------------------|
E|--------------------------|


Angus and Malcolm (Rhythm): 


   C5                F5                D5 
E|-----------------|-----------------|-----------------|-----------------|
B|-1-1-1-1-1-1-1-1-|-----------------|-3-3-3-3-3-3-3-3-|-3-3-3-3-3-3-3-3-|
G|-0-0-0-0-0-0-0-0-|-----------------|-2-2-2-2-2-2-2-2-|-2-2-2-2-2-2-2-2-|
D|-x-x-x-x-x-x-x-x-|-3-3-3-3-3-3-3-3-|-0-0-0-0-0-0-0-0-|-0-0-0-0-0-0-0-0-|
A|-3-3-3-3-3-3-3-3-|-3-3-3-3-3-3-3-3-|-----------------|-----------------|
E|-----------------|-1-1-1-1-1-1-1-1-|-----------------|-----------------|
 |
 | C5                F5                D5 
E|-----------------|-----------------|-----------------|-----------------|
B|-----------------|-----------------|-3-3-3-3-3-3-3-3-|-3-3-3-3-3-3-3-3-|
G|-5-5-5-5-5-5-5-5-|-----------------|-2-2-2-2-2-2-2-2-|-2-2-2-2-2-2-2-2-|
D|-5-5-5-5-5-5-5-5-|-3-3-3-3-3-3-3-3-|-0-0-0-0-0-0-0-0-|-0-0-0-0-0-0-0-0-|
A|-3-3-3-3-3-3-3-3-|-3-3-3-3-3-3-3-3-|-----------------|-----------------|
E|-----------------|-1-1-1-1-1-1-1-1-|-----------------|-----------------|


Chorus 1:

   A5            G5      D             A5            G5        D 
E|---------------3-|-----2-----------|---------------3-|---3-3-2---2-2-2-|
B|---------------3-|-----3-----3-3-3-|-----------3---3-|---3-3-3---3-3-3-|
G|-2-------2-----0-|-----2-----2-2-2-|-2---2-----2---0-|---0-0-2---2-2-2-|
D|-2-----2-0-----0-|-----0-----0-0-0-|-2---2---0-0---0-|---0-0-0---0-0-0-|
A|-0-----0-0-----x-|-----------------|-0---0---0-0---x-|---x-x-0---------|
E|---------------3-|-----------------|---------------3-|---3-3-----------|
 |                                                                          x 1.5
 | A5            G5      D             A5            G5        D5        
E|---------------3-|-----------------|---------------3-|---3-3-----------|
B|---------------3-|-----3-----3-3-3-|-----------3---3-|---3-3-3---3-3-3-|
G|-2-------2-----0-|-----2-----2-2-2-|-2---2---0-2---0-|---0-0-2---2-2-2-|
D|-2-------0-------|-----0-----0-0-0-|-2---2---0-0---0-|---0-0-0---0-0-0-|
A|-0---------------|-----0-----------|-0---0---0-----x-|---x-x-----------|
E|-----------------|-----------------|---------------3-|---3-3-----------|

Pre Verse:

Angus (Overdub):

E|--------------------------|
B|--------------------------|
G|--9--7---5-7---5------5---| x2
D|-----------------7--x-----|
A|--------------------------|
E|--------------------------|

Angus and Malcolm (Rhythm): 

   C5 
E|-----------------|-----------------|
B|-1-1-1-1-1-1-1-1-|-1-1-1-1-1-1-1-1-|
G|-0-0-0-0-0-0-0-0-|-0-0-0-0-0-0-0-0-|
D|-x-x-x-x-x-x-x-x-|-x-x-x-x-x-x-x-x-|
A|-3-3-3-3-3-3-3-3-|-3-3-3-3-3-3-3-3-|
E|-----------------|-----------------|
 |
 | C5
E|-----------------|-----------------|
B|-----------------|-----------------|
G|-5-5-5-5-5-5-5-5-|-5-5-5-5-5-5-5-5-|
D|-5-5-5-5-5-5-5-5-|-5-5-5-5-5-5-5-5-|
A|-3-3-3-3-3-3-3-3-|-3-3-3-3-3-3-3-3-|
E|-----------------|-----------------|


Verse 3:

   D5        G5 D    A5
E|-----------3-----|-----------------|
B|-3-3-3-3---3--3--|-----------------|
G|-2-2-2-2---0--2--|-2---------------|
D|-0-0-0-0---0--0--|-2---------------|
A|-----------x--0--|-0---------------|
E|-----------3-----|-----------------|
 |                                        x4
 | D5        G5 D    A5              
E|-----------3--2--|-----------------|
B|-3-3-3-3---3--3--|-----------------|
G|-2-2-2-2---0--2--|-2---------------|
D|-0-0-0-0---0--0--|-2---------------|
A|-----------x-----|-0---------------|
E|-----------3-----|-----------------|

Pre Chorus 2:

Angus (Overdub):

E|--------------------------|
B|--------------------------|
G|--9--7---5-7---5-----5----| x4
D|-----------------7--x-----|
A|--------------------------|
E|--------------------------|

Angus and Malcolm (Rhythm): 


   C5                F5                D5 
E|-----------------|-----------------|-----------------|-----------------|
B|-1-1-1-1-1-1-1-1-|-----------------|-3-3-3-3-3-3-3-3-|-3-3-3-3-3-3-3-3-|
G|-0-0-0-0-0-0-0-0-|-----------------|-2-2-2-2-2-2-2-2-|-2-2-2-2-2-2-2-2-|
D|-x-x-x-x-x-x-x-x-|-3-3-3-3-3-3-3-3-|-0-0-0-0-0-0-0-0-|-0-0-0-0-0-0-0-0-|
A|-3-3-3-3-3-3-3-3-|-3-3-3-3-3-3-3-3-|-----------------|-----------------|
E|-----------------|-1-1-1-1-1-1-1-1-|-----------------|-----------------|
 |
 | C5                F5                D5 
E|-----------------|-----------------|-----------------|-----------------|
B|-----------------|-----------------|-3-3-3-3-3-3-3-3-|-3-3-3-3-3-3-3-3-|
G|-5-5-5-5-5-5-5-5-|-----------------|-2-2-2-2-2-2-2-2-|-2-2-2-2-2-2-2-2-|
D|-5-5-5-5-5-5-5-5-|-3-3-3-3-3-3-3-3-|-0-0-0-0-0-0-0-0-|-0-0-0-0-0-0-0-0-|
A|-3-3-3-3-3-3-3-3-|-3-3-3-3-3-3-3-3-|-----------------|-----------------|
E|-----------------|-1-1-1-1-1-1-1-1-|-----------------|-----------------|

Chorus 2:

   A5            G5      D             A5            G5        D 
E|---------------3-|-----2-----------|---------------3-|---3-3-2---2-2-2-|
B|---------------3-|-----3-----3-3-3-|-----------3---3-|---3-3-3---3-3-3-|
G|-2-------2-----0-|-----2-----2-2-2-|-2---2-----2---0-|---0-0-2---2-2-2-|
D|-2-----2-0-----0-|-----0-----0-0-0-|-2---2---0-0---0-|---0-0-0---0-0-0-|
A|-0-----0-0-----x-|-----------------|-0---0---0-0---x-|---x-x-0---------|
E|---------------3-|-----------------|---------------3-|---3-3-----------|
 |                                                                          x 1.5
 | A5            G5      D             A5            G5        D5        
E|---------------3-|-----------------|---------------3-|---3-3-----------|
B|---------------3-|-----3-----3-3-3-|-----------3---3-|---3-3-3---3-3-3-|
G|-2-------2-----0-|-----2-----2-2-2-|-2---2---0-2---0-|---0-0-2---2-2-2-|
D|-2-------0-----0-|-----0-----0-0-0-|-2---2---0-0---0-|---0-0-0---0-0-0-|
A|-0-------------x-|-----0-----------|-0---0---0-----x-|---x-x-----------|
E|---------------3-|-----------------|---------------3-|---3-3-----------|

Post Chorus: 

Pre Verse:

Angus (Overdub):

E|--------------------------|
B|--------------------------|
G|--9--7---5-7---5------5---| x2
D|-----------------7--x-----|
A|--------------------------|
E|--------------------------|

Angus and Malcolm (Rhythm): 

   C5 
E|-----------------|-----------------|
B|-1-1-1-1-1-1-1-1-|-1-1-1-1-1-1-1-1-|
G|-0-0-0-0-0-0-0-0-|-0-0-0-0-0-0-0-0-|
D|-x-x-x-x-x-x-x-x-|-x-x-x-x-x-x-x-x-|
A|-3-3-3-3-3-3-3-3-|-3-3-3-3-3-3-3-3-|
E|-----------------|-----------------|
 |
 | C5
E|-----------------|-----------------|
B|-----------------|-----------------|
G|-5-5-5-5-5-5-5-5-|-5-5-5-5-5-5-5-5-|
D|-5-5-5-5-5-5-5-5-|-5-5-5-5-5-5-5-5-|
A|-3-3-3-3-3-3-3-3-|-3-3-3-3-3-3-3-3-|
E|-----------------|-----------------|


Bridge:
 

  A5 G5 A5                            A5 G5 D5 
E|-----------------|-----------------|-----------------|-----------------|
B|-----------------|-----------------|-------3---------|-----------------|
G|-2-2-0-2---------|-----------------|-2-2-0-2---------|-----------------|
D|-2-2-0-2---------|-----------------|-2-2-0-0---------|-----------------|
A|-0-0-x-0---------|-----------------|-0-0-x-----------|-----------------|
E|-----3-----------|-----------------|-----3-----------|-----------------|
 |
 | A5 G5 A5                            A5 G5 D5 
E|-----------------|-----------------|-----------------|-----------------|
B|-----------------|-----------------|-------3---------|-----------------|
G|-2-2-0-2---------|-----------------|-2-2-0-2---------|-----------------|
D|-2-2-0-2---------|-----------------|-2-2-0-0---------|-----------------|
A|-0-0---0---------|-----------------|-0-0-------------|-----------------|
E|-----3-----------|-----------------|-----3-----------|-----------------|
 |
 | 
E|-----------------|-----------------|-----------------|-----------------|
B|----12-~~~-------|-----------------|-----------------|-----------------|
G|-14b16~~~~~7~~~~~|-5~~~~~~~~~~~~~~~|-----------------|-----------------|
D|-----------------|-----------------|-----------------|-----------------|
A|-----------------|-----------------|-----------------|-----------------|
E|-----------------|-----------------|-----------------|-----------------|

   A5 G5 A5                            A5 G5 D5 
E|-----------------|-----------------|-----------------|-----------------|
B|-----------------|-----------------|-------3---------|-----------------|
G|-2-2-0-2---------|-----------------|-2-2-0-2---------|-----------------|
D|-2-2-0-2---------|-----------------|-2-2-0-0---------|-----------------|
A|-0-0-x-0---------|-----------------|-0-0-x-----------|-----------------|
E|-----3-----------|-----------------|-----3-----------|-----------------|
 |
 | A5 G5 A5                            A5 G5 D5 
E|-----------------|-----------------|-----------------|-----------------|
B|-----------------|-----------------|-------3---------|-----------------|
G|-2-2-0-2---------|-----------------|-2-2-0-2---------|-----------------|
D|-2-2-0-2---------|-----------------|-2-2-0-0---------|-----------------|
A|-0-0---0---------|-----------------|-0-0-------------|-----------------|
E|-----3-----------|-----------------|-----3-----------|-----------------|
 |
 | 
E|-----------------|-----------------|-----------------|-----------------|
B|----12-~~~-------|-----------------|-----------------|-----------------|
G|-14b16~~~~~7~~~~~|-5~~~~~~~~~~~~~~~|-----------------|-----------------|
D|-----------------|-----------------|-----------------|-----------------|
A|-----------------|-----------------|-----------------|-----------------|
E|-----------------|-----------------|-----------------|-----------------|

Guitar Solo A:

Angus (He has two guitars going off here, top one is the right channel,
       bottom one is the left.)


E|--------------------------------------------------------|
B|--------------------------------------------------------|
G|-x\\\---------------------------------------------------|
D|-x\\\---------------------------------------------------|
A|-x\\\---------------------------------------------------|
E|--------------------------------------------------------|
 |
 |
E|--------------------------------------------------------|
B|-5~~-----7------------------15pb17r15----13-15----------|
G|-5~~-----7b-----7p5----------------------------14~~~~---|
D|--------------------7~~~~~------------------------------|
A|--------------------------------------------------------|
E|--------------------------------------------------------|


E|-----------12-11-10----10-------------------------------|
B|-18b20--------------13----13-15----15b17-15b17~~~~---17-|
G|--------------------------------14----------------------|
D|--------------------------------------------------------|
A|--------------------------------------------------------|
E|--------------------------------------------------------|
 |
 |
E|--------------------------------------------------------|
B|--------------------------------------------------------|
G|--------------------------------------------------------|
D|--------------------------------------------------------|
A|--------------------------------------------------------|
E|--------------------------------------------------------|


E|--------15--------15----15------15-15-----------|-------------|
B|-15b17-----15b17-----15b17---15b17-15pb17r15-13-|-------------|
G|------------------------------------------------|----14~~~~~~-|
D|------------------------------------------------|-------------|
A|------------------------------------------------|-------------|
E|------------------------------------------------|-------------|
 |
 |
E|------------------------------------------------|-------------|
B|------------------------------------------------|-20b22~~~~~~-|
G|------------------------------------------------|-------------|
D|------------------------------------------------|-------------|
A|------------------------------------------------|-------------|
E|------------------------------------------------|-------------|

Main Solo (It's just the right channel now): 


E|---------------------------|
B|-15-17-15-17-15-17--17~~~\-|
G|---------------------------|
D|---------------------------|
A|---------------------------|
E|---------------------------|

E|------------------12-11-10-----------------------------------------|
B|---18b20~~~~~~~~-----------13-10-----15----13b15--13~~~~-----------|
G|-x----20-------------------------12-----14-------------14-12-14~~~~|
D|-x-----------------------------------------------------------------|
A|-------------------------------------------------------------------|
E|-------------------------------------------------------------------|

E|-----------------------------------------------------------|
B|-15pb17r15------15p13--------------------------------------|
G|----------------------14~~~11-14---------------------------|
D|-------------------------------------7-5-------------------|
A|-----------------------------------------7-5---------------|
E|---------------------------------------------8-5-5/--16--\-|

       P.H.
E|---------------------------------------15-17------------17--------------|
B|-------------------------------15b17---------17---20b22----20-20b22~~~~\|
G|-----5-----5-------7~~~-9~~~--------------------------------------------|
D|-x-x-----x---7---x------------------------------------------------------|
A|------------------------------------------------------------------------|
E|------------------------------------------------------------------------|


Angus and Malcolm (Rhythm): 


   C5                F5                D5 
E|-----------------|-----------------|-----------------|-----------------|
B|-1-1-1-1-1-1-1-1-|-----------------|-3-3-3-3-3-3-3-3-|-3-3-3-3-3-3---3-|
G|-0-0-0-0-0-0-0-0-|-----------------|-2-2-2-2-2-2-2-2-|-0-0-0-0-0-0---0-|
D|-x-x-x-x-x-x-x-x-|-3-3-3-3-3-3-3-3-|-0-0-0-0-0-0-0-0-|-0-0-0-0-0-0---0-|
A|-3-3-3-3-3-3-3-3-|-3-3-3-3-3-3-3-3-|-----------------|-x-x-x-x-x-x---x-|
E|-----------------|-1-1-1-1-1-1-1-1-|-----------------|-3-3-3-3-3-3---3-|
 |
 | C5                F5                D5 
E|-----------------|-----------------|-----------------|-----------------|
B|-----------------|-----------------|-3-3-3-3-3-3-3-3-|-----------------|
G|-5-5-5-5-5-5-5-5-|-----------------|-2-2-2-2-2-2-2-2-|-0-0-0-0-0-0---0-|
D|-5-5-5-5-5-5-5-5-|-3-3-3-3-3-3-3-3-|-0-0-0-0-0-0-0-0-|-0-0-0-0-0-0---0-|
A|-3-3-3-3-3-3-3-3-|-3-3-3-3-3-3-3-3-|-----------------|-x-x-x-x-x-x---x-|
E|-----------------|-1-1-1-1-1-1-1-1-|-----------------|-3-3-3-3-3-3---3-|

   A5            G5      D             A5            G5        D 
E|---------------3-|-----2-----------|---------------3-|---3-3-2---2-2-2-|
B|---------------3-|-----3-----3-3-3-|-----------3---3-|---3-3-3---3-3-3-|
G|-2-------2-----0-|-----2-----2-2-2-|-2---2-----2---0-|---0-0-2---2-2-2-|
D|-2-----2-0-----0-|-----0-----0-0-0-|-2---2---0-0---0-|---0-0-0---0-0-0-|
A|-0-----0-0-----x-|-----------------|-0---0---0-0---x-|---x-x-0---------|
E|---------------3-|-----------------|---------------3-|---3-3-----------|
 |                                                                        x 1.5
 | A5            G5      D             A5            G5        D5        
E|---------------3-|-----------------|---------------3-|---3-3-----------|
B|---------------3-|-----3-----3-3-3-|-----------3---3-|---3-3-3---3-3-3-|
G|-2-------2-----0-|-----2-----2-2-2-|-2---2---0-2---0-|---0-0-2---2-2-2-|
D|-2-------0-----0-|-----0-----0-0-0-|-2---2---0-0---0-|---0-0-0---0-0-0-|
A|-0-------------x-|-----0-----------|-0---0---0-----x-|---x-x-----------|
E|---------------3-|-----------------|---------------3-|---3-3-----------|

   C5 
E|-----------------|-----------------|
B|-1-1-1-1-1-1-1-1-|-1-1-1-1-1-1-1-1-|
G|-0-0-0-0-0-0-0-0-|-0-0-0-0-0-0-0-0-|
D|-x-x-x-x-x-x-x-x-|-x-x-x-x-x-x-x-x-|
A|-3-3-3-3-3-3-3-3-|-3-3-3-3-3-3-3-3-|
E|-----------------|-----------------|
 |
 | C5
E|-----------------|-----------------|
B|-----------------|-----------------|
G|-5-5-5-5-5-5-5-5-|-5-5-5-5-5-5-5-5-|
D|-5-5-5-5-5-5-5-5-|-5-5-5-5-5-5-5-5-|
A|-3-3-3-3-3-3-3-3-|-3-3-3-3-3-3-3-3-|
E|-----------------|-----------------|

                   /       x3        \ 
E|-----------------|-----------------|
B|-----------------|-----------------|
G|-2---------------|-----------------|
D|-2---------------|-----------------|
A|-0---------------|-----------------|
E|-----------------|-----------------|
 |            
E|-----------------|-----------------|
B|-----------------|-----------------|
G|-2---------------|-----------------|
D|-2---------------|-----------------|
A|-0---------------|-----------------|
E|-----------------|-----------------|


Chorus/Outro/2nd Solo:


Angus (Overdub):

 3:41               P.H.
E|-------------------------|
B|---------13b--13b--------|
G|-12-14------------14~~~~~|
D|-------------------------|
A|-------------------------|
E|-------------------------|

E|----17-----------------------|
B|-20-----20-20b22--20-20b22---|
G|-----------------------------|
D|-----------------------------|
A|-----------------------------|
E|-----------------------------|

E|-------------------------------------------------|
B|-15-13----13------------------15b17--15~~~~13----|
G|-------14----14-14--12-14--14-----------------14-|
D|-------------------------------------------------|
A|-------------------------------------------------|
E|-------------------------------------------------|

E|------------------------|
B|----------15~~~~~~~~~~~~|
G|-14-14-14---------------|
D|------------------------|
A|------------------------|
E|------------------------|


Angus and Malcolm )Rhythm):

  A5 G5 A5                            A5 G5 D5 
E|-----------------|-----------------|-----------------|-----------------|
B|-----------------|-----------------|-------3---------|-----------------|
G|-2-2-0-2---------|-----------------|-2-2-0-2---------|-----------------|
D|-2-2-0-2---------|-----------------|-2-2-0-0---------|-----------------|
A|-0-0-x-0---------|-----------------|-0-0-x-----------|-----------------|
E|-----3-----------|-----------------|-----3-----------|-----------------|
 |
 | A5 G5 A5                            A5 G5 D5 
E|-----------------|-----------------|-----------------|-----------------|
B|-----------------|-----------------|-------3---------|-----------------|
G|-2-2-0-2---------|-----------------|-2-2-0-2---------|-----------------|
D|-2-2-0-2---------|-----------------|-2-2-0-0---------|-----------------|
A|-0-0---0---------|-----------------|-0-0-------------|-----------------|
E|-----3-----------|-----------------|-----3-----------|-----------------|
 |
 | 
E|-----------------|-----------------|-----------------|-----------------|
B|----12-~~~-------|-----------------|-----------------|-----------------|
G|-14b16~~~~~7~~~~~|-5~~~~~~~~~~~~~~~|-----------------|-----------------|
D|-----------------|-----------------|-----------------|-----------------|
A|-----------------|-----------------|-----------------|-----------------|
E|-----------------|-----------------|-----------------|-----------------|

   A5 G5 A5                            A5 G5 D5 
E|-----------------|-----------------|-----------------|-----------------|
B|-----------------|-----------------|-------3---------|-----------------|
G|-2-2-0-2---------|-----------------|-2-2-0-2---------|-----------------|
D|-2-2-0-2---------|-----------------|-2-2-0-0---------|-----------------|
A|-0-0-x-0---------|-----------------|-0-0-x-----------|-----------------|
E|-----3-----------|-----------------|-----3-----------|-----------------|
 |
 | A5 G5 A5                            A5 G5 D5 
E|-----------------|-----------------|-----------------|-----------------|
B|-----------------|-----------------|-------3---------|-----------------|
G|-2-2-0-2---------|-----------------|-2-2-0-2---------|-----------------|
D|-2-2-0-2---------|-----------------|-2-2-0-0---------|-----------------|
A|-0-0---0---------|-----------------|-0-0-------------|-----------------|
E|-----3-----------|-----------------|-----3-----------|-----------------|
 |
 | 
E|-----------------|-----------------|-----------------|-----------------|
B|----12-~~~-------|-----------------|-----------------|-----------------|
G|-14b16~~~~~7~~~~~|-5~~~~~~~~~~~~~~~|-----------------|-----------------|
D|-----------------|-----------------|-----------------|-----------------|
A|-----------------|-----------------|-----------------|-----------------|
E|-----------------|-----------------|-----------------|-----------------|

Repeat til end
comments
We did not receive enough feedback on this tab! Please rate:
print report bad tab
1 2 3 4 5
I want to post or [tab]
guest
You may want to rate the tab now too:
select rating
Please do not post tabs as comments. Select "correction" instead!