Oops, an error
Loading. Please wait.

Spoilin For A Fight Tab

ver2
ver2

Whole song

More versions @911Tabs.com
7,172 views 1 this week
2 commentsread comments
1 2 3 4 5
worth learning
x 5
add to favorites launch autoscroll
font size
0
reset
Autoscroll
+/-
esc
set tempo
stop
Contributor
WARNING: You are trying to view
                                    content from Ultimate-Guitar.com
                                    in an unauthorized application,
                                    which is prohibited.

                                    Please use an official Ultimate
                                    Guitar Tabs application for iPhone,
                                    iPad or Android to access legitimate
                                    chords, guitar, bass, and drum tabs
                                    from Ultimate-Guitar.com database.

                                    Type "ultimate guitar tabs" in Apple
                                    App Store's or Android Market's
                                    search to find the application.
Intro: (Angus) 

                 B5                                  B5                 
E|-----------------|-----------------|-----------------|-----------------|
B|-----------------|-----------------|-----------------|-----------------|
G|---------------4-|---4---4-4-------|---------------4-|---4---4-4-------|
D|---------------4-|---4-2-4-4-------|---------------4-|---4-2-4-4-------|
A|---------------2-|---2-0-2-2-------|---------------2-|---2-0-2-2-------|
E|-----------------|-----------------|-----------------|-----------------|
 |
 |
 | Guitar 3, Angus, Overdub, Center 
E|-----------------|-----------------|-----------------|---------------7-|
B|-----------------|-----------------|-----------------|-------------7-7-|
G|-----------------|-----------------|-----------------|-----------9b----|
D|-----------------|-----------------|-----------------|-----------------|
A|-----------------|-----------------|-----------------|-----------------|
E|-----------------|-----------------|-----------------|-----------------|

                 B5 
E|-----------------|
B|-----------------|
G|---------------4-|
D|---------------4-|
A|---------------2-|
E|-----------------|
 |
 |   D     A E   B5   
E|-----------------|
B|-----------------|
G|---------------4-|
D|---7-7-4-2-2---4-|
A|---5-4-2-0-2---2-|
E|-----------0-----|
 |
 |
E|-7-----7-7-------|
B|-7---7-7-7-7-----|
G|---9b------9b----|
D|-----------------|
A|-----------------|
E|-----------------|

     B E B                         B5    B E B             D     A E   B5 
E|-----------------|-----------------|-----------------|-----------------|
B|-----------------|-----------------|-----------------|-----------------|
G|---4---4-4-------|---------------4-|---4---4-4-------|---------------4-|
D|---4-2-4-4-------|---------------4-|---4-2-4-4-------|---7-7-4-2-2---4-|
A|---2-2-2-2-------|---------------2-|---2-2-2-2-------|---5-4-2-0-2---2-|
E|-----------------|-----------------|-----------------|-----------------|
 |
 |   B A B                         B5    B A B             D     A E   B5 
E|-----------------|-----------------|-----------------|-----------------|
B|-----------------|-----------------|-----------------|-----------------|
G|---4---4-4-------|---------------4-|---4---4-4-------|---------------4-|
D|---4-2-4-4-------|---------------4-|---4-2-4-4-------|---7-7-4-2-2---4-|
A|---2-0-2-2-------|---------------2-|---2-0-2-2-------|---5-4-2-0-2---2-|
E|-----------------|-----------------|-----------------|-----------0-----|
 |
 |
E|-----------------|-----------------|---------------7-|-7-----7-7-------|
B|-----------------|-----------------|-------------7-7-|-7---7-7-7-7-----|
G|-----------------|-----------------|-----------9b----|---9b------9b----|
D|-----------------|-----------------|-----------------|-----------------|
A|-----------------|-----------------|-----------------|-----------------|
E|-----------------|-----------------|-----------------|-----------------|
      
                          
Verse 1: 
  
     B E B                         B5    B E B             D     A E   B5 
E|-----------------|-----------------|-----------------|-----------------|
B|-----------------|-----------------|-----------------|-----------------|
G|---4---4-4-------|---------------4-|---4---4-4-------|---------------4-|
D|---4-2-4-4-------|---------------4-|---4-2-4-4-------|---7-7-4-2-2---4-|
A|---2-2-2-2-------|---------------2-|---2-2-2-2-------|---5-4-2-0-2---2-|
E|-----------------|-----------------|-----------------|-----------------|
 |
 |   B A B                         B5    B A B             D     A E   B5 
E|-----------------|-----------------|-----------------|-----------------|
B|-----------------|-----------------|-----------------|-----------------|
G|---4---4-4-------|---------------4-|---4---4-4-------|---------------4-|
D|---4-2-4-4-------|---------------4-|---4-2-4-4-------|---7-7-4-2-2---4-|
A|---2-0-2-2-------|---------------2-|---2-0-2-2-------|---5-4-2-0-2---2-|
E|-----------------|-----------------|-----------------|-----------0-----|

     B E B                         B5    B E B             D     A E   B5 
E|-----------------|-----------------|-----------------|-----------------|
B|-----------------|-----------------|-----------------|-----------------|
G|---4---4-4-------|---------------4-|---4---4-4-------|---------------4-|
D|---4-2-4-4-------|---------------4-|---4-2-4-4-------|---7-7-4-2-2---4-|
A|---2-2-2-2-------|---------------2-|---2-2-2-2-------|---5-4-2-0-2-----|
E|-----------------|-----------------|-----------------|-----------------|
 |
 |   B A B                         B5    B A B             D     A E   B5 
E|-----------------|-----------------|-----------------|-----------------|
B|-----------------|-----------------|-----------------|-----------------|
G|---4---4-4-------|---------------4-|---4---4-4-------|---------------4-|
D|---4-2-4-4-------|---------------4-|---4-2-4-4-------|---7-7-4-2-2---4-|
A|---2-0-2-2-------|---------------2-|---2-0-2-2-------|---5-4-2-0-2---2-|
E|-----------------|-----------------|-----------------|-----------0-----|

     B A E B                       B5    B A E B           D     A E   B5 
E|-----------------|-----------------|-----------------|-----------------|
B|-----------------|-----------------|-----------------|-----------------|
G|---4-2-1-4-------|---------------4-|---4-2-1--6pb7r6-|---------------4-|
D|---4-2-2-4-------|---------------4-|---4-2-2-4------9|---7-7-4-2-2---4-|
A|---------2-------|-----------------|---------2-------|---5-4-2-0-2---2-|
E|-----------------|-----------------|-----------------|-----------------|
 |
 |   B A B                         B5    B A B             D     A E   B5 
E|-----------------|-----------------|-----------------|-----------------|
B|-----------------|-----------------|-----------------|-----------------|
G|---4---4-4-------|---------------4-|---4---4-4-------|---------------4-|
D|---4-2-4-4-------|---------------4-|---4-2-4-4-------|---7-7-4-2-2---4-|
A|---2-0-2-2-------|---------------2-|---2-0-2-2-------|---5-4-2-0-2---2-|
E|-----------------|-----------------|-----------------|-----------0-----|

     B A E B                       B5    B A E B           D     A E   E5 
E|-----------------|-----------------|-----------------|-----------------|
B|-----------------|-----------------|-----------------|-----------------|
G|---4-2-1-4-------|---------------4-|---4-2-1--6pb7r6-|-----------------|
D|---4-2-2-4-------|---------------4-|---4-2-2-4------9|---7-7-4-2-2---2-|
A|---------2-------|-----------------|---------2-------|---5-4-2-0-2---2-|
E|-----------------|-----------------|-----------------|---------------0-|
 |
 |   B A B                         B5    B A B             D     A E   E5 
E|-----------------|-----------------|-----------------|-----------------|
B|-----------------|-----------------|-----------------|-----------------|
G|---4---4-4-------|---------------4-|---4---4-4-------|-----------------|
D|---4-2-4-4-------|---------------4-|---4-2-4-4-------|---7-7-4-2-2---2-|
A|---2-0-2-2-------|---------------2-|---2-0-2-2-------|---5-4-2-0-2---2-|
E|-----------------|-----------------|-----------------|-----------0---0-|

Pre Chorus 1:
 
                 E5                                  A5                B5
E|-----------------|-----------------|-----------------|-----------------|
B|-----------------|-----------------|-----------------|-----------------|
G|-----------------|-----------------|---------------2-|---------------4-|
D|---------------2-|---------------2-|---------------2-|---------------4-|
A|---------------2-|---------------2-|---------------0-|---------------2-|
E|---------------0-|---------------0-|-----------------|-----------------|
 |
 |               E5                                 A5                 B5
E|-----------------|-----------------|-----------------|-----------------|
B|-----------------|-----------------|-----------------|-----------------|
G|-----------------|-----------------|---------------2-|---------------4-|
D|---------------2-|---------------2-|---------------2-|---------------4-|
A|---------------2-|---------------2-|---------------0-|---------------2-|
E|---------------0-|---------------0-|-----------------|-----------------|

Chorus 1:

     B E B             D     A E   B5    B E B              D    A E   B5
E|-----------------|-----------------|-----------------|-----------------|
B|-----------------|-----------------|-----------------|-----------------|
G|---4---4-4-------|---------------4-|---4---4-4-------|---------------4-|
D|---4-2-4-4-------|---7-7-4-2-2---4-|---4-2-4-4-------|---7-7-4-2-2---4-|
A|---2-2-2-2-------|---5-4-2-0-2---2-|---2-2-2-2-------|---5-4-2-0-2---2-|
E|-----------------|-----------------|-----------------|-----------------|
 |
 |   B D B             D     A E   B5    B A B             D     A E   B5
E|-----------------|-----------------|-----------------|-----------------|
B|-----------------|-----------------|-----------------|-----------------|
G|---4---4-4-------|---------------4-|---4---4-4-------|---------------4-|
D|---4-2-4-4-------|---7-7-4-2-2---4-|---4-2-4-4-------|---7-7-4-2-2---4-|
A|---2-0-2-2-------|---5-4-2-0-2---2-|---2-0-2-2-------|---5-4-2-0-2---2-|
E|-----------------|-----------0-----|-----------------|-----------0-----|
 |
 | Guitar 3
E|---------------7-|-7-----7-7-------|---------------7-|-7-----7-7-------|
B|-------------7-7-|-7---7-7-7-7-----|-------------7-7-|-7---7-7-7-7-----|
G|-----------9b----|---9b------9b----|----------9b-----|---9b------9b----|
D|-----------------|-----------------|-----------------|-----------------|
A|-----------------|-----------------|-----------------|-----------------|
E|-----------------|-----------------|-----------------|-----------------|

     B E B             D     A E   B5    B E B             B E B       B5
E|-----------------|-----------------|-----------------|-----------------|
B|-----------------|-----------------|-----------------|-----------------|
G|---4---4-4-------|---------------4-|---4---4-4-------|---4---4-4-----4-|
D|---4-2-4-4-------|---7-7-4-2-2---4-|---4-2-4-4-------|---4-2-4-4-----4-|
A|---2-2-2-2-------|---5-4-2-0-2---2-|---2-2-2-2-------|---2-2-2-2-----2-|
E|-----------------|-----------------|-----------------|-----------------|
 |
 |   B A B             D     A E   B5     B A B            B A B       B5
E|-----------------|-----------------|-----------------|-----------------|
B|-----------------|-----------------|-----------------|-----------------|
G|---4---4-4-------|---------------4-|---4---4-4-----4-|---4---4-4-----4-|
D|---4-2-4-4-------|---7-7-4-2-2---4-|---4-2-4-4-----4-|---4-2-4-4-----4-|
A|---2-0-2-2-------|---5-4-2-0-2---2-|---2-0-2-2-----2-|---2-0-2-2-----2-|
E|-----------------|-----------0-----|-----------------|-----------------|
 |
 | 
E|---------------7-|-7-----7-7-----10|-----7---7-----10|-----7---7-----10|
B|-------------7-7-|-7---7-7-7-7---9b|-----7---7-----9b|-----7---7-----9b|
G|-----------9b----|---9b------9b----|-------9b--------|-------9b--------|
D|-----------------|-----------------|-----------------|-----------------|
A|-----------------|-----------------|-----------------|-----------------|
E|-----------------|-----------------|-----------------|-----------------|

     B E B             E5          B5
E|-----------------|-----------------|
B|-----------------|-----------------|
G|---4---4-4-------|---------------4-|
D|---4-2-4-4-------|---2-2---2-2-2-4-|
A|---2-2-2-2-------|---2-2---2-2-2-2-|
E|-----------------|---0-0---0-0-0---|
 |
 |   B A B             E5          B5
E|-----------------|-----------------|
B|-----------------|-----------------|
G|---4---4-4-------|---------------4-|
D|---4-2-4-4-------|---2-2-2-2-2-2-4-|
A|---2-0-2-2-------|---2-2-2-2-2-2-2-|
E|-----------------|---0-0-0-0-0-0---|
 |
 |
E|-----7---7-------|-----------------|
B|-----7---7-------|-----------------|
G|-------9b--------|-----------------|
D|-----------------|-----------------|
A|-----------------|-----------------|
E|-----------------|-----------------|

Verse 2: 
  
     B E B                         B5    B E B             D     A E   B5 
E|-----------------|-----------------|-----------------|-----------------|
B|-----------------|-----------------|-----------------|-----------------|
G|---4---4-4-------|---------------4-|---4---4-4-------|---------------4-|
D|---4-2-4-4-------|---------------4-|---4-2-4-4-------|---7-7-4-2-2---4-|
A|---2-2-2-2-------|---------------2-|---2-2-2-2-------|---5-4-2-0-2---2-|
E|-----------------|-----------------|-----------------|-----------------|
 |
 |   B A B                         B5    B A B             D     A E   B5 
E|-----------------|-----------------|-----------------|-----------------|
B|-----------------|-----------------|-----------------|-----------------|
G|---4---4-4-------|---------------4-|---4---4-4-------|---------------4-|
D|---4-2-4-4-------|---------------4-|---4-2-4-4-------|---7-7-4-2-2---4-|
A|---2-0-2-2-------|---------------2-|---2-0-2-2-------|---5-4-2-0-2---2-|
E|-----------------|-----------------|-----------------|-----------0-----|

     B E B                         B5    B E B             D     A E   B5 
E|-----------------|-----------------|-----------------|-----------------|
B|-----------------|-----------------|-----------------|-----------------|
G|---4---4-4-------|---------------4-|---4---4-4-------|---------------4-|
D|---4-2-4-4-------|---------------4-|---4-2-4-4-------|---7-7-4-2-2---4-|
A|---2-2-2-2-------|---------------2-|---2-2-2-2-------|---5-4-2-0-2-----|
E|-----------------|-----------------|-----------------|-----------------|
 |
 |   B A B                         B5    B A B             D     A E   B5 
E|-----------------|-----------------|-----------------|-----------------|
B|-----------------|-----------------|-----------------|-----------------|
G|---4---4-4-------|---------------4-|---4---4-4-------|---------------4-|
D|---4-2-4-4-------|---------------4-|---4-2-4-4-------|---7-7-4-2-2---4-|
A|---2-0-2-2-------|---------------2-|---2-0-2-2-------|---5-4-2-0-2---2-|
E|-----------------|-----------------|-----------------|-----------0-----|

     B A E B                       B5    B A E B           D     A E   B5 
E|-----------------|-----------------|-----------------|-----------------|
B|-----------------|-----------------|-----------------|-----------------|
G|---4-2-1-4-------|---------------4-|---4-2-1--6pb7r6-|---------------4-|
D|---4-2-2-4-------|---------------4-|---4-2-2-4------9|---7-7-4-2-2---4-|
A|---------2-------|-----------------|---------2-------|---5-4-2-0-2---2-|
E|-----------------|-----------------|-----------------|-----------------|
 |
 |   B A B                         B5    B A B             D     A E   B5 
E|-----------------|-----------------|-----------------|-----------------|
B|-----------------|-----------------|-----------------|-----------------|
G|---4---4-4-------|---------------4-|---4---4-4-------|---------------4-|
D|---4-2-4-4-------|---------------4-|---4-2-4-4-------|---7-7-4-2-2---4-|
A|---2-0-2-2-------|---------------2-|---2-0-2-2-------|---5-4-2-0-2---2-|
E|-----------------|-----------------|-----------------|-----------0-----|

     B A E B                       B5    B A E B           D     A E   E5 
E|-----------------|-----------------|-----------------|-----------------|
B|-----------------|-----------------|-----------------|-----------------|
G|---4-2-1-4-------|---------------4-|---4-2-1--6pb7r6-|-----------------|
D|---4-2-2-4-------|---------------4-|---4-2-2-4------9|---7-7-4-2-2---2-|
A|---------2-------|-----------------|---------2-------|---5-4-2-0-2---2-|
E|-----------------|-----------------|-----------------|---------------0-|
 |
 |   B A B                         B5    B A B             D     A E   E5 
E|-----------------|-----------------|-----------------|-----------------|
B|-----------------|-----------------|-----------------|-----------------|
G|---4---4-4-------|---------------4-|---4---4-4-------|-----------------|
D|---4-2-4-4-------|---------------4-|---4-2-4-4-------|---7-7-4-2-2---2-|
A|---2-0-2-2-------|---------------2-|---2-0-2-2-------|---5-4-2-0-2---2-|
E|-----------------|-----------------|-----------------|-----------0---0-|

Pre Chorus 2:

                 E5                                  A5                B5
E|-----------------|-----------------|-----------------|-----------------|
B|-----------------|-----------------|-----------------|-----------------|
G|-----------------|-----------------|---------------2-|---------------4-|
D|---------------2-|---------------2-|---------------2-|---------------4-|
A|---------------2-|---------------2-|---------------0-|---------------2-|
E|---------------0-|---------------0-|-----------------|-----------------|
 |
 |               E5                                 A5                 B5
E|-----------------|-----------------|-----------------|-----------------|
B|-----------------|-----------------|-----------------|-----------------|
G|-----------------|-----------------|---------------2-|---------------4-|
D|---------------2-|---------------2-|---------------2-|---------------4-|
A|---------------2-|---------------2-|---------------0-|---------------2-|
E|---------------0-|---------------0-|-----------------|-----------------|

Chorus 2:

     B E B             D     A E   B5    B E B              D    A E   B5
E|-----------------|-----------------|-----------------|-----------------|
B|-----------------|-----------------|-----------------|-----------------|
G|---4---4-4-------|---------------4-|---4---4-4-------|---------------4-|
D|---4-2-4-4-------|---7-7-4-2-2---4-|---4-2-4-4-------|---7-7-4-2-2---4-|
A|---2-2-2-2-------|---5-4-2-0-2---2-|---2-2-2-2-------|---5-4-2-0-2---2-|
E|-----------------|-----------------|-----------------|-----------------|
 |
 |   B D B             D     A E   B5    B A B             D     A E   B5
E|-----------------|-----------------|-----------------|-----------------|
B|-----------------|-----------------|-----------------|-----------------|
G|---4---4-4-------|---------------4-|---4---4-4-------|---------------4-|
D|---4-2-4-4-------|---7-7-4-2-2---4-|---4-2-4-4-------|---7-7-4-2-2---4-|
A|---2-0-2-2-------|---5-4-2-0-2---2-|---2-0-2-2-------|---5-4-2-0-2---2-|
E|-----------------|-----------0-----|-----------------|-----------0-----|
 |
 | Guitar 3
E|---------------7-|-7-----7-7-------|---------------7-|-7-----7-7-------|
B|-------------7-7-|-7---7-7-7-7-----|-------------7-7-|-7---7-7-7-7-----|
G|-----------9b----|---9b------9b----|-----------9b----|---9b------9b----|
D|-----------------|-----------------|-----------------|-----------------|
A|-----------------|-----------------|-----------------|-----------------|
E|-----------------|-----------------|-----------------|-----------------|

     B E B             D     A E   B5    B A E B           B A E B     B5
E|-----------------|-----------------|-----------------|-----------------|
B|-----------------|-----------------|-----------------|-----------------|
G|---4---4-4-------|---------------4-|---4-2-1-4-------|---4-2-1-4-----4-|
D|---4-2-4-4-------|---7-7-4-2-2---4-|---4-2-2-4-------|---4-2-2-4-----4-|
A|---2-2-2-2-------|---5-4-2-0-2---2-|---2-0-2-2-------|---2-0-2-2-----2-|
E|-----------------|-----------------|-----------------|-----------------|
 |
 |   B A B             D     A E   B5     B A B            B A B       B5
E|-----------------|-----------------|-----------------|-----------------|
B|-----------------|-----------------|-----------------|-----------------|
G|---4---4-4-------|---------------4-|---4---4-4-----4-|---4---4-4-----4-|
D|---4-2-4-4-------|---7-7-4-2-2---4-|---4-2-4-4-----4-|---4-2-4-4-----4-|
A|---2-0-2-2-------|---5-4-2-0-2---2-|---2-0-2-2-----2-|---2-0-2-2-----2-|
E|-----------------|-----------0-----|-----------------|-----------------|
 |
 | 
E|---------------7-|-7-----7-7-------|-------------7---|-------------7-5-|
B|-------------7-7-|-7---7-7-7-7-----|-------------7---|-------------7-5-|
G|-----------9b----|---9b------9b----|-----------9b----|-----------9b----|
D|-----------------|-----------------|-----------------|-----------------|
A|-----------------|-----------------|-----------------|-----------------|
E|-----------------|-----------------|-----------------|-----------------|

     B A E B     D5        E5      B5
E|-----------------|-----------------|
B|---------------3-|---3-3-----------|
G|---4-2-1-4-----2-|---2-2---------4-|
D|---4-2-2-4-----0-|---0-0-2-2-2-2-4-|
A|---2-0-2-2-------|-------2-2-2-2-2-|
E|-----------------|-------0-0-0-0---|
 |
 |   B A B       D         E5      B5
E|-----------------|-----------------|
B|---------------3-|---3-3-----------|
G|---4---4-4-----2-|---2-2---------4-|
D|---4-2-4-4-----0-|---0-0-2---2-2-4-|
A|---2-0-2-2-----0-|---0-0-2---2-2-2-|
E|-----------------|-------0---0-0---|
 |
 |
E|---5-4/5-7-7-7-7-|----10b--10-10---|
B|-----------------|-7---9b--9b-9b---|
G|-----------------|---9-------------|
D|-----------------|-----------------|
A|-----------------|-----------------|
E|-----------------|-----------------|

Guitar Solo: 

Angus (Overdub): 

    P.H.                                  P.H.
E|----------------------------------------------|
B|--------------------5-3~~~~-------------------|
G|-4-4~~~~~---7b--4p2----------------2-2-4-4~~~~|
D|----------------------------------------------|
A|----------------------------------------------|
E|---------------------------10\\\\\------------|

E|----------------------------------------------|
B|-7----10----10-7-10-7-------------------------|
G|-7--9b11-----9-7--9-7----7b-4--x-2-2~~~~~-----|
D|----------------------------------------------|
A|----------------------------------------------|
E|----------------------------------------------|

E|------------------------------------|
B|------------------------------------|
G|----7---7~~~~----7-7---2-2-2-4~~~~\-|
D|-/9-----------/9--------------------|
A|------------------------------------|
E|------------------------------------|

E|-7-7~~~~----------------|----------------12b14~~~----------------------|
B|--------10-10~~~~~-10\--|-------12-12-12---------15b17--15b17~~~~~~~-\-|
G|------------------------|-14b16----------------------------------------|
D|------------------------|----------------------------------------------|
A|------------------------|----------------------------------------------|
E|------------------------|----------------------------------------------|

Angus and Malcolm (Rhythm): 

     B E B       B5    B E B       B5    B E B       B5        E
E|-----------------|-----------------|-----------------|-----------------|
B|-----------------|-----------------|-----------------|-----------------|
G|---4---4-4-----4-|---4---4-4-----4-|---4---4-4-----4-|-------1---------|
D|---4-2-4-4-----4-|---4-2-4-4-----4-|---4-2-4-4-----4-|-------2---------|
A|---2-2-2-2-----2-|---2-2-2-2-----2-|---2-2-2-2-----2-|-------2---------|
E|-----------------|-----------------|-----------------|-------0---------|
 |
 |   B A B       B5    B A B       B5    B A B       B5        E5 
E|-----------------|-----------------|-----------------|-----------------|
B|-----------------|-----------------|-----------------|-----------------|
G|---4---4-4-----4-|---4---4-4-----4-|---4---4-4-----4-|-----------------|
D|---4-2-4-4-----4-|---4-2-4-4-----4-|---4-2-4-4-----4-|-------2---------|
A|---2-0-2-2-----2-|---2-0-2-2-----2-|---2-0-2-2-----2-|-------2---------|
E|-----------------|-----------------|-----------------|-------0---------|
                    
    B E B       B5    B E B       B5    B E B        D5       E        A5
E|-----------------|-----------------|-----------------|-----------------|
B|-----------------|-----------------|---------------3-|-----------------|
G|---4---4-4-----4-|---4---4-4-----4-|---4---4-4-----2-|-------1-------2-|
D|---4-2-4-4-----4-|---4-2-4-4-----4-|---4-2-4-4-----0-|-------2-------2-|
A|---2-2-2-2-----2-|---2-2-2-2-----2-|---2-2-2-2-------|-------2-------0-|
E|-----------------|-----------------|-----------------|-------0---------|
 |
 |   B A B       B5    B A B       B5    B A B       D5        E5      A5
E|-----------------|-----------------|-----------------|-----------------|
B|-----------------|-----------------|---------------3-|-----------------|
G|---4---4-4-----4-|---4---4-4-----4-|---4---4-4-----2-|---------------2-|
D|---4-2-4-4-----4-|---4-2-4-4-----4-|---4-2-4-4-----0-|-------2-------2-|
A|---2-0-2-2-----2-|---2-0-2-2-----2-|---2-0-2-2-------|-------2-------0-|
E|-----------------|-----------------|-----------------|-------0---------|

         E5        
E|-----------------| 
B|-----------------|
G|-----------------|
D|-------2---------|
A|-------2---------|
E|-------0---------|
 |  
 |       E5
E|-----------------|
B|-----------------|
G|-----------------|
D|-------2---------|
A|-------2---------|
E|-------0---------|

Bridge:

                     A5    B5                            A5    E5
E|-----------------|-----------------|-----------------|-----------------|
B|-----------------|-----------------|-----------------|-----------------|
G|-----------------|-2-----4---------|-----------------|-2---------------|
D|-----------------|-2-----4---------|-----------------|-2-----2---------|
A|-----------------|-0-----2---------|-----------------|-0-----2---------|
E|-----------------|-----------------|-----------------|-------0---------|
 |
 |                   A5    B5                            A5    B5
E|-----------------|-----------------|-----------------|-----------------|
B|-----------------|-----------------|-----------------|-----------------|
G|-----------------|-2-----4---------|-----------------|-2---------------|
D|-----------------|-2-----4---------|-----------------|-2-----2---------|
A|-----------------|-0-----2---------|-----------------|-0-----2---------|
E|-----------------|-----------------|-----------------|-------0---------|
 |
 |
E|-----------------|-----------------|-----------------|-10--------------|
B|-----------------|-----------------|-----------------|-9b----12~~~~----|
G|-----------------|-----------------|-----------------|-----------------|
D|-----------------|-----------------|-----------------|-----------------|
A|-----------------|-----------------|-----------------|-----------------|
E|-----------------|-----------------|-----------------|-----------------|

                    /      x2        \                           
                 B       A E B                             E 
E|-----------------|-----------------|-----------------|-----------------|
B|-----------------|-----------------|-----------------|-----------------|
G|---------------4-|---4-2-1-------4-|---4-2-1--6pb7r6-|---1-1---1-1-1-1-|
D|---------------4-|---4-2-2-4-----4-|---4-2-2-4------9|---2-2---2-2-2-2-|
A|-----------------|---------2-------|---------2-------|---2-2---2-2-2-2-|
E|-----------------|-----------------|-----------------|---0-0---0-0-0-0-|
 |
 |
E|-----------------|-----------------|-----------------|-----------------|
B|-----------------|-----------------|-----------------|-----------------|
G|---------------4-|---4-2-1-4-----4-|---4-2-1-4-------|---------------4-|
D|---------------4-|---4-2-2-4-----4-|---4-2-2-4-------|-2-2-2-2-2-2-2-4-|
A|---------------2-|---------2-----2-|---------2-------|-2-2-2-2-2-2-2-2-|
E|-----------------|-----------------|-----------------|-0-0-0-0-0-0-0---|
 |
 |
E|-----------------|-----------------|-----------------|-----------------|
B|-----------------|-----------------|-----------------|-----------------|
G|-----------------|-----------------|-----------------|-----------------|
D|-----------------|----------------­-|-----------------|---x\\\\\\-------|
A|-----------------|-----------------|-----------------|---x\\\\\\-------|
E|-----------------|-----------------|-----------------|---x\\\\\\-------|

Play chorus until end of song. But Guitar 3 does some variations for a little
outro solo. 

  3:00                  
                                                                Hold Bend
E|---10h12-13pb15r13-10--------17-------17--------17--------17-17-17-17-|
B|-12-------------------17b19-----17b19-----17b19-----17b19----17-17-17-|
G|----------------------------------------------------------------------|
D|----------------------------------------------------------------------|
A|----------------------------------------------------------------------|
E|----------------------------------------------------------------------|

E|--------------14---14---14---14------------14------------|----------------|
B|-15-12~~~-\---15b--15b--15b--15b-----------15b-----------|-15b------------|
G|----------------------------------16~~~~~\------16~~~~~\-|------14p0-14~~~|
D|---------------------------------------------------------|----------------|
A|---------------------------------------------------------|-------------10\|
E|---------------------------------------------------------|----------------|

E|-------17-------17-------17-------17----------------------7---7-5-7-7-|
B|-17b19----17b19----17b19----17b19----17b19-17-15h17p15----------------|
G|----------------------------------------------------------------------|
D|----------------------------------------------------------------------|
A|----------------------------------------------------------------------|
E|----------------------------------------------------------------------|
comments
print report bad tab
2 comments total.
0 reply
Guitarplayer806 wrote on June 2 2010, 03:21 pm

sucks b*lls

+1 reply
playinbass1432 wrote on June 3 2010, 01:24 am

Lmfao...how so my good sir ?

If you're going to be criticizing the tab give me some ACTUAL criticism, ****face.

I want to post or [tab]
guest
You may want to rate the tab now too:
select rating
Please do not post tabs as comments. Select "correction" instead!