Oops, an error
Loading. Please wait.

Squealer Tab

ver2
ver2

Whole song

More versions @911Tabs.com
8,365 views 30 this week
3 commentsread comments
1 2 3 4 5
excellent!
x 6
add to favorites launch autoscroll
font size
0
reset
Autoscroll
+/-
esc
set tempo
stop
Contributor
WARNING: You are trying to view
                                    content from Ultimate-Guitar.com
                                    in an unauthorized application,
                                    which is prohibited.

                                    Please use an official Ultimate
                                    Guitar Tabs application for iPhone,
                                    iPad or Android to access legitimate
                                    chords, guitar, bass, and drum tabs
                                    from Ultimate-Guitar.com database.

                                    Type "ultimate guitar tabs" in Apple
                                    App Store's or Android Market's
                                    search to find the application.
Transcribed by www.mikesguitarsite.co.uk

Words and Music by Ronald Scott, Angus Young & Malcolm Young

F5      1 3 3 x x x
C5      x 3 5 5 x x
D5      x 5 7 7 x x
G5      3 5 5 x x x

B5/A    x 0 4 4 x x
B5      x 2 4 4 x x



Gtr I (E A D G B E) - 'Mal & Angus Rhythm'
Gtr II (E A D G B E) - 'Angus lead'

Intro
    Q=130
   4/4
    Gtr I
    H.      +E  E   +H.      +E  E   +W           +W      4x
||----------------|----------------|------------|---------||
||o---------------|--------------3-|-(3)--------|-(3)----o||
||--2-------(2)-0-|-(0)------(0)-2-|-(2)--------|-(2)-----||
||--3-------(3)-0-|-(0)------(0)-0-|-(0)--------|-(0)-----||
||o-3-------(3)-0-|-(0)------(0)---|------------|--------o||
||--1-------(1)-3-|-(3)------(3)---|------------|---------||


  +W           +W           +W           Wx3
|------------|------------|------------|--------||
|-(3)--------|-(3)--------|-(3)--------|--------||
|-(2)--------|-(2)--------|-(2)--------|--------||
|-(0)--------|-(0)--------|-(0)--------|--------||
|------------|------------|------------|--------||
|------------|------------|------------|--------||


 Verse
   W          +W           +W           +W
|-----------|------------|------------|--------|
|-----------|------------|------------|--------|
|-^7--------|-(7)--------|-(7)--------|-(7)----|
|-^7--------|-(7)--------|-(7)--------|-(7)----|
|-^5--------|-(5)--------|-(5)--------|-(5)----|
|-----------|------------|------------|--------|


   W          +W           +W           +W
|-----------|------------|------------|--------|
|-----------|------------|------------|--------|
|-^4--------|-(4)--------|-(4)--------|-(4)----|
|-^4--------|-(4)--------|-(4)--------|-(4)----|
|-^2--------|-(2)--------|-(2)--------|-(2)----|
|-----------|------------|------------|--------|


   W          +W           +W           +W
|-----------|------------|------------|--------|
|-----------|------------|------------|--------|
|-^7--------|-(7)--------|-(7)--------|-(7)----|
|-^7--------|-(7)--------|-(7)--------|-(7)----|
|-^5--------|-(5)--------|-(5)--------|-(5)----|
|-----------|------------|------------|--------|


     W          +W            W          +W
||------------|------------|-----------|---------||
||o-----------|------------|-----------|--------o||
||--^7--------|-(7)--------|-^7--------|-(7)-----||
||--^7--------|-(7)--------|-^7--------|-(7)-----||
||o-^5--------|-(5)--------|-^5--------|-(5)----o||
||------------|------------|-----------|---------||


     W          +W                  W          +W
||------------|-------------||-||------------|---------||
||o-----------|------------o||-||o-----------|--------o||
||--^4--------|-(4)---------||-||--^7--------|-(7)-----||
||--^4--------|-(4)---------||-||--^7--------|-(7)-----||
||o-^2--------|-(2)--------o||-||o-^5--------|-(5)----o||
||------------|-------------||-||------------|---------||


    E E +Q   +H       +W          4x     E E +Q   +H       +W
||------------------|-------------||-||------------------|---------||
||o-----------------|------------o||-||o-----------------|--------o||
||--5-7-(7)--(7)----|-(7)---------||-||--4-4-(4)--(4)----|-(4)-----||
||--5-7-(7)--(7)----|-(7)---------||-||--4-4-(4)--(4)----|-(4)-----||
||o-3-5-(5)--(5)----|-(5)--------o||-||o-0-2-(2)--(2)----|-(2)----o||
||------------------|-------------||-||------------------|---------||


  E E +Q   +H       +W           E E +Q   +H       +W
|-----------------|------------|-----------------|--------|
|-----------------|------------|-----------------|--------|
|-5-7-(7)--(7)----|-(7)--------|-5-7-(7)--(7)----|-(7)----|
|-5-7-(7)--(7)----|-(7)--------|-5-7-(7)--(7)----|-(7)----|
|-3-5-(5)--(5)----|-(5)--------|-3-5-(5)--(5)----|-(5)----|
|-----------------|------------|-----------------|--------|


   Chorus
    E E +Q   +H       +W          4x     E E +Q   +H       +W
||------------------|-------------||-||------------------|---------||
||o-----------------|------------o||-||o-----------------|--------o||
||--5-7-(7)--(7)----|-(7)---------||-||--4-4-(4)--(4)----|-(4)-----||
||--5-7-(7)--(7)----|-(7)---------||-||--4-4-(4)--(4)----|-(4)-----||
||o-3-5-(5)--(5)----|-(5)--------o||-||o-0-2-(2)--(2)----|-(2)----o||




















||------------------|-------------||-||------------------|---------||

                     __________
                    |1.
    Gtr I
    E E +Q   +H       +W
||------------------|-------------||
||o-----------------|------------o||
||--5-7-(7)--(7)----|-(7)---------||
||--5-7-(7)--(7)----|-(7)---------||
||o-3-5-(5)--(5)----|-(5)--------o||
||------------------|-------------||


 __________________
|2.
                     B5/B5             B5/AB5
                   Gtr I
                     E  E Q        Q   E   E
                     |  | |        |   |   |
                     /  / /        /   /   /

  +W
|------------------|
|------------------|
|-(7)--------------|
|-(7)--------------|
|-(5)--------------|
|------------------|
|
|                                          |---3----|
|  H     E E +E  E   Q.     E     +Q   S S S    +S  S
|------------------|----------------------------------||
|----------7-(7)---|-------------------7--------------||
|----------7-(7)-7-|--------9b11-(11)----9-9b11r(9)-7-||
|------------------|-9--------------------------------||
|------------------|----------------------------------||
|------------------|----------------------------------||


 Guitar Solo
  B5  B5/AB5                   B5/A B5                            B5/A   B5
  Gtr I
  E   E   Q  Q  Q              E    E        Q               Q     E      E
  |   |   |  |  |              |    |        |               |     |      |
  /   /   /  /  /              /    /        /               /     /      /

  Gtr II
                |-3-|  |-3-|
  S S S S Q  Q  S S S  S S S   S  S S S     +E  T    +T  T T S S E E     +E
|---------------------10p7---|-7---------------------------------------------|
|-------------------7------7-|---10p7----------------------------------------|
|-9---7---7------------------|--------9b11-(11)-9b11r(9)-7---9---7-9b11-(11)-|
|---9---9----9---------------|-----------------------------9---9-------------|
|----------------------------|-----------------------------------------------|
|----------------------------|-----------------------------------------------|


     B5B5
  +E E  Q       Q   Q
   | |  |       |   |
   / /  /       /   /

                    |-3-|  |--3--|
   E E  E    E +Q   S S S  S  S  S
|--7---------7-(7)-------------------|
|----7-10b11--------------------10---|
|-------------------------10h12------|
|-----------------------9------------|
|------------------------------------|
|------------------------------------|


  C5    D5                         C5            D5
   E     E      Q    Q              E             E
   |     |      |    |              |             |
   /     /      /    /              /             /

                                    |---3---|     |--3--|
   S  S  E     +Q    S  S  S  S     S  +S   S     S  S  S
|-10----------------10------------------------------------|
|----10-13b15-(15)-----10-13-------10-(10)----------------|
|----------------------------12b14---------12b14-12p10----|
|------------------------------------------------------12-|
|---------------------------------------------------------|
|---------------------------------------------------------|


        C5       D5
  +E     E         Q         H
   |     |         |         |
   /     /         /         /

                                             |---3----|  |--3--|
   S  S  S  S     +S   S  E  S  S  S  S     +S   +S   S  S  S  S
|---------------------10-13-10-----------------------------------|
|------------------------------10-10-----------------10----------|
|-12----10h12b14-(14)----------------12b14-(14)-(14)----12p10----|
|----12-------------------------------------------------------12-|
|----------------------------------------------------------------|
|----------------------------------------------------------------|


  C5    D5                            C5    D5        C5 D5
   E     E     Q           Q           E     E    +E   E  Q   H
   |     |     |           |           |     |     |   |  |   |
   /     /     /           /           /     /     /   /  /   /

   S  S  S  S  S  S  S  S  S  S  S  S  S  S  E    +E   E  Q   Q  S  S  E
|----------------------------------------------|----------------------------|
|----------------------------------------------|----------------------22b24-|
|-12----10-12-10-10-10-------------------------|------10-10\-------19-------|
|----12----------------12-10----------10-12-12-|-(12)-----------------------|
|----------------------------12-12-12----------|----------------------------|
|----------------------------------------------|----------------------------|


  B5/A B5                             B5/A     B5
    E  E         Q           Q         E        E
    |  |         |           |         |        |
    /  /         /           /         /        /

   +Q     a     +Q    a     +E   S  S  S  S     S  S
|-------------------------------19-------------19----|
|-(24)---22b24-(24)--22b24-(24)----19-22-22b24----19-|
|----------------------------------------------------|
|----------------------------------------------------|
|----------------------------------------------------|
|----------------------------------------------------|


  B5       B5/A  B5
  +E        E     Q              Q              Q
   |        |     |              |              |
   /        /     /              /              /

   S  S     S  S  S  S     S  S  S  S     S  S  S  S     S  S
|----------19-------------19-------------19-------------19-22-|
|-22-22b24----19-22-22b24----19-22-22b24----19-22-22b24-------|
|-------------------------------------------------------------|
|-------------------------------------------------------------|
|-------------------------------------------------------------|
|-------------------------------------------------------------|


  B5/A  B5                        B5/B5
   E     E     Q            Q      E  E
   |     |     |            |      |  |
   /     /     /            /      /  /

                                      ~~
   S  S  S  S  S  S  S  S  +E   E  E  E
|-19----19------------------------------|
|----22----22-19----19---------22----19-|
|----------------21----21-(21)----22----|
|---------------------------------------|
|---------------------------------------|
|---------------------------------------|


  B5   B5/A  B5
   +E   E     Q           Q        Q
    |   |     |           |        |
    /   /     /           /        /

   +E   S  S  S  S  S  S  S  S  E  E  S  S
|------------------------------------10----|
|-(19)-19-22-19----19-------------------10-|
|---------------22----21-19----21\---------|
|---------------------------21-------------|
|------------------------------------------|
|------------------------------------------|


        C5   D5                           C5    D5
          E  E  Q           Q              E     E
          |  |  |           |              |     |
          /  /  /           /              /     /

   a     +Q     S  S  E     S  S  S  S     S  S  S  S
|--------------10----------10-------------10----------|
|-13b15-(15)------10-13b15----10-13-13b15----10-13-13-|
|-----------------------------------------------------|
|-----------------------------------------------------|
|-----------------------------------------------------|
|-----------------------------------------------------|


  D5    C5    D5
  +E     E     Q                 H
   |     |     |                 |
   /     /     /                 /

                        |--3--|
   S  S  S  S  S  S     S  S  S  S  S  E  Q
|-10-----------------------------------------|
|----10-13----10-----------------------------|
|----------12----12b14-12-10----12----10\----|
|----------------------------12----12--------|
|--------------------------------------------|
|--------------------------------------------|


  C5D5                         C5 D5            C5D5
  E  E    Q          Q          E  E       +E   E Q  H
  |  |    |          |          |  |        |   | |  |
  /  /    /          /          /  /        /   / /  /

  E  S S  S  S S  S  S S  S  S  E  S  S    +H        H
|------------------------------13-12-10-|-(10)\-----------|
|---------------------------10----------|-----------------|
|--------------9-------9-12-------------|-----------------|
|------9-10-12---10-12------------------|-----------------|
|---12----------------------------------|-----------------|
|---------------------------------------|-----------------|


  F5             G5
  H       +Q.    E   +W
  |        |     |    |
  /        /     /    /

  |--3--|             |--3--|
  Q  Q  Q  Q   Q      Q  Q  Q  Q   Q
|---10-10-10\------|----10-10-10\------|
|------------------|-------------------|
|------------------|-------------------|
|------------------|-------------------|
|------------------|-------------------|
|------------------|-------------------|


  C5D5
  E E +Q  +H               +W
  | |  |   |                |
  / /  /   /                /

                            |--3--|
  H        E  E     +Q      Q  Q  Q  Q   Q
|------------13b16-(16)--|-13-10-10-10\-------|
|------------------------|--------------------|
|------------------------|--------------------|
|------------------------|--------------------|
|------------------------|--------------------|
|------------------------|--------------------|


  F5              G5
   H       +Q.    E   +W
   |        |     |    |
   /        /     /    /

   |--3--|             |-3-|
   Q  Q  Q  Q   E E    Q Q Q Q  Q
|-13-10-10-10\------|---------------|
|---------------7---|---------------|
|-------------------|----7-7-7------|
|-------------------|---------------|
|-----------------8h|=10------------|
|-------------------|---------------|


  C5D5
  E E +Q        +H             +W
  | |  |         |              |
  / /  /         /              /

                                |--3---|
  Q    E  E     +Q    Q        +Q   Q  Q  Q   Q
|--------13b15-(15)--13b16--|-(16)-13-10-10\-------|
|---------------------------|----------------------|
|---------------------------|----------------------|
|---------------------------|----------------------|
|---------------------------|----------------------|
|---------------------------|----------------------|


  F5             G5
  H       +Q.    E   +W
  |        |     |    |
  /        /     /    /

  |--3--|             |--3--|
  Q  Q  Q  Q   Q      Q  Q  Q  Q   Q
|---10-10-10\--7---|----10-10-10\------|
|------------------|-------------------|
|------------------|-------------------|

|------------------|-------------------|
|------------------|-------------------|
|------------------|-------------------|


  C5D5
  E E +Q  +H                 +W
  | |  |   |                  |
  / /  /   /                  /

  H        E  E     +E   E    E   E      E   Q.    Q
|------------15b17r(15)-13-|-15-[15]b17-13-------------|
|--------------------------|---------------[15]\-------|
|--------------------------|---------------------------|
|--------------------------|---------------------------|
|--------------------------|---------------------------|
|--------------------------|---------------------------|


  F5               G5
  H          +Q.   E   +W
  |           |    |    |
  /           /    /    /

  |--3--|               |--3--|     |--3--|
  Q  Q  Q     H         Q  Q  Q     Q  Q  Q
|---13-13b14---------|----13-13b14-13-13-13b14---|
|------------15------|-------------15------------|
|--------------------|---------------------------|
|--------------------|---------------------------|
|--------------------|---------------------------|
|--------------------|---------------------------|


  C5 D5
   E E +Q     +Q     +E E    E  E   E   E  Q   Q
   | |  |      |      | |    |  |   |   |  |   |
   / /  /      /      / /    /  /   /   /  /   /

           ~~~~~~~    ~~        ~~~~~~~    ~~~
   Q    E  E  +E   E  Q      E  E  +E   E  Q   E  E
|------13---------13------|-13---------13--------10--|
|-15------15-(15)----15---|----15-(15)----15\--------|
|-------------------------|--------------------------|
|-------------------------|--------------------------|
|-------------------------|--------------------------|
|-------------------------|--------------------------|


        F5                            G5
          H     +Q.                    E
          |      |                     |
          /      /                     /

   a     +H      S   S  S  S     S  S  E
|-13b15-(13)----10--------------------------|
|-------------------10-13-------10----------|
|-------------------------12b13----10-12b14r|
|-------------------------------------------|
|-------------------------------------------|
|-------------------------------------------|


                                          C5 D5
   +Q    Q           H                     E E +Q     +Q        +E     E
    |    |           |                     | |  |      |         |     |
    /    /           /                     / /  /      /         /     /

   +Q    S  S  S  S  S  S  E  +E   S  S    Q    E  E  +E   S  S  S  S  S  S
|-------10------------------------------|-----------------------------------|
|-------10------------------------------|------10-10-(10)-------------------|
|-(12)-----12-10----12----10-(10)-------|------10-10-(10)----10-12p10----10-|
|----------------12----12---------12p10-|-12--------------12----------12----|
|---------------------------------------|-----------------------------------|
|---------------------------------------|-----------------------------------|


  D5
  +E     E     Q         Q   Q
   |     |     |         |   |
   /     /     /         /   /

   S  S  S  S  S  S  E  +Q   S  S  E
|---------------------------------10-|
|-12----------12----10-(10)----10----|
|-12p10-------12----10-(10)----------|
|-------12-12----12------------------|
|------------------------------------|
|------------------------------------|


  F5                                                      G5
   H.                                           E          E
   |                                            |          |
   /                                            /          /

       |--3--|     |--3--|  |---3---|  |--3--|  |---3---|  |--3--|
   E   S  S  S  E  S  S  S  S  +S   S  S  S  S  S  +S   S  S  S  S
|-10-----------10-13p10----10-(10)---------------------------------|
|-----13p10h12----------13---------10-13p10----10-(10)-10-13p10----|
|-------------------------------------------12------------------12-|
|------------------------------------------------------------------|
|------------------------------------------------------------------|
|------------------------------------------------------------------|


  G5
  +W
   |
   /

   |---3---|  |--3--|  |---3---|
   S  +S   S  S  S  S  S  +S   S  E  S     +S   +Q    S  S
|----------------------------------------------------10----|
|-10-(10)---------------------------13b15-(15)-(15)-----10-|
|---------13-12p10----12-(12)----10------------------------|
|------------------12---------12---------------------------|
|----------------------------------------------------------|
|----------------------------------------------------------|


  C5       D5                                  C5       D5
   E        E     Q              Q              E        E
   |        |     |              |              |        |
   /        /     /              /              /        /

                                                         |--3--|
   S     S  S  S  S     S  S  S  S     S  S  S  S     S  S  S  S
|-----------------------------------------------------------------|
|-------10-13p10-------10-13p10-------10-13p10-------10-13p10-----|
|-12b14----------12b14----------12b14----------12b14----------12--|
|-----------------------------------------------------------------|
|-----------------------------------------------------------------|
|-----------------------------------------------------------------|


  D5       C5    D5
  +E        E     Q                    Q                 Q
   |        |     |                    |                 |
   /        /     /                    /                 /

                           |--3--|     |--3--|           |--3--|
   S     S  S  S  S     S  S  S  S     S  S  S  S     S  S  S  S     S  S
|-------------------------------------------------------------------------|
|-------10-13p10-------10-13p10-------10-13p10-------10-13p10-------10-10-|
|-12b14----------12b14----------12b14----------12b14----------12b14-------|
|-------------------------------------------------------------------------|
|-------------------------------------------------------------------------|
|-------------------------------------------------------------------------|


  F5                                              G5
   H                   +Q.                         E
   |                    |                          |
   /                    /                          /

   |--3--|  |--3--|            |--3--|
   S  S  S  S  S  S Q   S   S  S  S  S     +S   S  E
|----------------------------------------------10--------|
|-13p10----10h13p10----10--10-13p10---------------13b15--|
|-------12--------------------------12b14-(14)-----------|
|--------------------------------------------------------|
|--------------------------------------------------------|
|--------------------------------------------------------|


  G5
   +W
    |
    /

    |---3----|  |--3--|  |-----5-----|              |--3--|  |--3---|
   +S   +S   S  S  S  S  S  S  S  S  S  S  S  S  S  S  S  S  S  S  +S
|----------------------------------------------------------------------|
|-(15)-(15)-13-10----10------------------------------------------------|
|-----------------12----12-10----12----10h12p10----10------------------|
|-----------------------------12----12----------12----12p10----12-(12)-|
|-----------------------------------------------------------12---------|
|----------------------------------------------------------------------|


  C5            D5                               C5       D5
   E             E        Q           Q           E        E
   |             |        |           |           |        |
   /             /        /           /           /        /

   |----3-----|  |--3--|  |---5----|              |--3--|  |--3--|
   S     +S   S  S  S  S  S S  S S S  S  S  S  S  S  S  S  S  S  S
|-------------------------------------------------------------------|
|-------------------------------------------------------------------|
|---------------------------------------------------------10----10--|
|-10b12-(12)-10-12-10------------7------10----10-12-10-12----12-----|
|---------------------12s10p8-10---8-12----12-----------------------|
|-------------------------------------------------------------------|


  D5    C5 D5
  +E     E  Q                 H
   |     |  |                 |
   /     /  /                 /

            |--3--|  |--3--|  |--3--|        |--3--|  |--3--|
   S  S  E  S  S  S  S  S  S  S  S  S  S  S  S  S  S  S  S  S
|----------------------10-------------10-------------------10-|
|----------10-10-13p10----10-13p10h13----10-13p10-10-10-10----|
|-12p10-12----------------------------------------------------|
|-------------------------------------------------------------|
|-------------------------------------------------------------|
|-------------------------------------------------------------|


  F5                                                          G5
   H                                       +Q.                 E
   |                                        |                  |
   /                                        /                  /

   |---3----|  |--3--|  |---3---|  |--3--|                     |--3--|
   S  S     S  S  S  S  S  +S   S  S  S  S  S   S  S  S  S  S  S  S  S
|----------------------10-(10)-------------10--13-10----10---------------|

|-10-------10-13p10-13---------10-13p10--------------13----13p10----10---|
|----12b14------------------------------12-----------------------12------|
|------------------------------------------------------------------------|
|------------------------------------------------------------------------|
|------------------------------------------------------------------------|


  G5
  +W
   |
   /

   |--3--|        |----3----|       |---3----|  |--3--|  |---3---|  |---3---|
   S  S  S  S  S  S  S     +S   E  +S   +S   S  S  S  S  S  +S   S  S  +S   S
|------------------------------------------------------------------15-(15)----|
|-------------------------------------------13-13-14-14-15-(15)-15---------15-|
|-12p10----12----10-12b14-(14)-12-(12)-(12)-----------------------------------|
|-------12----12--------------------------------------------------------------|
|-----------------------------------------------------------------------------|
|-----------------------------------------------------------------------------|


        C5   D5                          C5       D5
          E  E  Q             Q           E        E
          |  |  |             |           |        |
          /  /  /             /           /        /

                |---3---|                 |--3--|  |---3---|
   a     +Q     S  +S   S  E  E     S  S  S  S  S  S  +S   S
|--------------15-(15)-------------------17-17------------20b22--|
|-18b20-(20)-----------18p15-20b22-18-20-------20p18-(18)--------|
|----------------------------------------------------------------|
|----------------------------------------------------------------|
|----------------------------------------------------------------|
|----------------------------------------------------------------|


  D5   C5   D5
    E  E     Q              Q                 Q
    |  |     |              |                 |
    /  /     /              /                 /

             |-----5-----|  |--3--|  |--3--|
   +E.    S  S  S  S  S  S  S  S  S  S  S  S  S  S  E
|-(22)---20-20p17-19p17----17-------------------------|
|-----------------------20----20-18----18h20-18-18-18-|
|-----------------------------------19----------------|
|-----------------------------------------------------|
|-----------------------------------------------------|
|-----------------------------------------------------|


  F5                         G5
   H              +Q.        E      +W
   |               |         |       |
   /               /         /       /

       ~~~~~~~~~~~
   Q   E     E     Q    S  E    S    E     E     E     E     +Q   Q
|-17------------------------------|----------------------------------|
|-----20b22-20b22-22---22-20---18-|-20b22-20b22-20b22-20b22-(22)-----|
|---------------------------------|----------------------------------|
|---------------------------------|----------------------------------|
|---------------------------------|----------------------------------|
|---------------------------------|----------------------------------|


  C5     D5                                    C5    D5
  E       E        Q           Q                E     E
  |       |        |           |                |     |
  /       /        /           /                /     /

  |-3--|  |--3--|
  S S  S  S  S  S  S  S  S  S  S  a     +E   S  S  S  E
|-----10-13p10----10------------------------------------|
|--------------13----13p10----10------------------------|
|--------------------------12----12b14r(12)-10-12----10-|
|-------------------------------------------------12----|
|-------------------------------------------------------|
|-------------------------------------------------------|


       C5    D5
   +E   E     Q          H
    |   |     |          |
    /   /     /          /

   +E   S  S  Q   a     +Q    S  S  S  S
|----------------------------------------|
|----------------------------10-13-10----|
|-(10)-----------12b14-(14)-----------12-|
|------12p10-12--------------------------|
|----------------------------------------|
|----------------------------------------|


  F5                                                    G5
   H                            +Q.                      E
   |                             |                       |
   /                             /                       /

   S  S  S     S  S  S     S  S  S     S  S  S     S  S  S     S
|----------------------------------------------------------------|
|-10-13-------10-13-------10-13-------10-13-------10-13-------10-|
|-------12b14-------12b14-------12b14-------12b14-------12b14----|
|----------------------------------------------------------------|
|----------------------------------------------------------------|
|----------------------------------------------------------------|


  +W
   |
   /

                                           |--3--|
   S  S  S  S  E     S  S  S  S      S  S  S  S  S  S  S
|-------10----------10-----------------------------------|
|-13-------10-13b15----10-13--------10-------------------|
|----12----------------------12b14=====13r12-10----12----|
|-----------------------------------------------12----12-|
|--------------------------------------------------------|
|--------------------------------------------------------|


  C5    D5                      C5    D5
   E     E     Q           Q      E   E
   |     |     |           |      |   |
   /     /     /           /      /   /

   S  S  S  S  S  S  S  S  E  E  +Q
|---------------------------------------|
|---------------------------------------|
|-10h12p10------------------------------|
|----------12-10h12p10----12-12-(12)\---|
|----------------------12---------------|
|---------------------------------------|


         C5      D5
  +E      E      Q         Q         Q
   |      |      |         |
   /      /      /         /

   |-3-|  |-3--|
   S S S  S S  S S  S S  S S  S S  S S  S S  S
|-----------------------------------------------|
|-----------------------------------------------|
|------7-10p7----7-10p7----7-10p7----7-10p7-----|
|-------------10--------10--------10--------10--|
|-----------------------------------------------|
|-----------------------------------------------|


  F5                                             G5
  H                        +Q.                   E
  |                         |                    |
  /                         /                    /

  |----5----|  |----5----|  |----5-----|  |-----5-----|
  S  S S  S S  S S  S S  S  S   S S  S S  S S  S   S  S
|-------------------------------------------------------|
|-------------------------------------------------------|
|-7-10p7----7-10p7----7-10p=7-----7-10p7----7-10p==7----|
|--------10--------10----------10--------10----------10-|
|-------------------------------------------------------|
|-------------------------------------------------------|


  +W
   |
   /

   |----5----|  |--3--|
   S  S S S  S  S  S  S  S  S  S  S S  S  E  E
|-----------------------------------------------|
|-----------10-13p12p10-------------------------|
|--7-10p7---------------12----11-10p9-----------|
|--------------------------12---------10-12-12--|
|-----------------------------------------------|
|-----------------------------------------------|


  C5 D5                               C5    D5
  E  E Q                Q              E     E
  |  | |                |              |     |
  /  / /                /              /     /

       |-3--|  |--3--|        |--3--|
  E  E S S  S  S  S  S  S  S  S  S  S  S  S  S  S
|---13-----10----------------------------------------|
|-------------13p12p10----10-------------------------|
|----------------------12----12p10----12----10-12b14-|
|----------------------------------12----12----------|
|----------------------------------------------------|
|----------------------------------------------------|


          C5    D5
   +E      E     Q              Q                 Q
    |      |     |              |                 |

    /      /     /              /                 /

   +S   S  S  S  S     S  S  S  S     S  S  S     S  S  S     S
|---------10-----------------------------------------------------|
|------10----10-------10-13-10-------10-10-------10-10-------10--|
|-(14)----------12b14----------12b14-------12b14-------12b14-----|
|----------------------------------------------------------------|
|----------------------------------------------------------------|
|----------------------------------------------------------------|


  F5                                           G5
  H                                 +Q.         E
  |                                  |          |
  /                                  /          /

              |----3-----|  |--3--|
  E  S     S  S     +S   S  S  S  S  Q    S  S  E
|-------------------------------------------------|
|---------10-12b14r(12)-10------------------------|
|---12b14---------------------12----10------------|
|--------------------------12----12------12-10-12-|
|-------------------------------------------------|
|-------------------------------------------------|


   +W
    |
    /

                                           |--3--|
   +E   E  E  E     +S   S  S  S  S     S  S  S  S
|-----------------------------------------10-------|
|-----------------------10-13p10-------10----13p10-|
|------10-10-12b14-(14)----------12b14-------------|
|-(12)---------------------------------------------|
|--------------------------------------------------|
|--------------------------------------------------|


  C5       D5                                        C5       D5
   E        E        Q                 Q              E       E
   |        |        |                 |              |       |
   /        /        /                 /              /       /

            |--3--|           |--3--|                 |------5------|
   S     S  S  S  S  S     S  S  S  S  S     S  S  S  S  S  S    S  S
|----------10----------------10----------------10---------------10----|
|-------10----13p10-------10----13p10-------10----13p10----10------13-|
|-12b14-------------12b14-------------12b14-------------12------------|
|---------------------------------------------------------------------|
|---------------------------------------------------------------------|
|---------------------------------------------------------------------|


           C5    D5
  +E        E     Q              Q           Q
   |        |     |              |           |
   /        /     /              /           /

   S  S     S  S  S  S  S     S  E  S     S  S  S  S     S
|-------------10----------------10--------------------------|
|-10-------10----13-10-------10----------10-13-10-------10--|
|----12b14-------------12b14-------12b14----------12b14-----|
|-----------------------------------------------------------|
|-----------------------------------------------------------|
|-----------------------------------------------------------|


  F5                                                  G5
   H                               +Q.                 E
   |                                |                  |
   /                                /                  /

   |--3--|  |--3--|  |-----5-----|
   S  S  S  S  S  S  S  S  S  S  S  S   S  S  S  S  S  S  S
|-----------------------------------------------------------|
|-13p10----10-13p10----10-13p10----10-----------------------|
|-------12----------12----------12-----12p10----12----10----|
|--------------------------------------------12----12----12-|
|-----------------------------------------------------------|
|-----------------------------------------------------------|


                                           C5  D5         C5 D5
  +W                                        E  E  Q     Q  E E
   |                                        |  |  |     |  | |
   /                                        /  /  /     /  / /

                                            TP TP TP TP TP
         |--3--|        |--3--|  |--3--|
   S  S  S  S  S  S  S  S  S  S  Q  Q  Q    E  E  E  E  H
|----------------------------------------|-------10-13-15--------|
|----------------------------------------|-10-13-----------------|
|-10-10----------------------------10-12-|-----------------------|
|-------12p10----10-12p10----10-12-------|-----------------------|
|-------------12----------12-------------|-----------------------|
|----------------------------------------|-----------------------|


  D5 C5 D5                   F5          G5                  C5   D5     C5D5
  +E E  Q          Q   Q      H     +Q.   E    +W             E  E Q  Q  E E
   | |  |          |   |      |      |    |     |             |  | |  |  | |
   / /  /          /   /      /      /    /     /             /  / /  /  / /

   TP   TP TP      TP         TP                TP            TP
   Q    E  E      +H         +W                +W            +W
|-17---15-17b20==(20)-----|-(20)------------|-(20)--------|-(20)-------------|
|-------------------------|-----------------|-------------|------------------|
|-------------------------|-----------------|-------------|------------------|
|-------------------------|-----------------|-------------|------------------|
|-------------------------|-----------------|-------------|------------------|
|-------------------------|-----------------|-------------|------------------|


  D5   C5D5                   F5                                  G5
   +E  E Q    Q    Q            Q        Q        E     E      E  E
    |  | |    |    |            |        |        |     |      |  |
    /  / /    /    /            /        /        /     /      /  /

    TP        TP
                                |-----3-----|
   +H        +Q.      E        +Q   Q       Q     E     E     +Q
|-(20)------(20)r----17b20==|=(20)r17b19---17b19-17b19-17b19-(19)---|
|---------------------------|---------------------------------------|
|---------------------------|---------------------------------------|
|---------------------------|---------------------------------------|
|---------------------------|---------------------------------------|
|---------------------------|---------------------------------------|


                                           C5 D5                        F5
  +E     E          Q      Q       Q        E E         Q    Q           E     E
   |     |          |      |       |        | |         |    |           |     |
   /     /          /      /       /        / /         /    /           /     /

   E     S     +S   E  E  +E   E  +E   E    Q    a     +Q    S  S  S  S  S  S  S  S
|-17b22-17b20-(20)-17-15-(15)------------|------------------20----20----20----20----|
|-----------------------------15-(15)-18-|-15---20b22-(22)-----22----22----22----22-|
|----------------------------------------|------------------------------------------|
|----------------------------------------|------------------------------------------|
|----------------------------------------|------------------------------------------|
|----------------------------------------|------------------------------------------|


  F5 C5     D5                          F5                               G5
  +E  E       Q     Q      Q              Q    Q               E  E   E   E
   |  |       |     |      |              |    |               |  |   |   |
   /  /       /     /      /              /    /               /  /   /   /

   E  E      +Q    +E   E  E  E    a     +Q    S  E     S     +Q     +E   E
|-------------------------------|-20b22-(22)--22-------20b22-(22)---(22)-20b22==|
|-22-20b22==(22)--(22)-21r20p18-|----------------20b21--------------------------|
|-------------------------------|-----------------------------------------------|
|-------------------------------|-----------------------------------------------|
|-------------------------------|-----------------------------------------------|
|-------------------------------|-----------------------------------------------|





   +E   E  Q           E     E     E       E
    |   |  |           |     |     |       |
    /   /  /           /     /     /       /

   +E   E  S  S  S  S  S  S  S  S  S  E.
|-(22)-20-20-20-20-20-20-20-20-20-20---------|
|------------------------------------20b21---|
|--------------------------------------------|
|--------------------------------------------|
|--------------------------------------------|
|--------------------------------------------|


  C5    D5                            C5    D5
   E     E     Q           Q           E     E
   |     |     |           |           |     |
   /     /     /           /           /     /

   S  S  S  S  S  S  S  S  S  S  S  S  S  S  S  S
|-20-20-20-20-20-20-20-20-20-20-20-20-20-20-20-20-|
|-------------------------------------------------|
|-------------------------------------------------|
|-------------------------------------------------|
|-------------------------------------------------|
|-------------------------------------------------|


        C5    D5
  +E     E     Q           Q           Q
   |     |     |           |           |
   /     /     /           /           /

   S  S  S  S  S  S  S  S  S  S  S  S  S  S  S  S
|-20-20-20-20-20-20-20-20-20-20-20-20-20-20-20-20-*|
|-------------------------------------------------*|
|-------------------------------------------------*|
|-------------------------------------------------*|
|-------------------------------------------------*|
|-------------------------------------------------*|
comments
print report bad tab
3 comments total.
0 reply
hepzibahbaptist wrote on October 25 2005, 06:43 pm

great tab

0 reply
doompers7491 wrote on May 27 2008, 07:57 pm

great tab..this solo is amazing

0 reply
xXxThE_cHaDxXx wrote on February 20 2009, 01:49 am

Tried out the intro/chorus/verse on my practice acoustic and sounds good. I'll test out the solo when I get to my electric and amp sitting around somewhere... GJ

I want to post or [tab]
guest
You may want to rate the tab now too:
select rating
Please do not post tabs as comments. Select "correction" instead!